  0
SECTION
  2
HEADER
  9
$ACADVER
  1
AC1009
  9
$INSBASE
 10
0.0
 20
0.0
 30
0.0
  9
$EXTMIN
 10
0.0
 20
-1.4802182810368341
 30
0.0
  9
$EXTMAX
 10
175.40000000000001
 20
87.398730181343836
 30
0.0
  9
$LIMMIN
 10
0.0
 20
0.0
  9
$LIMMAX
 10
187.5
 20
135.0
  9
$ORTHOMODE
 70
     1
  9
$REGENMODE
 70
     1
  9
$FILLMODE
 70
     1
  9
$QTEXTMODE
 70
     0
  9
$MIRRTEXT
 70
     0
  9
$DRAGMODE
 70
     2
  9
$LTSCALE
 40
5.0
  9
$OSMODE
 70
    37
  9
$ATTMODE
 70
     1
  9
$TEXTSIZE
 40
0.06
  9
$TRACEWID
 40
0.05
  9
$TEXTSTYLE
  7
STANDARD
  9
$CLAYER
  8
0
  9
$CELTYPE
  6
BYLAYER
  9
$CECOLOR
 62
   256
  9
$DIMSCALE
 40
0.5
  9
$DIMASZ
 40
3.0
  9
$DIMEXO
 40
2.0
  9
$DIMDLI
 40
10.0
  9
$DIMRND
 40
0.0
  9
$DIMDLE
 40
0.0
  9
$DIMEXE
 40
2.0
  9
$DIMTP
 40
0.0
  9
$DIMTM
 40
0.0
  9
$DIMTXT
 40
3.0
  9
$DIMCEN
 40
0.0
  9
$DIMTSZ
 40
0.0
  9
$DIMTOL
 70
     0
  9
$DIMLIM
 70
     0
  9
$DIMTIH
 70
     0
  9
$DIMTOH
 70
     0
  9
$DIMSE1
 70
     0
  9
$DIMSE2
 70
     0
  9
$DIMTAD
 70
     1
  9
$DIMZIN
 70
     8
  9
$DIMBLK
  1

  9
$DIMASO
 70
     1
  9
$DIMSHO
 70
     0
  9
$DIMPOST
  1

  9
$DIMAPOST
  1

  9
$DIMALT
 70
     0
  9
$DIMALTD
 70
     2
  9
$DIMALTF
 40
25.399999999999999
  9
$DIMLFAC
 40
1.0
  9
$DIMTOFL
 70
     1
  9
$DIMTVP
 40
1.6000000000000001
  9
$DIMTIX
 70
     1
  9
$DIMSOXD
 70
     0
  9
$DIMSAH
 70
     0
  9
$DIMBLK1
  1

  9
$DIMBLK2
  1

  9
$DIMSTYLE
  2
STANDARD
  9
$DIMCLRD
 70
     0
  9
$DIMCLRE
 70
     0
  9
$DIMCLRT
 70
     0
  9
$DIMTFAC
 40
1.0
  9
$DIMGAP
 40
0.09
  9
$LUNITS
 70
     2
  9
$LUPREC
 70
     1
  9
$SKETCHINC
 40
0.1
  9
$FILLETRAD
 40
0.0
  9
$AUNITS
 70
     0
  9
$AUPREC
 70
     1
  9
$MENU
  1
E:\r13\win\SUPPORT\ACAD
  9
$ELEVATION
 40
0.0
  9
$PELEVATION
 40
0.0
  9
$THICKNESS
 40
0.0
  9
$LIMCHECK
 70
     0
  9
$BLIPMODE
 70
     0
  9
$CHAMFERA
 40
0.0
  9
$CHAMFERB
 40
0.0
  9
$SKPOLY
 70
     0
  9
$TDCREATE
 40
2449840.5918518519
  9
$TDUPDATE
 40
2457711.4315626272
  9
$TDINDWG
 40
0.1988361458
  9
$TDUSRTIMER
 40
2456598.2918559369
  9
$USRTIMER
 70
     1
  9
$ANGBASE
 50
0.0
  9
$ANGDIR
 70
     0
  9
$PDMODE
 70
     1
  9
$PDSIZE
 40
0.0
  9
$PLINEWID
 40
0.0
  9
$COORDS
 70
     1
  9
$SPLFRAME
 70
     0
  9
$SPLINETYPE
 70
     6
  9
$SPLINESEGS
 70
     8
  9
$ATTDIA
 70
     0
  9
$ATTREQ
 70
     1
  9
$HANDLING
 70
     1
  9
$HANDSEED
  5
A05F
  9
$SURFTAB1
 70
     6
  9
$SURFTAB2
 70
     6
  9
$SURFTYPE
 70
     6
  9
$SURFU
 70
     6
  9
$SURFV
 70
     6
  9
$UCSNAME
  2

  9
$UCSORG
 10
0.0
 20
0.0
 30
0.0
  9
$UCSXDIR
 10
1.0
 20
0.0
 30
0.0
  9
$UCSYDIR
 10
0.0
 20
1.0
 30
0.0
  9
$PUCSNAME
  2

  9
$PUCSORG
 10
0.0
 20
0.0
 30
0.0
  9
$PUCSXDIR
 10
1.0
 20
0.0
 30
0.0
  9
$PUCSYDIR
 10
0.0
 20
1.0
 30
0.0
  9
$USERI1
 70
     3
  9
$USERI2
 70
     1
  9
$USERI3
 70
     1
  9
$USERI4
 70
     0
  9
$USERI5
 70
     0
  9
$USERR1
 40
0.5
  9
$USERR2
 40
3.0
  9
$USERR3
 40
3.0
  9
$USERR4
 40
3.0
  9
$USERR5
 40
10.0
  9
$WORLDVIEW
 70
     1
  9
$SHADEDGE
 70
     3
  9
$SHADEDIF
 70
    70
  9
$TILEMODE
 70
     1
  9
$MAXACTVP
 70
    16
  9
$PLIMCHECK
 70
     0
  9
$PEXTMIN
 10
1.0000000000000000E+020
 20
1.0000000000000000E+020
 30
1.0000000000000000E+020
  9
$PEXTMAX
 10
-1.0000000000000000E+020
 20
-1.0000000000000000E+020
 30
-1.0000000000000000E+020
  9
$PLIMMIN
 10
0.0
 20
0.0
  9
$PLIMMAX
 10
12.0
 20
9.0
  9
$UNITMODE
 70
     0
  9
$VISRETAIN
 70
     0
  9
$PLINEGEN
 70
     0
  9
$PSLTSCALE
 70
     0
  0
ENDSEC
  0
SECTION
  2
TABLES
  0
TABLE
  2
VPORT
 70
     1
  0
VPORT
  2
*ACTIVE
 70
     0
 10
0.0
 20
0.0
 11
1.0
 21
1.0
 12
172.55781154771731
 22
95.0
 13
0.0
 23
0.0
 14
5.0
 24
5.0
 15
10.0
 25
10.0
 16
0.0
 26
0.0
 36
1.0
 17
0.0
 27
0.0
 37
0.0
 40
190.05265525620689
 41
1.816239316239316
 42
50.0
 43
0.0
 44
0.0
 50
0.0
 51
0.0
 71
     0
 72
   100
 73
     1
 74
     0
 75
     0
 76
     0
 77
     0
 78
     2
  0
ENDTAB
  0
TABLE
  2
LTYPE
 70
     3
  0
LTYPE
  2
CONTINUOUS
 70
     0
  3
Solid Line
 72
    65
 73
     0
 40
0.0
  0
LTYPE
  2
CENTER
 70
     0
  3
____ _ ____ _ ____ _ ____ _ ____ _ ____ _ ____
 72
    65
 73
     4
 40
2.0
 49
1.25
 49
-0.25
 49
0.25
 49
-0.25
  0
LTYPE
  2
PHANTOM2
 70
     0
  3
___ _ _ ___ _ _ ___ _ _ ___ _ _
 72
    65
 73
     6
 40
1.25
 49
0.625
 49
-0.125
 49
0.125
 49
-0.125
 49
0.125
 49
-0.125
  0
ENDTAB
  0
TABLE
  2
LAYER
 70
     4
  0
LAYER
  2
0
 70
     0
 62
     7
  6
CONTINUOUS
  0
LAYER
  2
1
 70
     0
 62
     1
  6
CENTER
  0
LAYER
  2
DEFPOINTS
 70
     0
 62
     7
  6
CONTINUOUS
  0
LAYER
  2
3
 70
     0
 62
     3
  6
CONTINUOUS
  0
ENDTAB
  0
TABLE
  2
STYLE
 70
     2
  0
STYLE
  2
STANDARD
 70
     0
 40
0.0
 41
1.0
 50
0.0
 71
     0
 42
0.06
  3
TXT
  4
BIGFONT
  0
STYLE
  2
STANDARD1
 70
     0
 40
0.0
 41
1.0
 50
0.0
 71
     0
 42
3.0
  3
txt
  4

  0
ENDTAB
  0
TABLE
  2
VIEW
 70
     1
  0
VIEW
  2
OLE1
 70
     0
 40
49.461987069607659
 10
68.652811878138095
 20
25.624498797118591
 41
61.510419817332611
 11
0.0
 21
0.0
 31
1.0
 12
0.0
 22
0.0
 32
0.0
 42
50.0
 43
0.0
 44
0.0
 50
0.0
 71
     0
  0
ENDTAB
  0
TABLE
  2
UCS
 70
     0
  0
ENDTAB
  0
TABLE
  2
APPID
 70
     8
  0
APPID
  2
ACAD
 70
     0
  0
APPID
  2
ACAD_MLEADERVER
 70
     0
  0
APPID
  2
ACAD_NAV_VCDISPLAY
 70
     0
  0
APPID
  2
ACAD_EXEMPT_FROM_CAD_STANDARDS
 70
     0
  0
APPID
  2
ACAD_DSTYLE_DIMJAG
 70
     0
  0
APPID
  2
ACAD_DSTYLE_DIMTALN
 70
     0
  0
APPID
  2
MCAD_NO_VIS
 70
     0
  0
APPID
  2
DCO15
 70
     0
  0
ENDTAB
  0
TABLE
  2
DIMSTYLE
 70
     1
  0
DIMSTYLE
  2
STANDARD
 70
     0
  3

  4

  5

  6

  7

 40
1.0
 41
0.18
 42
0.0625
 43
0.38
 44
0.18
 45
0.0
 46
0.0
 47
0.0
 48
0.0
140
0.18
141
0.09
142
0.0
143
25.399999999999999
144
1.0
145
0.0
146
1.0
147
0.09
 71
     0
 72
     0
 73
     1
 74
     1
 75
     0
 76
     0
 77
     0
 78
     0
170
     0
171
     2
172
     0
173
     0
174
     0
175
     0
176
     0
177
     0
178
     0
  0
ENDTAB
  0
ENDSEC
  0
SECTION
  2
BLOCKS
  0
BLOCK
  8
0
  2
$MODEL_SPACE
 70
     0
 10
0.0
 20
0.0
 30
0.0
  3
$MODEL_SPACE
  1

  0
ENDBLK
  5
BD
  8
0
  0
BLOCK
 67
     1
  8
0
  2
$PAPER_SPACE
 70
     0
 10
0.0
 20
0.0
 30
0.0
  3
$PAPER_SPACE
  1

  0
ENDBLK
  5
BB
 67
     1
  8
0
  0
ENDSEC
  0
SECTION
  2
ENTITIES
  0
TEXT
  5
2FF
  8
0
 62
     3
 10
0.0
 20
0.0
 30
0.0
 40
5.0
  1
GP-608F-A
  7
STANDARD1
  0
LINE
  5
1A9F
  8
0
 10
19.999999999999979
 20
20.0
 30
0.0
 11
172.40000000000001
 21
20.0
 31
0.0
  0
LINE
  5
1AA1
  8
0
 10
20.000000000000011
 20
32.650000000000027
 30
0.0
 11
172.40000000000001
 21
32.650000000000027
 31
0.0
  0
LINE
  5
1AA3
  8
0
 10
20.000000000000011
 20
21.587499999999991
 30
0.0
 11
172.40000000000001
 21
21.587499999999991
 31
0.0
  0
LINE
  5
1AA6
  8
0
 10
20.000000000000011
 20
32.650000000000027
 30
0.0
 11
20.000000000000011
 21
18.800000000000001
 31
0.0
  0
LINE
  5
1AA7
  8
0
 10
172.40000000000001
 20
32.650000000000027
 30
0.0
 11
172.40000000000001
 21
18.800000000000001
 31
0.0
  0
LINE
  5
1AB1
  8
0
 10
19.999999999999979
 20
84.398730181343836
 30
0.0
 11
172.40000000000001
 21
84.398730181343836
 31
0.0
  0
LINE
  5
1AB3
  8
0
 10
172.40000000000001
 20
52.648730181343858
 30
0.0
 11
19.999999999999979
 21
52.648730181343858
 31
0.0
  0
LINE
  5
1AB9
  8
1
 10
175.40000000000001
 20
68.523730181343836
 30
0.0
 11
16.999999999999979
 21
68.523730181343836
 31
0.0
  0
LINE
  5
1ABA
  8
1
 10
96.199999999999989
 20
15.800000000000001
 30
0.0
 11
96.199999999999989
 21
35.650000000000027
 31
0.0
  0
LINE
  5
1AC1
  8
1
 10
96.199999999999989
 20
49.648730181343858
 30
0.0
 11
96.199999999999989
 21
87.398730181343836
 31
0.0
  0
LINE
  5
5501
  8
3
 10
23.39496778622895
 20
84.398731194622798
 30
0.0
 11
19.99999905824658
 21
81.003759744672394
 31
0.0
  0
LINE
  5
5506
  8
3
 10
25.640029485951839
 20
84.398731194622826
 30
0.0
 11
19.99999905824658
 21
78.758696244937013
 31
0.0
  0
LINE
  5
5507
  8
3
 10
27.88509097255751
 20
84.398731194622798
 30
0.0
 11
19.99999905824658
 21
76.513632958319022
 31
0.0
  0
LINE
  5
5508
  8
3
 10
30.130159000012771
 20
84.398731194622798
 30
0.0
 11
19.99999905824658
 21
74.268563130846161
 31
0.0
  0
LINE
  5
5509
  8
3
 10
32.375223778915128
 20
84.398731194622798
 30
0.0
 11
19.99999905824658
 21
72.023496551928844
 31
0.0
  0
LINE
  5
550A
  8
3
 10
34.620291056916287
 20
84.398731194622826
 30
0.0
 11
19.99999905824658
 21
69.77842747391071
 31
0.0
  0
LINE
  5
550B
  8
3
 10
36.865352756639133
 20
84.398731194622798
 30
0.0
 11
19.99999905824658
 21
67.533363974175359
 31
0.0
  0
LINE
  5
550C
  8
3
 10
39.110414243244847
 20
84.398731194622826
 30
0.0
 11
19.99999905824658
 21
65.288300687557296
 31
0.0
  0
LINE
  5
550D
  8
3
 10
41.355482270700051
 20
84.398731194622798
 30
0.0
 11
19.99999905824658
 21
63.043230860084499
 31
0.0
  0
LINE
  5
550E
  8
3
 10
43.600547049602412
 20
84.398731194622798
 30
0.0
 11
19.99999905824658
 21
60.798164281167153
 31
0.0
  0
LINE
  5
550F
  8
3
 10
45.845607955039988
 20
84.398731194622826
 30
0.0
 11
19.99999905824658
 21
58.55310157571774
 31
0.0
  0
LINE
  5
5510
  8
3
 10
48.090669654762827
 20
84.398731194622798
 30
0.0
 11
19.99999905824658
 21
56.308038075982367
 31
0.0
  0
LINE
  5
5511
  8
3
 10
50.335731141368491
 20
84.398731194622798
 30
0.0
 11
19.99999905824658
 21
54.062974789364368
 31
0.0
  0
LINE
  5
5512
  8
3
 10
52.580799168823759
 20
84.398731194622798
 30
0.0
 11
20.830823611572651
 21
52.648730181343858
 31
0.0
  0
LINE
  5
5513
  8
3
 10
54.82586394772612
 20
84.398731194622798
 30
0.0
 11
23.075888390474962
 21
52.648730181343844
 31
0.0
  0
LINE
  5
5514
  8
3
 10
21.14989931053746
 20
84.398731194622798
 30
0.0
 11
19.99999905824658
 21
83.248830020381817
 31
0.0
  0
LINE
  5
5515
  8
3
 10
59.315990143456283
 20
84.398731194622798
 30
0.0
 11
27.566014586205188
 21
52.648730181343872
 31
0.0
  0
LINE
  5
5516
  8
3
 10
61.561051843179129
 20
84.398731194622798
 30
0.0
 11
29.811076285927971
 21
52.648730181343829
 31
0.0
  0
LINE
  5
5517
  8
3
 10
63.80611332978485
 20
84.398731194622826
 30
0.0
 11
32.056137772533752
 21
52.648730181343872
 31
0.0
  0
LINE
  5
5518
  8
3
 10
66.051181357240111
 20
84.398731194622826
 30
0.0
 11
34.301205799988949
 21
52.648730181343844
 31
0.0
  0
LINE
  5
5519
  8
3
 10
68.296246136142415
 20
84.398731194622798
 30
0.0
 11
36.54627057889131
 21
52.648730181343858
 31
0.0
  0
LINE
  5
551A
  8
3
 10
70.541313414143573
 20
84.398731194622798
 30
0.0
 11
38.791337856892468
 21
52.648730181343858
 31
0.0
  0
LINE
  5
551B
  8
3
 10
72.78637511386647
 20
84.398731194622826
 30
0.0
 11
41.036399556615301
 21
52.648730181343844
 31
0.0
  0
LINE
  5
551C
  8
3
 10
75.031436600472134
 20
84.398731194622798
 30
0.0
 11
43.281461043220972
 21
52.648730181343844
 31
0.0
  0
LINE
  5
551D
  8
3
 10
77.276504627927395
 20
84.398731194622798
 30
0.0
 11
45.52652907067629
 21
52.648730181343858
 31
0.0
  0
LINE
  5
551E
  8
3
 10
79.521569406829755
 20
84.398731194622798
 30
0.0
 11
47.771593849578643
 21
52.648730181343858
 31
0.0
  0
LINE
  5
551F
  8
3
 10
81.766630312267296
 20
84.398731194622798
 30
0.0
 11
50.01665475501617
 21
52.648730181343872
 31
0.0
  0
LINE
  5
5520
  8
3
 10
84.011692011990164
 20
84.398731194622826
 30
0.0
 11
52.26171645473908
 21
52.648730181343872
 31
0.0
  0
LINE
  5
5521
  8
3
 10
86.256753498595842
 20
84.398731194622798
 30
0.0
 11
54.506777941344737
 21
52.648730181343844
 31
0.0
  0
LINE
  5
5522
  8
3
 10
88.501821526051103
 20
84.398731194622798
 30
0.0
 11
56.751845968799941
 21
52.648730181343858
 31
0.0
  0
LINE
  5
5523
  8
3
 10
90.746886304953463
 20
84.398731194622798
 30
0.0
 11
58.996910747702358
 21
52.648730181343858
 31
0.0
  0
LINE
  5
5524
  8
3
 10
57.0709216677648
 20
84.398731194622826
 30
0.0
 11
25.320946110513699
 21
52.648730181343872
 31
0.0
  0
LINE
  5
5525
  8
3
 10
95.237016164697863
 20
84.398731194622798
 30
0.0
 11
63.487040607446758
 21
52.648730181343872
 31
0.0
  0
LINE
  5
5526
  8
3
 10
97.482077864420717
 20
84.398731194622798
 30
0.0
 11
65.732102307169583
 21
52.648730181343844
 31
0.0
  0
LINE
  5
5527
  8
3
 10
99.727139351026423
 20
84.398731194622798
 30
0.0
 11
67.977163793775318
 21
52.648730181343872
 31
0.0
  0
LINE
  5
5528
  8
3
 10
101.9722073784817
 20
84.398731194622826
 30
0.0
 11
70.222231821230579
 21
52.648730181343858
 31
0.0
  0
LINE
  5
5529
  8
3
 10
104.217272157384
 20
84.398731194622826
 30
0.0
 11
72.467296600132926
 21
52.648730181343858
 31
0.0
  0
LINE
  5
552A
  8
3
 10
106.4623394353851
 20
84.398731194622798
 30
0.0
 11
74.712363878134042
 21
52.648730181343858
 31
0.0
  0
LINE
  5
552B
  8
3
 10
108.707401135108
 20
84.398731194622798
 30
0.0
 11
76.957425577856881
 21
52.648730181343844
 31
0.0
  0
LINE
  5
552C
  8
3
 10
110.95246262171371
 20
84.398731194622798
 30
0.0
 11
79.202487064462602
 21
52.648730181343858
 31
0.0
  0
LINE
  5
552D
  8
3
 10
113.1975306491689
 20
84.398731194622798
 30
0.0
 11
81.447555091917863
 21
52.648730181343872
 31
0.0
  0
LINE
  5
552E
  8
3
 10
115.4425954280713
 20
84.398731194622798
 30
0.0
 11
83.692619870820224
 21
52.648730181343858
 31
0.0
  0
LINE
  5
552F
  8
3
 10
117.6876563335088
 20
84.398731194622798
 30
0.0
 11
85.937680776257736
 21
52.648730181343844
 31
0.0
  0
LINE
  5
5530
  8
3
 10
119.93271803323169
 20
84.398731194622826
 30
0.0
 11
88.182742475980646
 21
52.648730181343872
 31
0.0
  0
LINE
  5
5531
  8
3
 10
122.1777795198374
 20
84.398731194622798
 30
0.0
 11
90.42780396258631
 21
52.648730181343872
 31
0.0
  0
LINE
  5
5532
  8
3
 10
124.4228475472926
 20
84.398731194622798
 30
0.0
 11
92.672871990041514
 21
52.648730181343858
 31
0.0
  0
LINE
  5
5533
  8
3
 10
126.66791232619499
 20
84.398731194622798
 30
0.0
 11
94.917936768943946
 21
52.648730181343858
 31
0.0
  0
LINE
  5
5534
  8
3
 10
92.991947689006395
 20
84.398731194622826
 30
0.0
 11
61.241972131755269
 21
52.648730181343872
 31
0.0
  0
LINE
  5
5535
  8
3
 10
131.1580421846603
 20
84.398731194622798
 30
0.0
 11
99.408066627409127
 21
52.648730181343844
 31
0.0
  0
LINE
  5
5536
  8
3
 10
133.4031038843832
 20
84.398731194622826
 30
0.0
 11
101.65312832713209
 21
52.648730181343858
 31
0.0
  0
LINE
  5
5537
  8
3
 10
135.64816537098881
 20
84.398731194622798
 30
0.0
 11
103.8981898137377
 21
52.648730181343858
 31
0.0
  0
LINE
  5
5538
  8
3
 10
137.8932333984441
 20
84.398731194622798
 30
0.0
 11
106.14325784119301
 21
52.648730181343858
 31
0.0
  0
LINE
  5
5539
  8
3
 10
140.13829817734651
 20
84.398731194622798
 30
0.0
 11
108.38832262009529
 21
52.648730181343858
 31
0.0
  0
LINE
  5
553A
  8
3
 10
142.38336545534759
 20
84.398731194622826
 30
0.0
 11
110.6333898980965
 21
52.648730181343844
 31
0.0
  0
LINE
  5
553B
  8
3
 10
144.62842715507051
 20
84.398731194622798
 30
0.0
 11
112.87845159781931
 21
52.648730181343858
 31
0.0
  0
LINE
  5
553C
  8
3
 10
146.8734886416762
 20
84.398731194622826
 30
0.0
 11
115.123513084425
 21
52.648730181343858
 31
0.0
  0
LINE
  5
553D
  8
3
 10
149.11855666913141
 20
84.398731194622798
 30
0.0
 11
117.3685811118803
 21
52.648730181343858
 31
0.0
  0
LINE
  5
553E
  8
3
 10
151.36362144803371
 20
84.398731194622798
 30
0.0
 11
119.61364589078261
 21
52.648730181343844
 31
0.0
  0
LINE
  5
553F
  8
3
 10
153.60868235347129
 20
84.398731194622826
 30
0.0
 11
121.8587067962202
 21
52.648730181343858
 31
0.0
  0
LINE
  5
5540
  8
3
 10
155.85374405319419
 20
84.398731194622798
 30
0.0
 11
124.103768495943
 21
52.648730181343858
 31
0.0
  0
LINE
  5
5541
  8
3
 10
158.0988055397998
 20
84.398731194622798
 30
0.0
 11
126.34882998254881
 21
52.648730181343872
 31
0.0
  0
LINE
  5
5542
  8
3
 10
160.34387356725509
 20
84.398731194622798
 30
0.0
 11
128.59389801000401
 21
52.648730181343844
 31
0.0
  0
LINE
  5
5543
  8
3
 10
162.58893834615751
 20
84.398731194622798
 30
0.0
 11
130.83896278890629
 21
52.648730181343872
 31
0.0
  0
LINE
  5
5544
  8
3
 10
128.91297370896879
 20
84.398731194622798
 30
0.0
 11
97.162998151717645
 21
52.648730181343844
 31
0.0
  0
LINE
  5
5545
  8
3
 10
167.0790644818924
 20
84.398731194622826
 30
0.0
 11
135.3290889246413
 21
52.648730181343872
 31
0.0
  0
LINE
  5
5546
  8
3
 10
169.3241261816153
 20
84.398731194622798
 30
0.0
 11
137.57415062436411
 21
52.648730181343872
 31
0.0
  0
LINE
  5
5547
  8
3
 10
171.56918766822091
 20
84.398731194622798
 30
0.0
 11
139.8192121109698
 21
52.648730181343844
 31
0.0
  0
LINE
  5
5548
  8
3
 10
172.4000009417534
 20
82.984475306799624
 30
0.0
 11
142.064280138425
 21
52.648730181343844
 31
0.0
  0
LINE
  5
5549
  8
3
 10
172.4000009417534
 20
80.739408727882306
 30
0.0
 11
144.30934491732739
 21
52.648730181343858
 31
0.0
  0
LINE
  5
554A
  8
3
 10
172.4000009417534
 20
78.494339649864173
 30
0.0
 11
146.5544121953285
 21
52.648730181343844
 31
0.0
  0
LINE
  5
554B
  8
3
 10
172.4000009417534
 20
76.249276150128793
 30
0.0
 11
148.79947389505139
 21
52.648730181343858
 31
0.0
  0
LINE
  5
554C
  8
3
 10
172.4000009417534
 20
74.004212863510745
 30
0.0
 11
151.04453538165711
 21
52.648730181343858
 31
0.0
  0
LINE
  5
554D
  8
3
 10
172.4000009417534
 20
71.759143036037926
 30
0.0
 11
153.28960340911229
 21
52.648730181343844
 31
0.0
  0
LINE
  5
554E
  8
3
 10
172.4000009417534
 20
69.514076457120609
 30
0.0
 11
155.53466818801471
 21
52.648730181343858
 31
0.0
  0
LINE
  5
554F
  8
3
 10
172.4000009417534
 20
67.269013751671196
 30
0.0
 11
157.7797290934522
 21
52.648730181343844
 31
0.0
  0
LINE
  5
5550
  8
3
 10
172.4000009417534
 20
65.023950251935815
 30
0.0
 11
160.0247907931751
 21
52.648730181343844
 31
0.0
  0
LINE
  5
5551
  8
3
 10
172.4000009417534
 20
62.778886965317767
 30
0.0
 11
162.26985227978091
 21
52.648730181343858
 31
0.0
  0
LINE
  5
5552
  8
3
 10
172.4000009417534
 20
60.533817137844963
 30
0.0
 11
164.51492030723611
 21
52.648730181343844
 31
0.0
  0
LINE
  5
5553
  8
3
 10
172.4000009417534
 20
58.288750558927617
 30
0.0
 11
166.75998508613841
 21
52.648730181343858
 31
0.0
  0
LINE
  5
5554
  8
3
 10
164.83399600620089
 20
84.398731194622798
 30
0.0
 11
133.08402044894979
 21
52.648730181343858
 31
0.0
  0
LINE
  5
5555
  8
3
 10
172.4000009417534
 20
56.043685608769259
 30
0.0
 11
169.0050482362831
 21
52.648730181343844
 31
0.0
  0
LINE
  5
5556
  8
3
 10
172.4000009417534
 20
53.798623143441247
 30
0.0
 11
171.2501089015995
 21
52.648730181343858
 31
0.0
  0
LINE
  5
555B
  8
3
 10
169.00503221377099
 20
84.398731194622798
 30
0.0
 11
172.4000009417534
 21
81.003759744672394
 31
0.0
  0
LINE
  5
555C
  8
3
 10
166.75997051404809
 20
84.398731194622826
 30
0.0
 11
172.4000009417534
 21
78.758696244937013
 31
0.0
  0
LINE
  5
555D
  8
3
 10
164.5149090274424
 20
84.398731194622798
 30
0.0
 11
172.4000009417534
 21
76.513632958319022
 31
0.0
  0
LINE
  5
555E
  8
3
 10
162.2698409999872
 20
84.398731194622798
 30
0.0
 11
172.4000009417534
 21
74.268563130846161
 31
0.0
  0
LINE
  5
555F
  8
3
 10
160.02477622108481
 20
84.398731194622798
 30
0.0
 11
172.4000009417534
 21
72.023496551928844
 31
0.0
  0
LINE
  5
5560
  8
3
 10
157.7797089430837
 20
84.398731194622826
 30
0.0
 11
172.4000009417534
 21
69.77842747391071
 31
0.0
  0
LINE
  5
5561
  8
3
 10
155.53464724336081
 20
84.398731194622798
 30
0.0
 11
172.4000009417534
 21
67.533363974175359
 31
0.0
  0
LINE
  5
5562
  8
3
 10
153.28958575675509
 20
84.398731194622826
 30
0.0
 11
172.4000009417534
 21
65.288300687557296
 31
0.0
  0
LINE
  5
5563
  8
3
 10
151.04451772929991
 20
84.398731194622798
 30
0.0
 11
172.4000009417534
 21
63.043230860084499
 31
0.0
  0
LINE
  5
5564
  8
3
 10
148.79945295039749
 20
84.398731194622798
 30
0.0
 11
172.4000009417534
 21
60.798164281167153
 31
0.0
  0
LINE
  5
5565
  8
3
 10
146.55439204495991
 20
84.398731194622826
 30
0.0
 11
172.4000009417534
 21
58.55310157571774
 31
0.0
  0
LINE
  5
5566
  8
3
 10
144.3093303452371
 20
84.398731194622798
 30
0.0
 11
172.4000009417534
 21
56.308038075982367
 31
0.0
  0
LINE
  5
5567
  8
3
 10
142.06426885863141
 20
84.398731194622798
 30
0.0
 11
172.4000009417534
 21
54.062974789364368
 31
0.0
  0
LINE
  5
5568
  8
3
 10
139.8192008311762
 20
84.398731194622798
 30
0.0
 11
171.56917638842731
 21
52.648730181343858
 31
0.0
  0
LINE
  5
5569
  8
3
 10
137.57413605227379
 20
84.398731194622798
 30
0.0
 11
169.324111609525
 21
52.648730181343844
 31
0.0
  0
LINE
  5
556A
  8
3
 10
171.2501006894625
 20
84.398731194622798
 30
0.0
 11
172.4000009417534
 21
83.248830020381817
 31
0.0
  0
LINE
  5
556B
  8
3
 10
133.08400985654359
 20
84.398731194622798
 30
0.0
 11
164.83398541379481
 21
52.648730181343872
 31
0.0
  0
LINE
  5
556C
  8
3
 10
130.83894815682081
 20
84.398731194622798
 30
0.0
 11
162.588923714072
 21
52.648730181343829
 31
0.0
  0
LINE
  5
556D
  8
3
 10
128.59388667021511
 20
84.398731194622826
 30
0.0
 11
160.34386222746619
 21
52.648730181343872
 31
0.0
  0
LINE
  5
556E
  8
3
 10
126.3488186427598
 20
84.398731194622826
 30
0.0
 11
158.09879420001101
 21
52.648730181343844
 31
0.0
  0
LINE
  5
556F
  8
3
 10
124.10375386385751
 20
84.398731194622798
 30
0.0
 11
155.8537294211086
 21
52.648730181343858
 31
0.0
  0
LINE
  5
5570
  8
3
 10
121.8586865858563
 20
84.398731194622798
 30
0.0
 11
153.60866214310749
 21
52.648730181343858
 31
0.0
  0
LINE
  5
5571
  8
3
 10
119.61362488613339
 20
84.398731194622826
 30
0.0
 11
151.3636004433846
 21
52.648730181343844
 31
0.0
  0
LINE
  5
5572
  8
3
 10
117.3685633995278
 20
84.398731194622798
 30
0.0
 11
149.11853895677899
 21
52.648730181343844
 31
0.0
  0
LINE
  5
5573
  8
3
 10
115.1234953720725
 20
84.398731194622798
 30
0.0
 11
146.8734709293237
 21
52.648730181343858
 31
0.0
  0
LINE
  5
5574
  8
3
 10
112.87843059317019
 20
84.398731194622798
 30
0.0
 11
144.62840615042131
 21
52.648730181343858
 31
0.0
  0
LINE
  5
5575
  8
3
 10
110.6333696877326
 20
84.398731194622798
 30
0.0
 11
142.38334524498379
 21
52.648730181343872
 31
0.0
  0
LINE
  5
5576
  8
3
 10
108.3883079880098
 20
84.398731194622826
 30
0.0
 11
140.13828354526089
 21
52.648730181343872
 31
0.0
  0
LINE
  5
5577
  8
3
 10
106.14324650140409
 20
84.398731194622798
 30
0.0
 11
137.8932220586552
 21
52.648730181343844
 31
0.0
  0
LINE
  5
5578
  8
3
 10
103.8981784739488
 20
84.398731194622798
 30
0.0
 11
135.64815403119999
 21
52.648730181343858
 31
0.0
  0
LINE
  5
5579
  8
3
 10
101.6531136950465
 20
84.398731194622798
 30
0.0
 11
133.4030892522976
 21
52.648730181343858
 31
0.0
  0
LINE
  5
557A
  8
3
 10
135.3290783322351
 20
84.398731194622826
 30
0.0
 11
167.0790538894862
 21
52.648730181343872
 31
0.0
  0
LINE
  5
557B
  8
3
 10
97.162983835302086
 20
84.398731194622798
 30
0.0
 11
128.9129593925532
 21
52.648730181343872
 31
0.0
  0
LINE
  5
557C
  8
3
 10
94.917922135579246
 20
84.398731194622798
 30
0.0
 11
126.66789769283029
 21
52.648730181343844
 31
0.0
  0
LINE
  5
557D
  8
3
 10
92.672860648973526
 20
84.398731194622798
 30
0.0
 11
124.4228362062246
 21
52.648730181343872
 31
0.0
  0
LINE
  5
557E
  8
3
 10
90.427792621518265
 20
84.398731194622826
 30
0.0
 11
122.1777681787693
 21
52.648730181343858
 31
0.0
  0
LINE
  5
557F
  8
3
 10
88.182727842615904
 20
84.398731194622826
 30
0.0
 11
119.93270339986699
 21
52.648730181343858
 31
0.0
  0
LINE
  5
5580
  8
3
 10
85.937660564614816
 20
84.398731194622798
 30
0.0
 11
117.68763612186591
 21
52.648730181343858
 31
0.0
  0
LINE
  5
5581
  8
3
 10
83.692598864891906
 20
84.398731194622798
 30
0.0
 11
115.442574422143
 21
52.648730181343844
 31
0.0
  0
LINE
  5
5582
  8
3
 10
81.447537378286242
 20
84.398731194622798
 30
0.0
 11
113.1975129355373
 21
52.648730181343858
 31
0.0
  0
LINE
  5
5583
  8
3
 10
79.202469350830981
 20
84.398731194622798
 30
0.0
 11
110.9524449080821
 21
52.648730181343872
 31
0.0
  0
LINE
  5
5584
  8
3
 10
76.95740457192862
 20
84.398731194622798
 30
0.0
 11
108.7073801291797
 21
52.648730181343858
 31
0.0
  0
LINE
  5
5585
  8
3
 10
74.712343666491094
 20
84.398731194622798
 30
0.0
 11
106.4623192237422
 21
52.648730181343844
 31
0.0
  0
LINE
  5
5586
  8
3
 10
72.467281966768184
 20
84.398731194622826
 30
0.0
 11
104.2172575240193
 21
52.648730181343872
 31
0.0
  0
LINE
  5
5587
  8
3
 10
70.222220480162534
 20
84.398731194622798
 30
0.0
 11
101.9721960374136
 21
52.648730181343872
 31
0.0
  0
LINE
  5
5588
  8
3
 10
67.977152452707273
 20
84.398731194622798
 30
0.0
 11
99.727128009958435
 21
52.648730181343858
 31
0.0
  0
LINE
  5
5589
  8
3
 10
65.732087673804912
 20
84.398731194622798
 30
0.0
 11
97.482063231056017
 21
52.648730181343858
 31
0.0
  0
LINE
  5
558A
  8
3
 10
99.408052310993568
 20
84.398731194622826
 30
0.0
 11
131.15802786824469
 21
52.648730181343872
 31
0.0
  0
LINE
  5
558B
  8
3
 10
61.24195781533966
 20
84.398731194622798
 30
0.0
 11
92.991933372590807
 21
52.648730181343844
 31
0.0
  0
LINE
  5
558C
  8
3
 10
58.996896115616757
 20
84.398731194622826
 30
0.0
 11
90.746871672867869
 21
52.648730181343858
 31
0.0
  0
LINE
  5
558D
  8
3
 10
56.751834629011093
 20
84.398731194622798
 30
0.0
 11
88.501810186262261
 21
52.648730181343858
 31
0.0
  0
LINE
  5
558E
  8
3
 10
54.506766601555839
 20
84.398731194622798
 30
0.0
 11
86.256742158806944
 21
52.648730181343858
 31
0.0
  0
LINE
  5
558F
  8
3
 10
52.261701822653478
 20
84.398731194622798
 30
0.0
 11
84.01167737990464
 21
52.648730181343858
 31
0.0
  0
LINE
  5
5590
  8
3
 10
50.01663454465232
 20
84.398731194622826
 30
0.0
 11
81.766610101903495
 21
52.648730181343844
 31
0.0
  0
LINE
  5
5591
  8
3
 10
47.77157284492948
 20
84.398731194622798
 30
0.0
 11
79.521548402180642
 21
52.648730181343858
 31
0.0
  0
LINE
  5
5592
  8
3
 10
45.526511358323759
 20
84.398731194622826
 30
0.0
 11
77.276486915574864
 21
52.648730181343858
 31
0.0
  0
LINE
  5
5593
  8
3
 10
43.281443330868548
 20
84.398731194622798
 30
0.0
 11
75.03141888811966
 21
52.648730181343858
 31
0.0
  0
LINE
  5
5594
  8
3
 10
41.036378551966187
 20
84.398731194622798
 30
0.0
 11
72.786354109217285
 21
52.648730181343844
 31
0.0
  0
LINE
  5
5595
  8
3
 10
38.791317646528611
 20
84.398731194622826
 30
0.0
 11
70.541293203779716
 21
52.648730181343858
 31
0.0
  0
LINE
  5
5596
  8
3
 10
36.546255946805772
 20
84.398731194622798
 30
0.0
 11
68.296231504056877
 21
52.648730181343858
 31
0.0
  0
LINE
  5
5597
  8
3
 10
34.301194460200108
 20
84.398731194622798
 30
0.0
 11
66.051170017451156
 21
52.648730181343872
 31
0.0
  0
LINE
  5
5598
  8
3
 10
32.056126432744847
 20
84.398731194622798
 30
0.0
 11
63.806101989995952
 21
52.648730181343844
 31
0.0
  0
LINE
  5
5599
  8
3
 10
29.81106165384249
 20
84.398731194622798
 30
0.0
 11
61.561037211093591
 21
52.648730181343872
 31
0.0
  0
LINE
  5
559A
  8
3
 10
63.487026291031142
 20
84.398731194622798
 30
0.0
 11
95.237001848282304
 21
52.648730181343844
 31
0.0
  0
LINE
  5
559B
  8
3
 10
25.320935518107529
 20
84.398731194622826
 30
0.0
 11
57.07091107535863
 21
52.648730181343872
 31
0.0
  0
LINE
  5
559C
  8
3
 10
23.0758738183847
 20
84.398731194622798
 30
0.0
 11
54.825849375635791
 21
52.648730181343872
 31
0.0
  0
LINE
  5
559D
  8
3
 10
20.830812331779029
 20
84.398731194622798
 30
0.0
 11
52.580787889030127
 21
52.648730181343844
 31
0.0
  0
LINE
  5
559E
  8
3
 10
19.99999905824658
 20
82.984475306799624
 30
0.0
 11
50.33571986157493
 21
52.648730181343844
 31
0.0
  0
LINE
  5
559F
  8
3
 10
19.99999905824658
 20
80.739408727882306
 30
0.0
 11
48.090655082672569
 21
52.648730181343858
 31
0.0
  0
LINE
  5
55A0
  8
3
 10
19.99999905824658
 20
78.494339649864173
 30
0.0
 11
45.84558780467141
 21
52.648730181343844
 31
0.0
  0
LINE
  5
55A1
  8
3
 10
19.99999905824658
 20
76.249276150128793
 30
0.0
 11
43.600526104948507
 21
52.648730181343858
 31
0.0
  0
LINE
  5
55A2
  8
3
 10
19.99999905824658
 20
74.004212863510745
 30
0.0
 11
41.35546461834285
 21
52.648730181343858
 31
0.0
  0
LINE
  5
55A3
  8
3
 10
19.99999905824658
 20
71.759143036037926
 30
0.0
 11
39.110396590887589
 21
52.648730181343844
 31
0.0
  0
LINE
  5
55A4
  8
3
 10
19.99999905824658
 20
69.514076457120609
 30
0.0
 11
36.865331811985229
 21
52.648730181343858
 31
0.0
  0
LINE
  5
55A5
  8
3
 10
19.99999905824658
 20
67.269013751671196
 30
0.0
 11
34.620270906547702
 21
52.648730181343844
 31
0.0
  0
LINE
  5
55A6
  8
3
 10
19.99999905824658
 20
65.023950251935815
 30
0.0
 11
32.375209206824813
 21
52.648730181343844
 31
0.0
  0
LINE
  5
55A7
  8
3
 10
19.99999905824658
 20
62.778886965317767
 30
0.0
 11
30.130147720219089
 21
52.648730181343858
 31
0.0
  0
LINE
  5
55A8
  8
3
 10
19.99999905824658
 20
60.533817137844963
 30
0.0
 11
27.885079692763881
 21
52.648730181343844
 31
0.0
  0
LINE
  5
55A9
  8
3
 10
19.99999905824658
 20
58.288750558927617
 30
0.0
 11
25.640014913861521
 21
52.648730181343858
 31
0.0
  0
LINE
  5
55AA
  8
3
 10
27.566003993799072
 20
84.398731194622798
 30
0.0
 11
59.315979551050177
 21
52.648730181343858
 31
0.0
  0
LINE
  5
55AB
  8
3
 10
19.99999905824658
 20
56.043685608769259
 30
0.0
 11
23.394951763716829
 21
52.648730181343844
 31
0.0
  0
LINE
  5
55AC
  8
3
 10
19.99999905824658
 20
53.798623143441247
 30
0.0
 11
21.14989109840046
 21
52.648730181343858
 31
0.0
  0
LINE
  5
55B6
  8
0
 10
20.000000000000011
 20
31.98324987068775
 30
0.0
 11
172.40000000000001
 21
31.98324987068775
 31
0.0
  0
LINE
  5
55B8
  8
0
 10
171.40964632608279
 20
32.650000000000027
 30
0.0
 11
170.28711231235519
 21
31.98324987068775
 31
0.0
  0
LINE
  5
560F
  8
0
 10
40.073404894266687
 20
31.98325137003625
 30
0.0
 11
38.95087241918786
 21
32.650001499348527
 31
0.0
  0
LINE
  5
5610
  8
0
 10
38.95087241918786
 20
32.650001499348527
 30
0.0
 11
37.828340929743192
 21
31.98325137003625
 31
0.0
  0
LINE
  5
5611
  8
0
 10
42.318468858790332
 20
31.98325137003625
 30
0.0
 11
41.195936383711498
 21
32.650001499348527
 31
0.0
  0
LINE
  5
5612
  8
0
 10
41.195936383711498
 20
32.650001499348527
 30
0.0
 11
40.073404894266837
 21
31.98325137003625
 31
0.0
  0
LINE
  5
5613
  8
0
 10
44.563532823313977
 20
31.98325137003625
 30
0.0
 11
43.441000348235143
 21
32.650001499348527
 31
0.0
  0
LINE
  5
5614
  8
0
 10
43.441000348235143
 20
32.650001499348527
 30
0.0
 11
42.318468858790482
 21
31.98325137003625
 31
0.0
  0
LINE
  5
5615
  8
0
 10
46.808596787837608
 20
31.98325137003625
 30
0.0
 11
45.686064312758781
 21
32.650001499348527
 31
0.0
  0
LINE
  5
5616
  8
0
 10
45.686064312758781
 20
32.650001499348527
 30
0.0
 11
44.563532823314119
 21
31.98325137003625
 31
0.0
  0
LINE
  5
5617
  8
0
 10
49.05366075236126
 20
31.98325137003625
 30
0.0
 11
47.931128277282433
 21
32.650001499348527
 31
0.0
  0
LINE
  5
5618
  8
0
 10
47.931128277282433
 20
32.650001499348527
 30
0.0
 11
46.808596787837757
 21
31.98325137003625
 31
0.0
  0
LINE
  5
5619
  8
0
 10
51.298724716884898
 20
31.98325137003625
 30
0.0
 11
50.176192241806078
 21
32.650001499348527
 31
0.0
  0
LINE
  5
561A
  8
0
 10
50.176192241806078
 20
32.650001499348527
 30
0.0
 11
49.053660752361409
 21
31.98325137003625
 31
0.0
  0
LINE
  5
561B
  8
0
 10
53.54378868140855
 20
31.98325137003625
 30
0.0
 11
52.421256206329723
 21
32.650001499348527
 31
0.0
  0
LINE
  5
561C
  8
0
 10
52.421256206329723
 20
32.650001499348527
 30
0.0
 11
51.298724716885047
 21
31.98325137003625
 31
0.0
  0
LINE
  5
561D
  8
0
 10
55.788852645932188
 20
31.98325137003625
 30
0.0
 11
54.666320170853368
 21
32.650001499348527
 31
0.0
  0
LINE
  5
561E
  8
0
 10
54.666320170853368
 20
32.650001499348527
 30
0.0
 11
53.543788681408692
 21
31.98325137003625
 31
0.0
  0
LINE
  5
561F
  8
0
 10
58.03391661045584
 20
31.98325137003625
 30
0.0
 11
56.911384135376998
 21
32.650001499348527
 31
0.0
  0
LINE
  5
5620
  8
0
 10
56.911384135376998
 20
32.650001499348527
 30
0.0
 11
55.788852645932337
 21
31.98325137003625
 31
0.0
  0
LINE
  5
5621
  8
0
 10
60.278980574979492
 20
31.98325137003625
 30
0.0
 11
59.156448099900658
 21
32.650001499348527
 31
0.0
  0
LINE
  5
5622
  8
0
 10
59.156448099900658
 20
32.650001499348527
 30
0.0
 11
58.033916610455989
 21
31.98325137003625
 31
0.0
  0
LINE
  5
5623
  8
0
 10
62.524044539503123
 20
31.98325137003625
 30
0.0
 11
61.401512064424288
 21
32.650001499348527
 31
0.0
  0
LINE
  5
5624
  8
0
 10
61.401512064424288
 20
32.650001499348527
 30
0.0
 11
60.278980574979627
 21
31.98325137003625
 31
0.0
  0
LINE
  5
5625
  8
0
 10
64.769108504026761
 20
31.98325137003625
 30
0.0
 11
63.646576028947941
 21
32.650001499348527
 31
0.0
  0
LINE
  5
5626
  8
0
 10
63.646576028947941
 20
32.650001499348527
 30
0.0
 11
62.524044539503272
 21
31.98325137003625
 31
0.0
  0
LINE
  5
5627
  8
0
 10
67.014172468550413
 20
31.98325137003625
 30
0.0
 11
65.891639993471586
 21
32.650001499348527
 31
0.0
  0
LINE
  5
5628
  8
0
 10
65.891639993471586
 20
32.650001499348527
 30
0.0
 11
64.769108504026917
 21
31.98325137003625
 31
0.0
  0
LINE
  5
5629
  8
0
 10
69.259236433074051
 20
31.98325137003625
 30
0.0
 11
68.136703957995223
 21
32.650001499348527
 31
0.0
  0
LINE
  5
562A
  8
0
 10
68.136703957995223
 20
32.650001499348527
 30
0.0
 11
67.014172468550555
 21
31.98325137003625
 31
0.0
  0
LINE
  5
562B
  8
0
 10
71.504300397597703
 20
31.98325137003625
 30
0.0
 11
70.381767922518875
 21
32.650001499348527
 31
0.0
  0
LINE
  5
562C
  8
0
 10
70.381767922518875
 20
32.650001499348527
 30
0.0
 11
69.259236433074193
 21
31.98325137003625
 31
0.0
  0
LINE
  5
562D
  8
0
 10
73.749364362121341
 20
31.98325137003625
 30
0.0
 11
72.626831887042513
 21
32.650001499348527
 31
0.0
  0
LINE
  5
562E
  8
0
 10
72.626831887042513
 20
32.650001499348527
 30
0.0
 11
71.504300397597845
 21
31.98325137003625
 31
0.0
  0
LINE
  5
562F
  8
0
 10
75.994428326644979
 20
31.98325137003625
 30
0.0
 11
74.871895851566151
 21
32.650001499348527
 31
0.0
  0
LINE
  5
5630
  8
0
 10
74.871895851566151
 20
32.650001499348527
 30
0.0
 11
73.749364362121483
 21
31.98325137003625
 31
0.0
  0
LINE
  5
5631
  8
0
 10
78.239492291168631
 20
31.98325137003625
 30
0.0
 11
77.116959816089803
 21
32.650001499348527
 31
0.0
  0
LINE
  5
5632
  8
0
 10
77.116959816089803
 20
32.650001499348527
 30
0.0
 11
75.994428326645135
 21
31.98325137003625
 31
0.0
  0
LINE
  5
5633
  8
0
 10
80.484556255692283
 20
31.98325137003625
 30
0.0
 11
79.362023780613455
 21
32.650001499348527
 31
0.0
  0
LINE
  5
5634
  8
0
 10
79.362023780613455
 20
32.650001499348527
 30
0.0
 11
78.239492291168787
 21
31.98325137003625
 31
0.0
  0
LINE
  5
5635
  8
0
 10
82.729620220215935
 20
31.98325137003625
 30
0.0
 11
81.607087745137093
 21
32.650001499348527
 31
0.0
  0
LINE
  5
5636
  8
0
 10
81.607087745137093
 20
32.650001499348527
 30
0.0
 11
80.484556255692425
 21
31.98325137003625
 31
0.0
  0
LINE
  5
5637
  8
0
 10
84.974684184739544
 20
31.98325137003625
 30
0.0
 11
83.852151709660731
 21
32.650001499348527
 31
0.0
  0
LINE
  5
5638
  8
0
 10
83.852151709660731
 20
32.650001499348527
 30
0.0
 11
82.729620220216077
 21
31.98325137003625
 31
0.0
  0
LINE
  5
5639
  8
0
 10
87.219748149263197
 20
31.98325137003625
 30
0.0
 11
86.097215674184369
 21
32.650001499348527
 31
0.0
  0
LINE
  5
563A
  8
0
 10
86.097215674184369
 20
32.650001499348527
 30
0.0
 11
84.974684184739687
 21
31.98325137003625
 31
0.0
  0
LINE
  5
563B
  8
0
 10
89.464812113786849
 20
31.98325137003625
 30
0.0
 11
88.342279638708021
 21
32.650001499348527
 31
0.0
  0
LINE
  5
563C
  8
0
 10
88.342279638708021
 20
32.650001499348527
 30
0.0
 11
87.219748149263353
 21
31.98325137003625
 31
0.0
  0
LINE
  5
563D
  8
0
 10
91.709876078310486
 20
31.98325137003625
 30
0.0
 11
90.587343603231673
 21
32.650001499348527
 31
0.0
  0
LINE
  5
563E
  8
0
 10
90.587343603231673
 20
32.650001499348527
 30
0.0
 11
89.464812113787005
 21
31.98325137003625
 31
0.0
  0
LINE
  5
563F
  8
0
 10
93.954940042834124
 20
31.98325137003625
 30
0.0
 11
92.832407567755325
 21
32.650001499348527
 31
0.0
  0
LINE
  5
5640
  8
0
 10
92.832407567755325
 20
32.650001499348527
 30
0.0
 11
91.709876078310629
 21
31.98325137003625
 31
0.0
  0
LINE
  5
5641
  8
0
 10
96.200004007357776
 20
31.98325137003625
 30
0.0
 11
95.077471532278935
 21
32.650001499348527
 31
0.0
  0
LINE
  5
5642
  8
0
 10
95.077471532278935
 20
32.650001499348527
 30
0.0
 11
93.954940042834281
 21
31.98325137003625
 31
0.0
  0
LINE
  5
5643
  8
0
 10
98.445067971881414
 20
31.98325137003625
 30
0.0
 11
97.322535496802587
 21
32.650001499348527
 31
0.0
  0
LINE
  5
5644
  8
0
 10
97.322535496802587
 20
32.650001499348527
 30
0.0
 11
96.200004007357919
 21
31.98325137003625
 31
0.0
  0
LINE
  5
5645
  8
0
 10
100.690131936405
 20
31.98325137003625
 30
0.0
 11
99.567599461326239
 21
32.650001499348527
 31
0.0
  0
LINE
  5
5646
  8
0
 10
99.567599461326239
 20
32.650001499348527
 30
0.0
 11
98.445067971881585
 21
31.98325137003625
 31
0.0
  0
LINE
  5
5647
  8
0
 10
102.9351959009287
 20
31.98325137003625
 30
0.0
 11
101.81266342584991
 21
32.650001499348527
 31
0.0
  0
LINE
  5
5648
  8
0
 10
101.81266342584991
 20
32.650001499348527
 30
0.0
 11
100.69013193640519
 21
31.98325137003625
 31
0.0
  0
LINE
  5
5649
  8
0
 10
105.1802598654523
 20
31.98325137003625
 30
0.0
 11
104.0577273903735
 21
32.650001499348527
 31
0.0
  0
LINE
  5
564A
  8
0
 10
104.0577273903735
 20
32.650001499348527
 30
0.0
 11
102.9351959009288
 21
31.98325137003625
 31
0.0
  0
LINE
  5
564B
  8
0
 10
107.42532382997599
 20
31.98325137003625
 30
0.0
 11
106.3027913548971
 21
32.650001499348527
 31
0.0
  0
LINE
  5
564C
  8
0
 10
106.3027913548971
 20
32.650001499348527
 30
0.0
 11
105.1802598654525
 21
31.98325137003625
 31
0.0
  0
LINE
  5
564D
  8
0
 10
109.6703877944996
 20
31.98325137003625
 30
0.0
 11
108.5478553194208
 21
32.650001499348527
 31
0.0
  0
LINE
  5
564E
  8
0
 10
108.5478553194208
 20
32.650001499348527
 30
0.0
 11
107.42532382997609
 21
31.98325137003625
 31
0.0
  0
LINE
  5
564F
  8
0
 10
111.9154517590233
 20
31.98325137003625
 30
0.0
 11
110.7929192839444
 21
32.650001499348527
 31
0.0
  0
LINE
  5
5650
  8
0
 10
110.7929192839444
 20
32.650001499348527
 30
0.0
 11
109.6703877944998
 21
31.98325137003625
 31
0.0
  0
LINE
  5
5651
  8
0
 10
114.16051572354689
 20
31.98325137003625
 30
0.0
 11
113.03798324846809
 21
32.650001499348527
 31
0.0
  0
LINE
  5
5652
  8
0
 10
113.03798324846809
 20
32.650001499348527
 30
0.0
 11
111.9154517590234
 21
31.98325137003625
 31
0.0
  0
LINE
  5
5653
  8
0
 10
116.4055796880705
 20
31.98325137003625
 30
0.0
 11
115.2830472129917
 21
32.650001499348527
 31
0.0
  0
LINE
  5
5654
  8
0
 10
115.2830472129917
 20
32.650001499348527
 30
0.0
 11
114.16051572354711
 21
31.98325137003625
 31
0.0
  0
LINE
  5
5655
  8
0
 10
118.6506436525942
 20
31.98325137003625
 30
0.0
 11
117.5281111775154
 21
32.650001499348527
 31
0.0
  0
LINE
  5
5656
  8
0
 10
117.5281111775154
 20
32.650001499348527
 30
0.0
 11
116.4055796880707
 21
31.98325137003625
 31
0.0
  0
LINE
  5
5657
  8
0
 10
120.89570761711779
 20
31.98325137003625
 30
0.0
 11
119.77317514203899
 21
32.650001499348527
 31
0.0
  0
LINE
  5
5658
  8
0
 10
119.77317514203899
 20
32.650001499348527
 30
0.0
 11
118.6506436525943
 21
31.98325137003625
 31
0.0
  0
LINE
  5
5659
  8
0
 10
123.1407715816415
 20
31.98325137003625
 30
0.0
 11
122.0182391065627
 21
32.650001499348527
 31
0.0
  0
LINE
  5
565A
  8
0
 10
122.0182391065627
 20
32.650001499348527
 30
0.0
 11
120.89570761711801
 21
31.98325137003625
 31
0.0
  0
LINE
  5
565B
  8
0
 10
125.3858355461651
 20
31.98325137003625
 30
0.0
 11
124.2633030710863
 21
32.650001499348527
 31
0.0
  0
LINE
  5
565C
  8
0
 10
124.2633030710863
 20
32.650001499348527
 30
0.0
 11
123.1407715816416
 21
31.98325137003625
 31
0.0
  0
LINE
  5
565D
  8
0
 10
127.63089951068881
 20
31.98325137003625
 30
0.0
 11
126.50836703560989
 21
32.650001499348527
 31
0.0
  0
LINE
  5
565E
  8
0
 10
126.50836703560989
 20
32.650001499348527
 30
0.0
 11
125.3858355461653
 21
31.98325137003625
 31
0.0
  0
LINE
  5
565F
  8
0
 10
129.87596347521239
 20
31.98325137003625
 30
0.0
 11
128.75343100013359
 21
32.650001499348527
 31
0.0
  0
LINE
  5
5660
  8
0
 10
128.75343100013359
 20
32.650001499348527
 30
0.0
 11
127.63089951068891
 21
31.98325137003625
 31
0.0
  0
LINE
  5
5661
  8
0
 10
132.121027439736
 20
31.98325137003625
 30
0.0
 11
130.9984949646572
 21
32.650001499348527
 31
0.0
  0
LINE
  5
5662
  8
0
 10
130.9984949646572
 20
32.650001499348527
 30
0.0
 11
129.87596347521259
 21
31.98325137003625
 31
0.0
  0
LINE
  5
5663
  8
0
 10
134.36609140425969
 20
31.98325137003625
 30
0.0
 11
133.24355892918089
 21
32.650001499348527
 31
0.0
  0
LINE
  5
5664
  8
0
 10
133.24355892918089
 20
32.650001499348527
 30
0.0
 11
132.1210274397362
 21
31.98325137003625
 31
0.0
  0
LINE
  5
5665
  8
0
 10
136.6111553687833
 20
31.98325137003625
 30
0.0
 11
135.4886228937045
 21
32.650001499348527
 31
0.0
  0
LINE
  5
5666
  8
0
 10
135.4886228937045
 20
32.650001499348527
 30
0.0
 11
134.36609140425981
 21
31.98325137003625
 31
0.0
  0
LINE
  5
5667
  8
0
 10
138.856219333307
 20
31.98325137003625
 30
0.0
 11
137.73368685822811
 21
32.650001499348527
 31
0.0
  0
LINE
  5
5668
  8
0
 10
137.73368685822811
 20
32.650001499348527
 30
0.0
 11
136.6111553687835
 21
31.98325137003625
 31
0.0
  0
LINE
  5
5669
  8
0
 10
141.10128329783061
 20
31.98325137003625
 30
0.0
 11
139.97875082275181
 21
32.650001499348527
 31
0.0
  0
LINE
  5
566A
  8
0
 10
139.97875082275181
 20
32.650001499348527
 30
0.0
 11
138.85621933330711
 21
31.98325137003625
 31
0.0
  0
LINE
  5
566B
  8
0
 10
143.3463472623543
 20
31.98325137003625
 30
0.0
 11
142.2238147872755
 21
32.650001499348527
 31
0.0
  0
LINE
  5
566C
  8
0
 10
142.2238147872755
 20
32.650001499348527
 30
0.0
 11
141.1012832978308
 21
31.98325137003625
 31
0.0
  0
LINE
  5
566D
  8
0
 10
145.59141122687791
 20
31.98325137003625
 30
0.0
 11
144.46887875179911
 21
32.650001499348527
 31
0.0
  0
LINE
  5
566E
  8
0
 10
144.46887875179911
 20
32.650001499348527
 30
0.0
 11
143.34634726235441
 21
31.98325137003625
 31
0.0
  0
LINE
  5
566F
  8
0
 10
147.83647519140149
 20
31.98325137003625
 30
0.0
 11
146.7139427163228
 21
32.650001499348527
 31
0.0
  0
LINE
  5
5670
  8
0
 10
146.7139427163228
 20
32.650001499348527
 30
0.0
 11
145.59141122687811
 21
31.98325137003625
 31
0.0
  0
LINE
  5
5671
  8
0
 10
150.08153915592521
 20
31.98325137003625
 30
0.0
 11
148.95900668084639
 21
32.650001499348527
 31
0.0
  0
LINE
  5
5672
  8
0
 10
148.95900668084639
 20
32.650001499348527
 30
0.0
 11
147.83647519140169
 21
31.98325137003625
 31
0.0
  0
LINE
  5
5673
  8
0
 10
152.32660312044879
 20
31.98325137003625
 30
0.0
 11
151.20407064537
 21
32.650001499348527
 31
0.0
  0
LINE
  5
5674
  8
0
 10
151.20407064537
 20
32.650001499348527
 30
0.0
 11
150.08153915592541
 21
31.98325137003625
 31
0.0
  0
LINE
  5
5675
  8
0
 10
154.57166708497249
 20
31.98325137003625
 30
0.0
 11
153.44913460989369
 21
32.650001499348527
 31
0.0
  0
LINE
  5
5676
  8
0
 10
153.44913460989369
 20
32.650001499348527
 30
0.0
 11
152.32660312044899
 21
31.98325137003625
 31
0.0
  0
LINE
  5
5677
  8
0
 10
156.8167310494961
 20
31.98325137003625
 30
0.0
 11
155.6941985744173
 21
32.650001499348527
 31
0.0
  0
LINE
  5
5678
  8
0
 10
155.6941985744173
 20
32.650001499348527
 30
0.0
 11
154.5716670849726
 21
31.98325137003625
 31
0.0
  0
LINE
  5
5679
  8
0
 10
159.06179501401979
 20
31.98325137003625
 30
0.0
 11
157.93926253894091
 21
32.650001499348527
 31
0.0
  0
LINE
  5
567A
  8
0
 10
157.93926253894091
 20
32.650001499348527
 30
0.0
 11
156.8167310494963
 21
31.98325137003625
 31
0.0
  0
LINE
  5
567B
  8
0
 10
161.3068589785434
 20
31.98325137003625
 30
0.0
 11
160.1843265034646
 21
32.650001499348527
 31
0.0
  0
LINE
  5
567C
  8
0
 10
160.1843265034646
 20
32.650001499348527
 30
0.0
 11
159.06179501401991
 21
31.98325137003625
 31
0.0
  0
LINE
  5
567D
  8
0
 10
163.5519229430671
 20
31.98325137003625
 30
0.0
 11
162.42939046798821
 21
32.650001499348527
 31
0.0
  0
LINE
  5
567E
  8
0
 10
162.42939046798821
 20
32.650001499348527
 30
0.0
 11
161.30685897854349
 21
31.98325137003625
 31
0.0
  0
LINE
  5
567F
  8
0
 10
165.79698690759071
 20
31.98325137003625
 30
0.0
 11
164.67445443251191
 21
32.650001499348527
 31
0.0
  0
LINE
  5
5680
  8
0
 10
164.67445443251191
 20
32.650001499348527
 30
0.0
 11
163.55192294306721
 21
31.98325137003625
 31
0.0
  0
LINE
  5
5681
  8
0
 10
168.04205087211429
 20
31.98325137003625
 30
0.0
 11
166.9195183970356
 21
32.650001499348527
 31
0.0
  0
LINE
  5
5682
  8
0
 10
166.9195183970356
 20
32.650001499348527
 30
0.0
 11
165.79698690759091
 21
31.98325137003625
 31
0.0
  0
LINE
  5
5683
  8
0
 10
170.28711483663801
 20
31.98325137003625
 30
0.0
 11
169.16458236155921
 21
32.650001499348527
 31
0.0
  0
LINE
  5
5684
  8
0
 10
169.16458236155921
 20
32.650001499348527
 30
0.0
 11
168.04205087211449
 21
31.98325137003625
 31
0.0
  0
LINE
  5
5685
  8
0
 10
172.40000000000001
 20
32.061761555463782
 30
0.0
 11
171.40964632608279
 21
32.650001499348527
 31
0.0
  0
LINE
  5
5686
  8
0
 10
171.40964632608279
 20
32.650001499348527
 30
0.0
 11
170.28711483663821
 21
31.98325137003625
 31
0.0
  0
LINE
  5
5691
  8
0
 10
22.11289317807768
 20
31.98325137003625
 30
0.0
 11
20.99036070299886
 21
32.650001499348527
 31
0.0
  0
LINE
  5
5692
  8
0
 10
20.99036070299886
 20
32.650001499348527
 30
0.0
 11
20.000000000000011
 21
32.061756863897848
 31
0.0
  0
LINE
  5
5693
  8
0
 10
24.357957142601329
 20
31.98325137003625
 30
0.0
 11
23.235424667522501
 21
32.650001499348527
 31
0.0
  0
LINE
  5
5694
  8
0
 10
23.235424667522501
 20
32.650001499348527
 30
0.0
 11
22.11289317807783
 21
31.98325137003625
 31
0.0
  0
LINE
  5
5695
  8
0
 10
26.603021107124981
 20
31.98325137003625
 30
0.0
 11
25.48048863204615
 21
32.650001499348527
 31
0.0
  0
LINE
  5
5696
  8
0
 10
25.48048863204615
 20
32.650001499348527
 30
0.0
 11
24.357957142601482
 21
31.98325137003625
 31
0.0
  0
LINE
  5
5697
  8
0
 10
28.848085071648612
 20
31.98325137003625
 30
0.0
 11
27.725552596569791
 21
32.650001499348527
 31
0.0
  0
LINE
  5
5698
  8
0
 10
27.725552596569791
 20
32.650001499348527
 30
0.0
 11
26.603021107125119
 21
31.98325137003625
 31
0.0
  0
LINE
  5
5699
  8
0
 10
31.093149036172271
 20
31.98325137003625
 30
0.0
 11
29.97061656109344
 21
32.650001499348527
 31
0.0
  0
LINE
  5
569A
  8
0
 10
29.97061656109344
 20
32.650001499348527
 30
0.0
 11
28.848085071648772
 21
31.98325137003625
 31
0.0
  0
LINE
  5
569B
  8
0
 10
33.338213000695902
 20
31.98325137003625
 30
0.0
 11
32.215680525617067
 21
32.650001499348527
 31
0.0
  0
LINE
  5
569C
  8
0
 10
32.215680525617067
 20
32.650001499348527
 30
0.0
 11
31.093149036172409
 21
31.98325137003625
 31
0.0
  0
LINE
  5
569D
  8
0
 10
35.58327696521954
 20
31.98325137003625
 30
0.0
 11
34.460744490140719
 21
32.650001499348527
 31
0.0
  0
LINE
  5
569E
  8
0
 10
34.460744490140719
 20
32.650001499348527
 30
0.0
 11
33.338213000696051
 21
31.98325137003625
 31
0.0
  0
LINE
  5
569F
  8
0
 10
37.828340929743192
 20
31.98325137003625
 30
0.0
 11
36.705808454664371
 21
32.650001499348527
 31
0.0
  0
LINE
  5
56A0
  8
0
 10
36.705808454664371
 20
32.650001499348527
 30
0.0
 11
35.583276965219703
 21
31.98325137003625
 31
0.0
  0
LINE
  5
9F7C
  8
0
 10
19.999999999999979
 20
18.800000000000001
 30
0.0
 11
172.40000000000001
 21
18.800000000000001
 31
0.0
  0
LINE
  5
9F84
  8
0
 10
172.40000000000001
 20
52.648730181343844
 30
0.0
 11
172.40000000000001
 21
84.398730181343836
 31
0.0
  0
LINE
  5
9F85
  8
0
 10
19.99999999999994
 20
52.648730181343844
 30
0.0
 11
19.99999999999994
 21
84.398730181343836
 31
0.0
  0
ENDSEC
  0
EOF
