  0
SECTION
  2
HEADER
  9
$ACADVER
  1
AC1009
  9
$INSBASE
 10
0.0
 20
0.0
 30
0.0
  9
$EXTMIN
 10
0.0
 20
-2.960436562073669
 30
0.0
  9
$EXTMAX
 10
359.99999999999937
 20
109.9999999999996
 30
0.0
  9
$LIMMIN
 10
0.0
 20
0.0
  9
$LIMMAX
 10
187.5
 20
135.0
  9
$ORTHOMODE
 70
     1
  9
$REGENMODE
 70
     1
  9
$FILLMODE
 70
     1
  9
$QTEXTMODE
 70
     0
  9
$MIRRTEXT
 70
     0
  9
$DRAGMODE
 70
     2
  9
$LTSCALE
 40
5.0
  9
$OSMODE
 70
  3071
  9
$ATTMODE
 70
     1
  9
$TEXTSIZE
 40
2.5000000000000488
  9
$TRACEWID
 40
0.05
  9
$TEXTSTYLE
  7
STANDARD
  9
$CLAYER
  8
0
  9
$CELTYPE
  6
BYLAYER
  9
$CECOLOR
 62
   256
  9
$DIMSCALE
 40
0.5
  9
$DIMASZ
 40
3.0
  9
$DIMEXO
 40
2.0
  9
$DIMDLI
 40
0.38
  9
$DIMRND
 40
0.0
  9
$DIMDLE
 40
0.0
  9
$DIMEXE
 40
2.0
  9
$DIMTP
 40
0.0
  9
$DIMTM
 40
0.0
  9
$DIMTXT
 40
3.2000000000000002
  9
$DIMCEN
 40
0.0
  9
$DIMTSZ
 40
0.0
  9
$DIMTOL
 70
     0
  9
$DIMLIM
 70
     0
  9
$DIMTIH
 70
     0
  9
$DIMTOH
 70
     0
  9
$DIMSE1
 70
     0
  9
$DIMSE2
 70
     0
  9
$DIMTAD
 70
     1
  9
$DIMZIN
 70
     0
  9
$DIMBLK
  1

  9
$DIMASO
 70
     1
  9
$DIMSHO
 70
     0
  9
$DIMPOST
  1

  9
$DIMAPOST
  1

  9
$DIMALT
 70
     0
  9
$DIMALTD
 70
     2
  9
$DIMALTF
 40
25.399999999999999
  9
$DIMLFAC
 40
1.0
  9
$DIMTOFL
 70
     1
  9
$DIMTVP
 40
1.6000000000000001
  9
$DIMTIX
 70
     1
  9
$DIMSOXD
 70
     0
  9
$DIMSAH
 70
     0
  9
$DIMBLK1
  1

  9
$DIMBLK2
  1

  9
$DIMSTYLE
  2
STANDARD
  9
$DIMCLRD
 70
     0
  9
$DIMCLRE
 70
     0
  9
$DIMCLRT
 70
     0
  9
$DIMTFAC
 40
1.0
  9
$DIMGAP
 40
0.09
  9
$LUNITS
 70
     2
  9
$LUPREC
 70
     4
  9
$SKETCHINC
 40
0.1
  9
$FILLETRAD
 40
0.0
  9
$AUNITS
 70
     0
  9
$AUPREC
 70
     4
  9
$MENU
  1
E:\r13\win\SUPPORT\ACAD
  9
$ELEVATION
 40
0.0
  9
$PELEVATION
 40
0.0
  9
$THICKNESS
 40
0.0
  9
$LIMCHECK
 70
     0
  9
$BLIPMODE
 70
     0
  9
$CHAMFERA
 40
0.0
  9
$CHAMFERB
 40
0.0
  9
$SKPOLY
 70
     0
  9
$TDCREATE
 40
2449839.787418982
  9
$TDUPDATE
 40
2456602.612601296
  9
$TDINDWG
 40
0.3110525231
  9
$TDUSRTIMER
 40
2456598.4280420602
  9
$USRTIMER
 70
     1
  9
$ANGBASE
 50
0.0
  9
$ANGDIR
 70
     0
  9
$PDMODE
 70
     0
  9
$PDSIZE
 40
0.0
  9
$PLINEWID
 40
0.0
  9
$COORDS
 70
     1
  9
$SPLFRAME
 70
     0
  9
$SPLINETYPE
 70
     6
  9
$SPLINESEGS
 70
     8
  9
$ATTDIA
 70
     0
  9
$ATTREQ
 70
     1
  9
$HANDLING
 70
     1
  9
$HANDSEED
  5
8244
  9
$SURFTAB1
 70
     6
  9
$SURFTAB2
 70
     6
  9
$SURFTYPE
 70
     6
  9
$SURFU
 70
     6
  9
$SURFV
 70
     6
  9
$UCSNAME
  2

  9
$UCSORG
 10
0.0
 20
0.0
 30
0.0
  9
$UCSXDIR
 10
1.0
 20
0.0
 30
0.0
  9
$UCSYDIR
 10
0.0
 20
1.0
 30
0.0
  9
$PUCSNAME
  2

  9
$PUCSORG
 10
0.0
 20
0.0
 30
0.0
  9
$PUCSXDIR
 10
1.0
 20
0.0
 30
0.0
  9
$PUCSYDIR
 10
0.0
 20
1.0
 30
0.0
  9
$USERI1
 70
     0
  9
$USERI2
 70
     1
  9
$USERI3
 70
     1
  9
$USERI4
 70
     0
  9
$USERI5
 70
     0
  9
$USERR1
 40
0.0
  9
$USERR2
 40
0.0
  9
$USERR3
 40
0.0
  9
$USERR4
 40
0.0
  9
$USERR5
 40
0.0
  9
$WORLDVIEW
 70
     1
  9
$SHADEDGE
 70
     3
  9
$SHADEDIF
 70
    70
  9
$TILEMODE
 70
     1
  9
$MAXACTVP
 70
    16
  9
$PLIMCHECK
 70
     0
  9
$PEXTMIN
 10
1.0000000000000000E+020
 20
1.0000000000000000E+020
 30
1.0000000000000000E+020
  9
$PEXTMAX
 10
-1.0000000000000000E+020
 20
-1.0000000000000000E+020
 30
-1.0000000000000000E+020
  9
$PLIMMIN
 10
0.0
 20
0.0
  9
$PLIMMAX
 10
12.0
 20
9.0
  9
$UNITMODE
 70
     0
  9
$VISRETAIN
 70
     0
  9
$PLINEGEN
 70
     0
  9
$PSLTSCALE
 70
     0
  0
ENDSEC
  0
SECTION
  2
TABLES
  0
TABLE
  2
VPORT
 70
     1
  0
VPORT
  2
*ACTIVE
 70
     0
 10
0.0
 20
0.0
 11
1.0
 21
1.0
 12
429.29652186816719
 22
44.261733153600311
 13
0.0
 23
0.0
 14
5.0
 24
5.0
 15
5.0
 25
5.0
 16
0.0
 26
0.0
 36
1.0
 17
0.0
 27
0.0
 37
0.0
 40
564.62841885276657
 41
1.831871345029239
 42
50.0
 43
0.0
 44
0.0
 50
0.0
 51
0.0
 71
    16
 72
   500
 73
     1
 74
     0
 75
     0
 76
     0
 77
     0
 78
     2
  0
ENDTAB
  0
TABLE
  2
LTYPE
 70
     3
  0
LTYPE
  2
CONTINUOUS
 70
     0
  3
Solid Line
 72
    65
 73
     0
 40
0.0
  0
LTYPE
  2
CENTER
 70
     0
  3
____ _ ____ _ ____ _ ____ _ ____ _ ____ _ ____
 72
    65
 73
     4
 40
2.0
 49
1.25
 49
-0.25
 49
0.25
 49
-0.25
  0
LTYPE
  2
PHANTOM2
 70
     0
  3
___ _ _ ___ _ _ ___ _ _ ___ _ _
 72
    65
 73
     6
 40
1.25
 49
0.625
 49
-0.125
 49
0.125
 49
-0.125
 49
0.125
 49
-0.125
  0
ENDTAB
  0
TABLE
  2
LAYER
 70
     3
  0
LAYER
  2
0
 70
     0
 62
     7
  6
CONTINUOUS
  0
LAYER
  2
1
 70
     0
 62
     1
  6
CENTER
  0
LAYER
  2
3
 70
     0
 62
     3
  6
CONTINUOUS
  0
ENDTAB
  0
TABLE
  2
STYLE
 70
     2
  0
STYLE
  2
STANDARD
 70
     0
 40
0.0
 41
1.0
 50
0.0
 71
     0
 42
2.5000000000000488
  3
TXT
  4
BIGFONT
  0
STYLE
  2
STANDARD1
 70
     0
 40
0.0
 41
1.0
 50
0.0
 71
     0
 42
3.0
  3
txt
  4

  0
ENDTAB
  0
TABLE
  2
VIEW
 70
     2
  0
VIEW
  2
ALL
 70
     0
 40
135.0
 10
110.4957983193277
 20
67.5
 41
0.0
 11
0.0
 21
0.0
 31
1.0
 12
0.0
 22
0.0
 32
0.0
 42
0.0
 43
0.0
 44
0.0
 50
0.0
 71
     0
  0
VIEW
  2
OLE1
 70
     0
 40
63.825144965398117
 10
233.6237691698706
 20
4.175601147383162
 41
113.79500935111911
 11
0.0
 21
0.0
 31
1.0
 12
0.0
 22
0.0
 32
0.0
 42
50.0
 43
0.0
 44
0.0
 50
0.0
 71
     0
  0
ENDTAB
  0
TABLE
  2
UCS
 70
     0
  0
ENDTAB
  0
TABLE
  2
APPID
 70
     4
  0
APPID
  2
ACAD
 70
     0
  0
APPID
  2
ACAD_EXEMPT_FROM_CAD_STANDARDS
 70
     0
  0
APPID
  2
ACAD_MLEADERVER
 70
     0
  0
APPID
  2
ACAD_NAV_VCDISPLAY
 70
     0
  0
ENDTAB
  0
TABLE
  2
DIMSTYLE
 70
     1
  0
DIMSTYLE
  2
STANDARD
 70
     0
  3

  4

  5

  6

  7

 40
1.0
 41
0.18
 42
0.0625
 43
0.38
 44
0.18
 45
0.0
 46
0.0
 47
0.0
 48
0.0
140
0.18
141
0.09
142
0.0
143
25.399999999999999
144
1.0
145
0.0
146
1.0
147
0.09
 71
     0
 72
     0
 73
     1
 74
     1
 75
     0
 76
     0
 77
     0
 78
     0
170
     0
171
     2
172
     0
173
     0
174
     0
175
     0
176
     0
177
     0
178
     0
  0
ENDTAB
  0
ENDSEC
  0
SECTION
  2
BLOCKS
  0
BLOCK
  8
0
  2
$MODEL_SPACE
 70
     0
 10
0.0
 20
0.0
 30
0.0
  3
$MODEL_SPACE
  1

  0
ENDBLK
  5
85E
  8
0
  0
BLOCK
 67
     1
  8
0
  2
$PAPER_SPACE
 70
     0
 10
0.0
 20
0.0
 30
0.0
  3
$PAPER_SPACE
  1

  0
ENDBLK
  5
85C
 67
     1
  8
0
  0
ENDSEC
  0
SECTION
  2
ENTITIES
  0
LINE
  5
726A
  8
1
 10
280.00000000000051
 20
70.000000000000171
 30
0.0
 11
359.99999999999937
 21
70.000000000000171
 31
0.0
  0
LINE
  5
726B
  8
1
 10
319.99999999999989
 20
30.00000000000075
 30
0.0
 11
319.99999999999989
 21
109.9999999999996
 31
0.0
  0
CIRCLE
  5
726C
  8
0
 10
319.99999999999483
 20
69.999999999999631
 30
0.0
 40
33.0
  0
CIRCLE
  5
726E
  8
0
 10
319.99999999999483
 20
69.999999999999631
 30
0.0
 40
13.709090909090911
  0
CIRCLE
  5
726F
  8
0
 10
319.99999999999483
 20
69.999999999999631
 30
0.0
 40
10.90909090909091
  0
ARC
  5
7270
  8
0
 10
319.99999999999437
 20
70.000000000000199
 30
0.0
 40
35.000000000000448
 50
357.94071893195928
 51
2.0592810680391351
  0
LINE
  5
7271
  8
0
 10
353.95340418165028
 20
68.220577487739575
 30
0.0
 11
354.97739641701691
 21
68.742327591743532
 31
0.0
  0
LINE
  5
7272
  8
0
 10
354.97739641701702
 20
71.257672408255701
 30
0.0
 11
353.95340418165028
 21
71.779422512259657
 31
0.0
  0
LINE
  5
7273
  8
0
 10
354.91724914382831
 20
67.594649250635953
 30
0.0
 11
353.95340418165028
 21
68.220577487739519
 31
0.0
  0
LINE
  5
7274
  8
0
 10
353.95340418165028
 20
71.779422512259771
 30
0.0
 11
354.9172491438282
 21
72.405350749363237
 31
0.0
  0
ARC
  5
7275
  8
0
 10
319.9999999999863
 20
70.000000000001393
 30
0.0
 40
35.00000000000864
 50
351.94071893195888
 51
356.05928106803839
  0
LINE
  5
7276
  8
0
 10
353.58140358022951
 20
64.681228188631849
 30
0.0
 11
354.65432401557001
 21
65.093083756213531
 31
0.0
  0
ARC
  5
7277
  8
0
 10
319.99999999999812
 20
69.999999999999744
 30
0.0
 40
34.999999999996739
 50
3.9407189319599141
 51
8.0592810680411322
  0
LINE
  5
7278
  8
0
 10
354.6543240155699
 20
74.906916243785673
 30
0.0
 11
353.58140358022951
 21
75.318771811367384
 31
0.0
  0
LINE
  5
7279
  8
0
 10
354.4745411821155
 20
63.95797961917831
 30
0.0
 11
353.58140358022951
 21
64.681228188631678
 31
0.0
  0
LINE
  5
727A
  8
0
 10
353.58140358022951
 20
75.318771811367526
 30
0.0
 11
354.47454118211562
 21
76.042020380820915
 31
0.0
  0
ARC
  5
727B
  8
0
 10
319.99999999998897
 20
69.999999999999886
 30
0.0
 40
35.000000000005677
 50
345.94071893196048
 51
350.059281068041
  0
LINE
  5
727C
  8
0
 10
352.84147809382313
 20
61.200152466513977
 30
0.0
 11
353.95157158832478
 21
61.497601121888721
 31
0.0
  0
ARC
  5
727D
  8
0
 10
319.99999999999949
 20
70.000000000000227
 30
0.0
 40
34.999999999995261
 50
9.9407189319589477
 51
14.059281068041139
  0
LINE
  5
727E
  8
0
 10
353.95157158832478
 20
78.502398878110512
 30
0.0
 11
352.84147809382313
 21
78.799847533485263
 31
0.0
  0
LINE
  5
727F
  8
0
 10
353.65412293295009
 20
60.38750762738696
 30
0.0
 11
352.84147809382313
 21
61.200152466513892
 31
0.0
  0
LINE
  5
7280
  8
0
 10
352.84147809382313
 20
78.799847533485405
 30
0.0
 11
353.65412293295009
 21
79.61249237261228
 31
0.0
  0
ARC
  5
7281
  8
0
 10
319.9999999999842
 20
70.000000000003496
 30
0.0
 40
35.000000000011333
 50
339.9407189319603
 51
344.05928106804078
  0
LINE
  5
7282
  8
0
 10
351.74173450089978
 20
57.815489715459478
 30
0.0
 11
352.8768386379349
 21
57.995272548913817
 31
0.0
  0
ARC
  5
7283
  8
0
 10
320.00000000000011
 20
70.000000000001478
 30
0.0
 40
34.999999999994429
 50
15.940718931958299
 51
20.059281068039621
  0
LINE
  5
7284
  8
0
 10
352.8768386379349
 20
82.004727451085415
 30
0.0
 11
351.74173450089972
 21
82.184510284539783
 31
0.0
  0
LINE
  5
7285
  8
0
 10
352.46498307035313
 20
56.922352113573311
 30
0.0
 11
351.74173450089972
 21
57.815489715459371
 31
0.0
  0
LINE
  5
7286
  8
0
 10
351.74173450089972
 20
82.184510284539897
 30
0.0
 11
352.46498307035313
 21
83.07764788642595
 31
0.0
  0
ARC
  5
7287
  8
0
 10
319.99999999999022
 20
70.000000000001165
 30
0.0
 40
35.000000000004917
 50
333.94071893196133
 51
338.05928106804112
  0
LINE
  5
7288
  8
0
 10
350.29422182239938
 20
54.564323008855098
 30
0.0
 11
351.44190016350689
 21
54.624470282043752
 31
0.0
  0
ARC
  5
7289
  8
0
 10
320.00000000000148
 20
70.000000000002359
 30
0.0
 40
34.99999999999276
 50
21.940718931958891
 51
26.059281068041042
  0
LINE
  5
728A
  8
0
 10
351.44190016350689
 20
85.375529717955459
 30
0.0
 11
350.29422182239938
 21
85.435676991144135
 31
0.0
  0
LINE
  5
728B
  8
0
 10
350.92015005950287
 20
53.600478046677082
 30
0.0
 11
350.29422182239932
 21
54.56432300885502
 31
0.0
  0
LINE
  5
728C
  8
0
 10
350.29422182239932
 20
85.435676991144277
 30
0.0
 11
350.92015005950287
 21
86.399521953322164
 31
0.0
  0
ARC
  5
728D
  8
0
 10
319.99999999998749
 20
70.000000000004604
 30
0.0
 40
35.000000000008811
 50
327.94071893195718
 51
332.05928106804032
  0
LINE
  5
728E
  8
0
 10
348.51479931013932
 20
51.482272809488762
 30
0.0
 11
349.66247765124677
 21
51.42212553630003
 31
0.0
  0
ARC
  5
728F
  8
0
 10
319.99999999999761
 20
70.000000000001222
 30
0.0
 40
34.999999999996803
 50
27.940718931958649
 51
32.05928106804275
  0
LINE
  5
7290
  8
0
 10
349.66247765124677
 20
88.577874463699175
 30
0.0
 11
348.51479931013932
 21
88.517727190510499
 31
0.0
  0
LINE
  5
7291
  8
0
 10
349.03654941414322
 20
50.458280574122057
 30
0.0
 11
348.51479931013921
 21
51.482272809488663
 31
0.0
  0
LINE
  5
7292
  8
0
 10
348.51479931013921
 20
88.517727190510584
 30
0.0
 11
349.03654941414322
 21
89.541719425877176
 31
0.0
  0
ARC
  5
7293
  8
0
 10
319.99999999999147
 20
70.000000000002046
 30
0.0
 40
35.0000000000041
 50
321.94071893196002
 51
326.05928106803918
  0
LINE
  5
7294
  8
0
 10
346.42296268953191
 20
48.603106704305198
 30
0.0
 11
347.55806682656703
 21
48.423323870850801
 31
0.0
  0
ARC
  5
7295
  8
0
 10
319.99999999999949
 20
70.00000000000253
 30
0.0
 40
34.999999999994493
 50
33.94071893196076
 51
38.05928106804037
  0
LINE
  5
7296
  8
0
 10
347.55806682656703
 20
91.576676129148396
 30
0.0
 11
346.42296268953191
 21
91.396893295694014
 31
0.0
  0
LINE
  5
7297
  8
0
 10
346.83481825711362
 20
47.530186268964677
 30
0.0
 11
346.42296268953169
 21
48.603106704305077
 31
0.0
  0
LINE
  5
7298
  8
0
 10
346.42296268953191
 20
91.396893295694156
 30
0.0
 11
346.83481825711362
 21
92.469813731034563
 31
0.0
  0
ARC
  5
7299
  8
0
 10
319.99999999998812
 20
70.000000000005116
 30
0.0
 40
35.000000000008683
 50
315.940718931959
 51
320.0592810680397
  0
LINE
  5
729A
  8
0
 10
344.04163056033752
 20
45.958369439657048
 30
0.0
 11
345.15172405483912
 21
45.660920784282247
 31
0.0
  0
ARC
  5
729B
  8
0
 10
320.00000000000119
 20
70.000000000005059
 30
0.0
 40
34.99999999999163
 50
39.940718931960276
 51
44.059281068041102
  0
LINE
  5
729C
  8
0
 10
345.15172405483912
 20
94.339079215716964
 30
0.0
 11
344.04163056033752
 21
94.041630560342185
 31
0.0
  0
LINE
  5
729D
  8
0
 10
344.33907921571222
 20
44.848275945155279
 30
0.0
 11
344.04163056033741
 21
45.958369439656963
 31
0.0
  0
LINE
  5
729E
  8
0
 10
344.04163056033741
 20
94.041630560342327
 30
0.0
 11
344.33907921571222
 21
95.151724054843953
 31
0.0
  0
ARC
  5
729F
  8
0
 10
319.99999999998778
 20
70.000000000007375
 30
0.0
 40
35.000000000010459
 50
309.94071893196212
 51
314.0592810680368
  0
LINE
  5
72A0
  8
0
 10
341.39689329568938
 20
43.577037310462657
 30
0.0
 11
342.46981373102977
 21
43.165181742880897
 31
0.0
  0
ARC
  5
72A1
  8
0
 10
319.99999999999773
 20
70.00000000000324
 30
0.0
 40
34.999999999995431
 50
45.940718931962103
 51
50.059281068037649
  0
LINE
  5
72A2
  8
0
 10
342.46981373102977
 20
96.834818257118343
 30
0.0
 11
341.39689329568938
 21
96.422962689536604
 31
0.0
  0
LINE
  5
72A3
  8
0
 10
341.57667612914372
 20
42.441933173427401
 30
0.0
 11
341.39689329568932
 21
43.577037310462579
 31
0.0
  0
LINE
  5
72A4
  8
0
 10
341.39689329568932
 20
96.422962689536689
 30
0.0
 11
341.57667612914372
 21
97.558066826571832
 31
0.0
  0
ARC
  5
72A5
  8
0
 10
320.00000000000381
 20
69.99999999998775
 30
0.0
 40
34.999999999985107
 50
303.94071893195883
 51
308.05928106803981
  0
LINE
  5
72A6
  8
0
 10
338.51772719050581
 20
41.485200689855247
 30
0.0
 11
339.54171942587237
 21
40.96345058585127
 31
0.0
  0
ARC
  5
72A7
  8
0
 10
319.99999999999608
 20
70.000000000000512
 30
0.0
 40
34.999999999998487
 50
51.940718931960191
 51
56.059281068041173
  0
LINE
  5
72A8
  8
0
 10
339.54171942587237
 20
99.036549414147942
 30
0.0
 11
338.51772719050581
 21
98.514799310143985
 31
0.0
  0
LINE
  5
72A9
  8
0
 10
338.5778744636944
 20
40.337522348747711
 30
0.0
 11
338.5177271905057
 21
41.485200689855191
 31
0.0
  0
LINE
  5
72AA
  8
0
 10
338.5177271905057
 20
98.514799310144085
 30
0.0
 11
338.5778744636944
 21
99.662477651251535
 31
0.0
  0
ARC
  5
72AB
  8
0
 10
319.9999999999996
 20
69.999999999991161
 30
0.0
 40
34.999999999990273
 50
297.94071893195701
 51
302.05928106804282
  0
LINE
  5
72AC
  8
0
 10
335.43567699113947
 20
39.705778177595143
 30
0.0
 11
336.39952195331728
 21
39.07984994049162
 31
0.0
  0
ARC
  5
72AD
  8
0
 10
319.99999999999272
 20
69.999999999995453
 30
0.0
 40
35.000000000004711
 50
57.940718931957129
 51
62.059281068043049
  0
LINE
  5
72AE
  8
0
 10
336.39952195331728
 20
100.92015005950761
 30
0.0
 11
335.43567699113947
 21
100.2942218224041
 31
0.0
  0
LINE
  5
72AF
  8
0
 10
335.37552971795071
 20
38.558099836487671
 30
0.0
 11
335.43567699113942
 21
39.705778177595121
 31
0.0
  0
LINE
  5
72B0
  8
0
 10
335.43567699113942
 20
100.2942218224041
 30
0.0
 11
335.37552971795071
 21
101.4419001635116
 31
0.0
  0
ARC
  5
72B1
  8
0
 10
319.99999999999721
 20
69.999999999992752
 30
0.0
 40
34.999999999992717
 50
291.94071893196099
 51
296.0592810680418
  0
LINE
  5
72B2
  8
0
 10
332.18451028453512
 20
38.258265499094769
 30
0.0
 11
333.07764788642118
 21
37.535016929641372
 31
0.0
  0
ARC
  5
72B3
  8
0
 10
319.99999999999858
 20
70.000000000010743
 30
0.0
 40
34.999999999988361
 50
63.94071893195818
 51
68.059281068038985
  0
LINE
  5
72B4
  8
0
 10
333.07764788642118
 20
102.4649830703579
 30
0.0
 11
332.18451028453512
 21
101.7417345009045
 31
0.0
  0
LINE
  5
72B5
  8
0
 10
332.00472745108073
 20
37.12316136205957
 30
0.0
 11
332.18451028453501
 21
38.258265499094769
 31
0.0
  0
LINE
  5
72B6
  8
0
 10
332.18451028453501
 20
101.7417345009045
 30
0.0
 11
332.00472745108073
 21
102.8768386379397
 31
0.0
  0
ARC
  5
72B7
  8
0
 10
319.99999999999773
 20
69.999999999992156
 30
0.0
 40
34.999999999992042
 50
285.9407189319603
 51
290.05928106803862
  0
LINE
  5
72B8
  8
0
 10
328.7998475334806
 20
37.158521906171337
 30
0.0
 11
329.61249237260751
 21
36.345877067044398
 31
0.0
  0
ARC
  5
72B9
  8
0
 10
319.99999999999397
 20
69.999999999997073
 30
0.0
 40
35.000000000002672
 50
69.940718931961456
 51
74.059281068039667
  0
LINE
  5
72BA
  8
0
 10
329.61249237260751
 20
103.65412293295481
 30
0.0
 11
328.79984753348072
 21
102.8414780938279
 31
0.0
  0
LINE
  5
72BB
  8
0
 10
328.50239887810568
 20
36.048428411669597
 30
0.0
 11
328.79984753348037
 21
37.158521906171309
 31
0.0
  0
LINE
  5
72BC
  8
0
 10
328.79984753348037
 20
102.8414780938279
 30
0.0
 11
328.50239887810568
 21
103.9515715883296
 31
0.0
  0
ARC
  5
72BD
  8
0
 10
319.99999999999193
 20
70.000000000013927
 30
0.0
 40
35.000000000014602
 50
279.94071893195758
 51
284.05928106804231
  0
LINE
  5
72BE
  8
0
 10
325.31877181136281
 20
36.41859641976496
 30
0.0
 11
326.04202038081621
 21
35.525458817878878
 31
0.0
  0
ARC
  5
72BF
  8
0
 10
319.9999999999925
 20
69.999999999989043
 30
0.0
 40
35.000000000010822
 50
75.940718931957718
 51
80.059281068042509
  0
LINE
  5
72C0
  8
0
 10
326.04202038081621
 20
104.4745411821204
 30
0.0
 11
325.31877181136281
 21
103.58140358023429
 31
0.0
  0
LINE
  5
72C1
  8
0
 10
324.90691624378093
 20
35.34567598442451
 30
0.0
 11
325.31877181136258
 21
36.418596419764931
 31
0.0
  0
LINE
  5
72C2
  8
0
 10
325.31877181136258
 20
103.58140358023429
 30
0.0
 11
324.90691624378093
 21
104.6543240155747
 31
0.0
  0
ARC
  5
72C3
  8
0
 10
319.99999999999687
 20
69.999999999978826
 30
0.0
 40
34.99999999997911
 50
273.94071893195661
 51
278.05928106804117
  0
LINE
  5
72C4
  8
0
 10
321.77942251225488
 20
36.046595818344123
 30
0.0
 11
322.40535074935838
 21
35.082750856166207
 31
0.0
  0
ARC
  5
72C5
  8
0
 10
319.99999999999568
 20
70.000000000009436
 30
0.0
 40
34.99999999999018
 50
81.940718931958727
 51
86.059281068043305
  0
LINE
  5
72C6
  8
0
 10
322.40535074935849
 20
104.917249143833
 30
0.0
 11
321.77942251225488
 21
103.9534041816551
 31
0.0
  0
LINE
  5
72C7
  8
0
 10
321.25767240825093
 20
35.022603582977531
 30
0.0
 11
321.77942251225483
 21
36.046595818344123
 31
0.0
  0
LINE
  5
72C8
  8
0
 10
321.77942251225488
 20
103.9534041816551
 30
0.0
 11
321.25767240825093
 21
104.97739641702169
 31
0.0
  0
ARC
  5
72C9
  8
0
 10
319.99999999999488
 20
69.999999999995197
 30
0.0
 40
34.99999999999558
 50
267.94071893195758
 51
272.05928106804242
  0
LINE
  5
72CA
  8
0
 10
318.22057748773477
 20
36.046595818344123
 30
0.0
 11
318.74232759173867
 21
35.022603582977531
 31
0.0
  0
ARC
  5
72CB
  8
0
 10
319.99999999999392
 20
69.999999999991303
 30
0.0
 40
35.000000000008342
 50
87.940718931957676
 51
92.059281068035816
  0
LINE
  5
72CC
  8
0
 10
318.74232759173867
 20
104.97739641702179
 30
0.0
 11
318.22057748773472
 21
103.9534041816551
 31
0.0
  0
LINE
  5
72CD
  8
0
 10
317.59464925063122
 20
35.082750856166257
 30
0.0
 11
318.22057748773472
 21
36.046595818344123
 31
0.0
  0
LINE
  5
72CE
  8
0
 10
318.22057748773472
 20
103.9534041816551
 30
0.0
 11
317.59464925063122
 21
104.917249143833
 31
0.0
  0
ARC
  5
72CF
  8
0
 10
319.9999999999938
 20
69.999999999992212
 30
0.0
 40
34.999999999992497
 50
261.9407189319586
 51
266.05928106804328
  0
LINE
  5
72D0
  8
0
 10
314.68122818862702
 20
36.41859641976496
 30
0.0
 11
315.09308375620873
 21
35.34567598442451
 31
0.0
  0
ARC
  5
72D1
  8
0
 10
319.99999999999648
 20
69.999999999983771
 30
0.0
 40
35.00000000001593
 50
93.940718931963204
 51
98.059281068041244
  0
LINE
  5
72D2
  8
0
 10
315.09308375620873
 20
104.6543240155747
 30
0.0
 11
314.68122818862702
 21
103.58140358023429
 31
0.0
  0
LINE
  5
72D3
  8
0
 10
313.9579796191735
 20
35.52545881787885
 30
0.0
 11
314.6812281886269
 21
36.41859641976496
 31
0.0
  0
LINE
  5
72D4
  8
0
 10
314.68122818862702
 20
103.58140358023429
 30
0.0
 11
313.9579796191735
 21
104.4745411821204
 31
0.0
  0
ARC
  5
72D5
  8
0
 10
319.99999999999699
 20
70.00000000000756
 30
0.0
 40
35.000000000008221
 50
255.94071893195769
 51
260.05928106803589
  0
LINE
  5
72D6
  8
0
 10
311.20015246650911
 20
37.158521906171281
 30
0.0
 11
311.49760112188392
 21
36.048428411669633
 31
0.0
  0
ARC
  5
72D7
  8
0
 10
319.99999999999733
 20
69.999999999988631
 30
0.0
 40
35.000000000011262
 50
99.940718931957477
 51
104.0592810680423
  0
LINE
  5
72D8
  8
0
 10
311.49760112188392
 20
103.9515715883296
 30
0.0
 11
311.20015246650911
 21
102.841478093828
 31
0.0
  0
LINE
  5
72D9
  8
0
 10
310.38750762738209
 20
36.345877067044398
 30
0.0
 11
311.20015246650911
 21
37.158521906171309
 31
0.0
  0
LINE
  5
72DA
  8
0
 10
311.20015246650911
 20
102.8414780938279
 30
0.0
 11
310.38750762738209
 21
103.65412293295491
 31
0.0
  0
ARC
  5
72DB
  8
0
 10
320.00000000000023
 20
70.000000000016627
 30
0.0
 40
35.000000000017828
 50
249.94071893196141
 51
254.05928106803961
  0
LINE
  5
72DC
  8
0
 10
307.8154897154547
 20
38.258265499094769
 30
0.0
 11
307.99527254890899
 21
37.123161362059598
 31
0.0
  0
ARC
  5
72DD
  8
0
 10
319.99999999999739
 20
69.999999999989456
 30
0.0
 40
35.000000000010488
 50
105.9407189319603
 51
110.0592810680385
  0
LINE
  5
72DE
  8
0
 10
307.99527254890899
 20
102.8768386379397
 30
0.0
 11
307.81548971545459
 21
101.7417345009044
 31
0.0
  0
LINE
  5
72DF
  8
0
 10
306.92235211356848
 20
37.535016929641337
 30
0.0
 11
307.81548971545459
 21
38.258265499094797
 31
0.0
  0
LINE
  5
72E0
  8
0
 10
307.81548971545459
 20
101.7417345009044
 30
0.0
 11
306.92235211356859
 21
102.4649830703579
 31
0.0
  0
ARC
  5
72E1
  8
0
 10
319.99999999999761
 20
70.000000000005429
 30
0.0
 40
35.00000000000643
 50
243.94071893195809
 51
248.05928106803901
  0
LINE
  5
72E2
  8
0
 10
304.56432300885029
 20
39.705778177595121
 30
0.0
 11
304.62447028203889
 21
38.558099836487642
 31
0.0
  0
ARC
  5
72E3
  8
0
 10
319.9999999999921
 20
70.000000000006196
 30
0.0
 40
34.99999999999288
 50
111.940718931961
 51
116.0592810680418
  0
LINE
  5
72E4
  8
0
 10
304.62447028203889
 20
101.4419001635116
 30
0.0
 11
304.56432300885029
 21
100.2942218224041
 31
0.0
  0
LINE
  5
72E5
  8
0
 10
303.60047804667232
 20
39.079849940491712
 30
0.0
 11
304.56432300885018
 21
39.705778177595171
 31
0.0
  0
LINE
  5
72E6
  8
0
 10
304.56432300885018
 20
100.2942218224041
 30
0.0
 11
303.60047804667232
 21
100.92015005950761
 31
0.0
  0
ARC
  5
72E7
  8
0
 10
319.99999999999091
 20
69.999999999994941
 30
0.0
 40
34.999999999993882
 50
237.94071893196411
 51
242.05928106804299
  0
LINE
  5
72E8
  8
0
 10
301.48227280948402
 20
41.485200689855169
 30
0.0
 11
301.42212553629531
 21
40.33752234874774
 31
0.0
  0
ARC
  5
72E9
  8
0
 10
319.99999999999523
 20
69.999999999999119
 30
0.0
 40
35.000000000000632
 50
117.94071893195689
 51
122.05928106804291
  0
LINE
  5
72EA
  8
0
 10
301.42212553629531
 20
99.662477651251535
 30
0.0
 11
301.48227280948402
 21
98.514799310144042
 31
0.0
  0
LINE
  5
72EB
  8
0
 10
300.45828057411728
 20
40.963450585851319
 30
0.0
 11
301.48227280948379
 21
41.485200689855247
 31
0.0
  0
LINE
  5
72EC
  8
0
 10
301.48227280948402
 20
98.514799310144042
 30
0.0
 11
300.45828057411728
 21
99.036549414148027
 31
0.0
  0
ARC
  5
72ED
  8
0
 10
319.99999999998738
 20
69.999999999990905
 30
0.0
 40
34.999999999988603
 50
231.94071893196011
 51
236.05928106804109
  0
LINE
  5
72EE
  8
0
 10
298.60310670430039
 20
43.5770373104626
 30
0.0
 11
298.42332387084599
 21
42.441933173427437
 31
0.0
  0
ARC
  5
72EF
  8
0
 10
320.00000000000512
 20
69.999999999985391
 30
0.0
 40
35.000000000017543
 50
123.9407189319588
 51
128.0592810680397
  0
LINE
  5
72F0
  8
0
 10
298.42332387084599
 20
97.558066826571832
 30
0.0
 11
298.60310670430039
 21
96.422962689536661
 31
0.0
  0
LINE
  5
72F1
  8
0
 10
297.53018626895988
 20
43.165181742880918
 30
0.0
 11
298.60310670430027
 21
43.577037310462657
 31
0.0
  0
LINE
  5
72F2
  8
0
 10
298.60310670430027
 20
96.422962689536647
 30
0.0
 11
297.53018626895988
 21
96.834818257118371
 31
0.0
  0
ARC
  5
72F3
  8
0
 10
319.99999999999062
 20
69.99999999999531
 30
0.0
 40
34.999999999993982
 50
225.9407189319621
 51
230.05928106804421
  0
LINE
  5
72F4
  8
0
 10
295.95836943965219
 20
45.958369439656991
 30
0.0
 11
295.66092078427749
 21
44.848275945155322
 31
0.0
  0
ARC
  5
72F5
  8
0
 10
320.00000000000171
 20
69.999999999991672
 30
0.0
 40
35.000000000010587
 50
129.9407189319621
 51
134.0592810680368
  0
LINE
  5
72F6
  8
0
 10
295.66092078427749
 20
95.151724054843953
 30
0.0
 11
295.95836943965219
 21
94.041630560342242
 31
0.0
  0
LINE
  5
72F7
  8
0
 10
294.84827594515059
 20
45.660920784282268
 30
0.0
 11
295.95836943965219
 21
45.958369439657048
 31
0.0
  0
LINE
  5
72F8
  8
0
 10
295.95836943965219
 20
94.041630560342242
 30
0.0
 11
294.84827594515059
 21
94.339079215717021
 31
0.0
  0
ARC
  5
72F9
  8
0
 10
320.00000000000489
 20
70.000000000008384
 30
0.0
 40
35.000000000013387
 50
219.9407189319603
 51
224.059281068041
  0
LINE
  5
72FA
  8
0
 10
293.5770373104578
 20
48.603106704305141
 30
0.0
 11
293.16518174287609
 21
47.530186268964677
 31
0.0
  0
ARC
  5
72FB
  8
0
 10
319.99999999998931
 20
70.000000000004775
 30
0.0
 40
34.99999999999244
 50
135.9407189319588
 51
140.0592810680397
  0
LINE
  5
72FC
  8
0
 10
293.16518174287609
 20
92.469813731034563
 30
0.0
 11
293.5770373104578
 21
91.396893295694113
 31
0.0
  0
LINE
  5
72FD
  8
0
 10
292.44193317342268
 20
48.423323870850822
 30
0.0
 11
293.5770373104578
 21
48.603106704305198
 31
0.0
  0
LINE
  5
72FE
  8
0
 10
293.5770373104578
 20
91.396893295694099
 30
0.0
 11
292.44193317342268
 21
91.576676129148467
 31
0.0
  0
ARC
  5
72FF
  8
0
 10
319.9999999999942
 20
69.999999999999673
 30
0.0
 40
34.999999999999531
 50
213.94071893196181
 51
218.05928106804029
  0
LINE
  5
7300
  8
0
 10
291.48520068985039
 20
51.482272809488713
 30
0.0
 11
290.96345058584649
 21
50.458280574122092
 31
0.0
  0
ARC
  5
7301
  8
0
 10
319.9999999999979
 20
69.99999999999676
 30
0.0
 40
35.000000000004157
 50
141.94071893195959
 51
146.05928106803799
  0
LINE
  5
7302
  8
0
 10
290.96345058584637
 20
89.541719425877176
 30
0.0
 11
291.48520068985039
 21
88.517727190510556
 31
0.0
  0
LINE
  5
7303
  8
0
 10
290.33752234874288
 20
51.422125536300058
 30
0.0
 11
291.48520068985039
 21
51.482272809488762
 31
0.0
  0
LINE
  5
7304
  8
0
 10
291.48520068985039
 20
88.517727190510556
 30
0.0
 11
290.33752234874299
 21
88.577874463699246
 31
0.0
  0
ARC
  5
7305
  8
0
 10
319.99999999999602
 20
70.000000000000597
 30
0.0
 40
35.000000000001499
 50
207.94071893195951
 51
212.05928106804271
  0
LINE
  5
7306
  8
0
 10
289.70577817759039
 20
54.56432300885502
 30
0.0
 11
289.07984994048678
 21
53.600478046677132
 31
0.0
  0
ARC
  5
7307
  8
0
 10
319.99999999998681
 20
70.000000000004292
 30
0.0
 40
34.999999999990713
 50
147.94071893195721
 51
152.05928106804129
  0
LINE
  5
7308
  8
0
 10
289.07984994048678
 20
86.399521953322136
 30
0.0
 11
289.70577817759028
 21
85.435676991144234
 31
0.0
  0
LINE
  5
7309
  8
0
 10
288.55809983648282
 20
54.624470282043752
 30
0.0
 11
289.70577817759028
 21
54.564323008855077
 31
0.0
  0
LINE
  5
730A
  8
0
 10
289.70577817759028
 20
85.43567699114422
 30
0.0
 11
288.55809983648288
 21
85.375529717955516
 31
0.0
  0
ARC
  5
730B
  8
0
 10
319.99999999999392
 20
69.999999999998863
 30
0.0
 40
34.999999999998892
 50
201.9407189319588
 51
206.0592810680385
  0
LINE
  5
730C
  8
0
 10
288.25826549908999
 20
57.8154897154594
 30
0.0
 11
287.53501692963658
 21
56.922352113573353
 31
0.0
  0
ARC
  5
730D
  8
0
 10
320.00000000000449
 20
69.999999999995339
 30
0.0
 40
35.000000000010608
 50
153.9407189319613
 51
158.05928106804109
  0
LINE
  5
730E
  8
0
 10
287.53501692963658
 20
83.07764788642595
 30
0.0
 11
288.25826549908999
 21
82.18451028453984
 31
0.0
  0
LINE
  5
730F
  8
0
 10
287.12316136205482
 20
57.995272548913853
 30
0.0
 11
288.25826549908999
 21
57.815489715459478
 31
0.0
  0
LINE
  5
7310
  8
0
 10
288.25826549908999
 20
82.18451028453984
 30
0.0
 11
287.12316136205482
 21
82.004727451085458
 31
0.0
  0
ARC
  5
7311
  8
0
 10
320.00000000000227
 20
70.000000000002501
 30
0.0
 40
35.000000000007987
 50
195.94071893195911
 51
200.059281068041
  0
LINE
  5
7312
  8
0
 10
287.15852190616653
 20
61.200152466513892
 30
0.0
 11
286.34587706703962
 21
60.387507627387009
 31
0.0
  0
ARC
  5
7313
  8
0
 10
319.99999999999881
 20
69.999999999999119
 30
0.0
 40
35.000000000003872
 50
159.94071893196181
 51
164.05928106804171
  0
LINE
  5
7314
  8
0
 10
286.34587706703968
 20
79.61249237261228
 30
0.0
 11
287.15852190616653
 21
78.799847533485377
 31
0.0
  0
LINE
  5
7315
  8
0
 10
286.04842841166482
 20
61.497601121888721
 30
0.0
 11
287.15852190616641
 21
61.200152466513977
 31
0.0
  0
LINE
  5
7316
  8
0
 10
287.15852190616653
 20
78.79984753348532
 30
0.0
 11
286.04842841166482
 21
78.502398878110554
 31
0.0
  0
ARC
  5
7317
  8
0
 10
320.0000000000208
 20
70.000000000005073
 30
0.0
 40
35.000000000026517
 50
189.9407189319605
 51
194.05928106803941
  0
LINE
  5
7318
  8
0
 10
286.41859641976021
 20
64.681228188631763
 30
0.0
 11
285.52545881787398
 21
63.95797961917836
 31
0.0
  0
ARC
  5
7319
  8
0
 10
320.00000000000352
 20
69.999999999997982
 30
0.0
 40
35.000000000008832
 50
165.9407189319605
 51
170.059281068041
  0
LINE
  5
731A
  8
0
 10
285.52545881787398
 20
76.042020380820915
 30
0.0
 11
286.41859641976021
 21
75.318771811367526
 31
0.0
  0
LINE
  5
731B
  8
0
 10
285.34567598441959
 20
65.093083756213559
 30
0.0
 11
286.41859641976021
 21
64.68122818863182
 31
0.0
  0
LINE
  5
731C
  8
0
 10
286.41859641976021
 20
75.318771811367469
 30
0.0
 11
285.34567598441959
 21
74.90691624378573
 31
0.0
  0
ARC
  5
731D
  8
0
 10
320.00000000000102
 20
70.000000000000028
 30
0.0
 40
35.000000000006111
 50
183.94071893195991
 51
188.05928106803941
  0
LINE
  5
731E
  8
0
 10
286.04659581833931
 20
68.220577487739519
 30
0.0
 11
285.0827508561614
 21
67.594649250636024
 31
0.0
  0
ARC
  5
731F
  8
0
 10
320.0000000000154
 20
69.999999999997357
 30
0.0
 40
35.000000000020648
 50
171.94071893196039
 51
176.05928106803839
  0
LINE
  5
7320
  8
0
 10
285.0827508561614
 20
72.405350749363265
 30
0.0
 11
286.04659581833931
 21
71.779422512259742
 31
0.0
  0
LINE
  5
7321
  8
0
 10
285.02260358297269
 20
68.742327591743532
 30
0.0
 11
286.04659581833931
 21
68.220577487739575
 31
0.0
  0
LINE
  5
7322
  8
0
 10
286.04659581833931
 20
71.779422512259686
 30
0.0
 11
285.02260358297269
 21
71.257672408255729
 31
0.0
  0
ARC
  5
7323
  8
0
 10
320.00000000000222
 20
69.999999999999943
 30
0.0
 40
35.00000000000734
 50
177.9407189319609
 51
182.05928106804069
  0
CIRCLE
  5
7325
  8
0
 10
319.99999999999892
 20
70.000000000000085
 30
0.0
 40
34.000000000004093
  0
LINE
  5
736E
  8
1
 10
144.5
 20
70.000000000000142
 30
0.0
 11
246.5
 21
70.000000000000185
 31
0.0
  0
LINE
  5
736F
  8
0
 10
199.7999999999999
 20
78.000000000000156
 30
0.0
 11
199.5
 21
78.000000000000156
 31
0.0
  0
LINE
  5
7370
  8
0
 10
199.5
 20
62.000000000000163
 30
0.0
 11
199.7999999999999
 21
62.000000000000163
 31
0.0
  0
LINE
  5
7371
  8
0
 10
200.80000000000001
 20
82.000000000000156
 30
0.0
 11
199.7999999999999
 21
81.000000000000156
 31
0.0
  0
LINE
  5
7372
  8
0
 10
199.7999999999999
 20
59.000000000000163
 30
0.0
 11
200.80000000000001
 21
58.000000000000149
 31
0.0
  0
LINE
  5
7373
  8
0
 10
220.0
 20
82.000000000000156
 30
0.0
 11
200.80000000000001
 21
82.000000000000156
 31
0.0
  0
LINE
  5
7374
  8
0
 10
200.80000000000001
 20
58.000000000000149
 30
0.0
 11
220.0
 21
58.000000000000149
 31
0.0
  0
ARC
  5
7375
  8
0
 10
220.5
 20
37.500000000000163
 30
0.0
 40
0.4999999999999929
 50
180.0
 51
270.0
  0
ARC
  5
7376
  8
0
 10
220.5
 20
102.5000000000001
 30
0.0
 40
0.4999999999999929
 50
90.0
 51
180.0
  0
LINE
  5
7377
  8
0
 10
221.68000000000001
 20
103.0000000000001
 30
0.0
 11
220.5
 21
103.0000000000001
 31
0.0
  0
LINE
  5
7378
  8
0
 10
220.5
 20
37.000000000000163
 30
0.0
 11
221.68000000000001
 21
37.000000000000163
 31
0.0
  0
LINE
  5
7379
  8
0
 10
241.0
 20
103.0000000000001
 30
0.0
 11
239.81999999999991
 21
103.0000000000001
 31
0.0
  0
LINE
  5
737A
  8
0
 10
239.81999999999991
 20
37.000000000000163
 30
0.0
 11
241.0
 21
37.000000000000163
 31
0.0
  0
ARC
  5
737B
  8
0
 10
241.0
 20
37.500000000000163
 30
0.0
 40
0.4999999999999929
 50
270.0
 51
0.0
  0
ARC
  5
737C
  8
0
 10
241.0
 20
102.5000000000001
 30
0.0
 40
0.4999999999999929
 50
0.0
 51
90.0
  0
LINE
  5
737D
  8
0
 10
221.68000000000001
 20
36.000000000000163
 30
0.0
 11
222.1463076581542
 21
35.000000000001918
 31
0.0
  0
LINE
  5
737E
  8
0
 10
222.1463076581548
 20
104.9999999999997
 30
0.0
 11
221.68000000000001
 21
104.0000000000001
 31
0.0
  0
LINE
  5
737F
  8
0
 10
239.81999999999991
 20
104.0000000000001
 30
0.0
 11
239.3536923418452
 21
104.9999999999997
 31
0.0
  0
LINE
  5
7380
  8
0
 10
239.3536923418458
 20
35.000000000001918
 30
0.0
 11
239.81999999999991
 21
36.000000000000163
 31
0.0
  0
LINE
  5
7381
  8
0
 10
230.17264973081191
 20
105.0000000000002
 30
0.0
 11
226.79235026918809
 21
105.0000000000002
 31
0.0
  0
LINE
  5
7382
  8
0
 10
226.792350269184
 20
35.000000000000163
 30
0.0
 11
230.1726497308162
 21
35.000000000000163
 31
0.0
  0
LINE
  5
7383
  8
0
 10
222.14630765815039
 20
35.000000000000163
 30
0.0
 11
225.63764973081609
 21
35.000000000000163
 31
0.0
  0
LINE
  5
7384
  8
0
 10
231.3273502691838
 20
35.000000000000163
 30
0.0
 11
234.707649730816
 21
35.000000000000163
 31
0.0
  0
LINE
  5
7385
  8
0
 10
235.86235026918391
 20
35.000000000000163
 30
0.0
 11
239.35369234184961
 21
35.000000000000163
 31
0.0
  0
LINE
  5
7386
  8
0
 10
225.637649730812
 20
105.0000000000002
 30
0.0
 11
222.1463076581538
 21
105.0000000000002
 31
0.0
  0
LINE
  5
7387
  8
0
 10
234.70764973081191
 20
105.0000000000002
 30
0.0
 11
231.32735026918809
 21
105.0000000000002
 31
0.0
  0
LINE
  5
7388
  8
0
 10
239.3536923418462
 20
105.0000000000002
 30
0.0
 11
235.862350269188
 21
105.0000000000002
 31
0.0
  0
LINE
  5
7389
  8
0
 10
235.285
 20
36.000000000000163
 30
0.0
 11
235.8623502691882
 21
35.000000000002629
 31
0.0
  0
LINE
  5
738A
  8
0
 10
235.86235026918931
 20
104.9999999999995
 30
0.0
 11
235.285
 21
104.0000000000001
 31
0.0
  0
LINE
  5
738B
  8
0
 10
235.285
 20
104.0000000000001
 30
0.0
 11
234.7076497308108
 21
104.9999999999995
 31
0.0
  0
LINE
  5
738C
  8
0
 10
234.7076497308118
 20
35.000000000002629
 30
0.0
 11
235.285
 21
36.000000000000163
 31
0.0
  0
LINE
  5
738D
  8
0
 10
230.75
 20
36.000000000000163
 30
0.0
 11
231.3273502691882
 21
35.000000000002629
 31
0.0
  0
LINE
  5
738E
  8
0
 10
231.32735026918931
 20
104.9999999999995
 30
0.0
 11
230.75
 21
104.0000000000001
 31
0.0
  0
LINE
  5
738F
  8
0
 10
230.75
 20
104.0000000000001
 30
0.0
 11
230.17264973081069
 21
104.9999999999995
 31
0.0
  0
LINE
  5
7390
  8
0
 10
230.1726497308118
 20
35.000000000002629
 30
0.0
 11
230.75
 21
36.000000000000163
 31
0.0
  0
LINE
  5
7391
  8
0
 10
226.21499999999989
 20
36.000000000000163
 30
0.0
 11
226.7923502691882
 21
35.000000000002629
 31
0.0
  0
LINE
  5
7392
  8
0
 10
226.7923502691892
 20
104.9999999999995
 30
0.0
 11
226.21499999999989
 21
104.0000000000001
 31
0.0
  0
LINE
  5
7393
  8
0
 10
226.21499999999989
 20
104.0000000000001
 30
0.0
 11
225.63764973081069
 21
104.9999999999995
 31
0.0
  0
LINE
  5
7394
  8
0
 10
225.63764973081169
 20
35.000000000002629
 30
0.0
 11
226.21499999999989
 21
36.000000000000163
 31
0.0
  0
LINE
  5
7395
  8
0
 10
199.5
 20
62.000000000000163
 30
0.0
 11
199.5
 21
78.000000000000156
 31
0.0
  0
LINE
  5
7396
  8
0
 10
199.7999999999999
 20
59.000000000000163
 30
0.0
 11
199.7999999999999
 21
81.000000000000156
 31
0.0
  0
LINE
  5
7397
  8
0
 10
200.80000000000001
 20
58.000000000000149
 30
0.0
 11
200.80000000000001
 21
82.000000000000156
 31
0.0
  0
LINE
  5
7398
  8
0
 10
220.0
 20
37.500000000000163
 30
0.0
 11
220.0
 21
102.5000000000001
 31
0.0
  0
LINE
  5
7399
  8
0
 10
220.5
 20
37.000000000000163
 30
0.0
 11
220.5
 21
103.0000000000001
 31
0.0
  0
LINE
  5
739A
  8
0
 10
241.0
 20
37.000000000000163
 30
0.0
 11
241.0
 21
103.0000000000001
 31
0.0
  0
LINE
  5
739B
  8
0
 10
241.5
 20
37.500000000000163
 30
0.0
 11
241.5
 21
102.5000000000001
 31
0.0
  0
LINE
  5
739C
  8
0
 10
221.68000000000001
 20
36.000000000000163
 30
0.0
 11
221.68000000000001
 21
104.0000000000001
 31
0.0
  0
LINE
  5
739D
  8
0
 10
239.81999999999991
 20
36.000000000000163
 30
0.0
 11
239.81999999999991
 21
104.0000000000001
 31
0.0
  0
LINE
  5
739E
  8
0
 10
222.14630765815491
 20
35.02260358297805
 30
0.0
 11
221.68000000000001
 21
36.046595818344642
 31
0.0
  0
LINE
  5
739F
  8
0
 10
222.146307658155
 20
35.345675984425
 30
0.0
 11
221.68000000000001
 21
36.41859641976545
 31
0.0
  0
LINE
  5
73A0
  8
0
 10
222.146307658155
 20
36.048428411670152
 30
0.0
 11
221.68000000000001
 21
37.158521906171828
 31
0.0
  0
LINE
  5
73A1
  8
0
 10
222.146307658155
 20
37.123161362060117
 30
0.0
 11
221.68000000000001
 21
38.258265499095288
 31
0.0
  0
LINE
  5
73A2
  8
0
 10
222.146307658155
 20
38.558099836488182
 30
0.0
 11
221.68000000000001
 21
39.705778177595633
 31
0.0
  0
LINE
  5
73A3
  8
0
 10
222.146307658155
 20
40.337522348748259
 30
0.0
 11
221.68000000000001
 21
41.485200689855709
 31
0.0
  0
LINE
  5
73A4
  8
0
 10
222.14630765815491
 20
42.441933173427948
 30
0.0
 11
221.68000000000001
 21
43.577037310463133
 31
0.0
  0
LINE
  5
73A5
  8
0
 10
222.146307658155
 20
44.848275945155827
 30
0.0
 11
221.68000000000001
 21
45.958369439657517
 31
0.0
  0
LINE
  5
73A6
  8
0
 10
222.146307658155
 20
47.53018626896521
 30
0.0
 11
221.68000000000001
 21
48.603106704305631
 31
0.0
  0
LINE
  5
73A7
  8
0
 10
222.14630765815491
 20
50.458280574122639
 30
0.0
 11
221.68000000000001
 21
51.482272809489203
 31
0.0
  0
LINE
  5
73A8
  8
0
 10
222.146307658155
 20
53.600478046677623
 30
0.0
 11
221.68000000000001
 21
54.564323008855538
 31
0.0
  0
LINE
  5
73A9
  8
0
 10
222.146307658155
 20
56.922352113573858
 30
0.0
 11
221.68000000000001
 21
57.815489715459918
 31
0.0
  0
LINE
  5
73AA
  8
0
 10
222.14630765815491
 20
60.387507627387542
 30
0.0
 11
221.68000000000001
 21
61.200152466514439
 31
0.0
  0
LINE
  5
73AB
  8
0
 10
222.146307658155
 20
63.957979619178893
 30
0.0
 11
221.68000000000001
 21
64.681228188632275
 31
0.0
  0
LINE
  5
73AC
  8
0
 10
222.14630765815491
 20
67.59464925063655
 30
0.0
 11
221.68000000000001
 21
68.220577487740044
 31
0.0
  0
LINE
  5
73AD
  8
0
 10
226.79235026918971
 20
72.405350749363791
 30
0.0
 11
230.17264973081029
 21
72.405350749363791
 31
0.0
  0
LINE
  5
73AE
  8
0
 10
226.79235026918971
 20
74.906916243786256
 30
0.0
 11
230.17264973081029
 21
74.906916243786256
 31
0.0
  0
LINE
  5
73AF
  8
0
 10
226.79235026918971
 20
76.042020380821455
 30
0.0
 11
230.17264973081049
 21
76.042020380821455
 31
0.0
  0
LINE
  5
73B0
  8
0
 10
226.79235026918971
 20
78.502398878111094
 30
0.0
 11
230.17264973081029
 21
78.502398878111094
 31
0.0
  0
LINE
  5
73B1
  8
0
 10
226.7923502691896
 20
79.612492372612806
 30
0.0
 11
230.17264973081049
 21
79.612492372612806
 31
0.0
  0
LINE
  5
73B2
  8
0
 10
226.79235026918971
 20
82.004727451085955
 30
0.0
 11
230.17264973081029
 21
82.004727451085955
 31
0.0
  0
LINE
  5
73B3
  8
0
 10
226.79235026918971
 20
83.077647886426476
 30
0.0
 11
230.17264973081029
 21
83.077647886426476
 31
0.0
  0
LINE
  5
73B4
  8
0
 10
226.79235026918971
 20
85.37552971795607
 30
0.0
 11
230.17264973081029
 21
85.37552971795607
 31
0.0
  0
LINE
  5
73B5
  8
0
 10
226.79235026918971
 20
86.399521953322676
 30
0.0
 11
230.17264973081049
 21
86.399521953322676
 31
0.0
  0
LINE
  5
73B6
  8
0
 10
226.79235026918971
 20
88.577874463699743
 30
0.0
 11
230.17264973081049
 21
88.577874463699743
 31
0.0
  0
LINE
  5
73B7
  8
0
 10
226.79235026918971
 20
89.541719425877702
 30
0.0
 11
230.17264973081029
 21
89.541719425877702
 31
0.0
  0
LINE
  5
73B8
  8
0
 10
226.79235026918971
 20
91.576676129149021
 30
0.0
 11
230.17264973081049
 21
91.576676129149021
 31
0.0
  0
LINE
  5
73B9
  8
0
 10
226.79235026918971
 20
92.469813731035103
 30
0.0
 11
230.17264973081049
 21
92.469813731035103
 31
0.0
  0
LINE
  5
73BA
  8
0
 10
226.79235026918971
 20
94.339079215717547
 30
0.0
 11
230.17264973081029
 21
94.339079215717547
 31
0.0
  0
LINE
  5
73BB
  8
0
 10
226.79235026918971
 20
95.151724054844465
 30
0.0
 11
230.17264973081029
 21
95.151724054844465
 31
0.0
  0
LINE
  5
73BC
  8
0
 10
226.79235026918971
 20
96.834818257118897
 30
0.0
 11
230.17264973081029
 21
96.834818257118897
 31
0.0
  0
LINE
  5
73BD
  8
0
 10
226.79235026918971
 20
97.558066826572372
 30
0.0
 11
230.17264973081029
 21
97.558066826572372
 31
0.0
  0
LINE
  5
73BE
  8
0
 10
226.79235026918971
 20
99.036549414148567
 30
0.0
 11
230.17264973081029
 21
99.036549414148567
 31
0.0
  0
LINE
  5
73BF
  8
0
 10
226.79235026918971
 20
99.662477651252047
 30
0.0
 11
230.17264973081049
 21
99.662477651252047
 31
0.0
  0
LINE
  5
73C0
  8
0
 10
226.79235026918971
 20
100.9201500595082
 30
0.0
 11
230.17264973081049
 21
100.9201500595082
 31
0.0
  0
LINE
  5
73C1
  8
0
 10
226.79235026918971
 20
101.4419001635121
 30
0.0
 11
230.17264973081049
 21
101.4419001635121
 31
0.0
  0
LINE
  5
73C2
  8
0
 10
226.79235026918971
 20
102.4649830703584
 30
0.0
 11
230.17264973081049
 21
102.4649830703584
 31
0.0
  0
LINE
  5
73C3
  8
0
 10
226.79235026918971
 20
102.8768386379402
 30
0.0
 11
230.17264973081029
 21
102.8768386379402
 31
0.0
  0
LINE
  5
73C4
  8
0
 10
226.79235026918971
 20
103.6541229329554
 30
0.0
 11
230.17264973081029
 21
103.6541229329554
 31
0.0
  0
LINE
  5
73C5
  8
0
 10
226.79235026918971
 20
103.9515715883301
 30
0.0
 11
230.17264973081049
 21
103.9515715883301
 31
0.0
  0
LINE
  5
73C6
  8
0
 10
226.79235026918971
 20
104.4745411821209
 30
0.0
 11
230.17264973081029
 21
104.4745411821209
 31
0.0
  0
LINE
  5
73C7
  8
0
 10
226.79235026918971
 20
104.6543240155753
 30
0.0
 11
230.17264973081029
 21
104.6543240155753
 31
0.0
  0
LINE
  5
73C8
  8
0
 10
226.79235026918971
 20
104.9172491438336
 30
0.0
 11
230.17264973081029
 21
104.9172491438336
 31
0.0
  0
LINE
  5
73C9
  8
0
 10
226.79235026918971
 20
104.97739641702231
 30
0.0
 11
230.17264973081029
 21
104.97739641702231
 31
0.0
  0
LINE
  5
73CA
  8
0
 10
222.14630765815039
 20
35.000000000000163
 30
0.0
 11
222.14630765815039
 21
35.02260358297805
 31
0.0
  0
LINE
  5
73CB
  8
0
 10
222.14630765815491
 20
35.02260358297805
 30
0.0
 11
225.63764973081041
 21
35.02260358297805
 31
0.0
  0
LINE
  5
73CC
  8
0
 10
239.35369234184961
 20
35.02260358297805
 30
0.0
 11
239.35369234184961
 21
35.000000000000163
 31
0.0
  0
LINE
  5
73CD
  8
0
 10
226.79235026918971
 20
35.02260358297805
 30
0.0
 11
230.17264973081049
 21
35.02260358297805
 31
0.0
  0
LINE
  5
73CE
  8
0
 10
231.32735026918951
 20
35.02260358297805
 30
0.0
 11
234.70764973081029
 21
35.02260358297805
 31
0.0
  0
LINE
  5
73CF
  8
0
 10
239.81999999999991
 20
36.046595818344642
 30
0.0
 11
239.353692341845
 21
35.02260358297805
 31
0.0
  0
LINE
  5
73D0
  8
0
 10
235.86235026918959
 20
35.02260358297805
 30
0.0
 11
239.353692341845
 21
35.02260358297805
 31
0.0
  0
LINE
  5
73D1
  8
0
 10
222.1463076581538
 20
104.97739641702231
 30
0.0
 11
222.1463076581538
 21
105.0000000000002
 31
0.0
  0
LINE
  5
73D2
  8
0
 10
239.3536923418462
 20
105.0000000000002
 30
0.0
 11
239.3536923418462
 21
104.97739641702231
 31
0.0
  0
LINE
  5
73D3
  8
0
 10
221.68000000000001
 20
103.9534041816556
 30
0.0
 11
222.146307658155
 21
104.97739641702231
 31
0.0
  0
LINE
  5
73D4
  8
0
 10
222.146307658155
 20
104.97739641702231
 30
0.0
 11
225.63764973081041
 21
104.97739641702231
 31
0.0
  0
LINE
  5
73D5
  8
0
 10
231.32735026918971
 20
104.97739641702231
 30
0.0
 11
234.70764973081029
 21
104.97739641702231
 31
0.0
  0
LINE
  5
73D6
  8
0
 10
235.86235026918959
 20
104.97739641702231
 30
0.0
 11
239.353692341845
 21
104.97739641702231
 31
0.0
  0
LINE
  5
73D7
  8
0
 10
239.353692341845
 20
104.97739641702231
 30
0.0
 11
239.81999999999991
 21
103.9534041816556
 31
0.0
  0
LINE
  5
73D8
  8
0
 10
221.68000000000001
 20
36.046595818344642
 30
0.0
 11
222.14630765815491
 21
35.082750856166761
 31
0.0
  0
LINE
  5
73D9
  8
0
 10
239.353692341845
 20
35.082750856166761
 30
0.0
 11
239.81999999999991
 21
36.046595818344642
 31
0.0
  0
LINE
  5
73DA
  8
0
 10
222.146307658155
 20
104.9172491438336
 30
0.0
 11
221.68000000000001
 21
103.9534041816556
 31
0.0
  0
LINE
  5
73DB
  8
0
 10
239.81999999999991
 20
103.9534041816556
 30
0.0
 11
239.353692341845
 21
104.9172491438336
 31
0.0
  0
LINE
  5
73DC
  8
0
 10
226.79235026918971
 20
35.082750856166761
 30
0.0
 11
230.17264973081049
 21
35.082750856166761
 31
0.0
  0
LINE
  5
73DD
  8
0
 10
222.14630765815491
 20
35.082750856166761
 30
0.0
 11
225.63764973081041
 21
35.082750856166761
 31
0.0
  0
LINE
  5
73DE
  8
0
 10
222.14630765815289
 20
35.082750856166761
 30
0.0
 11
222.14630765815289
 21
35.345675984425
 31
0.0
  0
LINE
  5
73DF
  8
0
 10
222.146307658155
 20
35.345675984425
 30
0.0
 11
225.63764973081041
 21
35.345675984425
 31
0.0
  0
LINE
  5
73E0
  8
0
 10
231.32735026918951
 20
35.082750856166761
 30
0.0
 11
234.70764973081029
 21
35.082750856166761
 31
0.0
  0
LINE
  5
73E1
  8
0
 10
239.35369234184719
 20
35.345675984425
 30
0.0
 11
239.35369234184719
 21
35.082750856166761
 31
0.0
  0
LINE
  5
73E2
  8
0
 10
235.86235026918959
 20
35.082750856166761
 30
0.0
 11
239.353692341845
 21
35.082750856166761
 31
0.0
  0
LINE
  5
73E3
  8
0
 10
226.79235026918971
 20
35.345675984425
 30
0.0
 11
230.17264973081029
 21
35.345675984425
 31
0.0
  0
LINE
  5
73E4
  8
0
 10
231.32735026918971
 20
35.345675984425
 30
0.0
 11
234.70764973081029
 21
35.345675984425
 31
0.0
  0
LINE
  5
73E5
  8
0
 10
239.81999999999991
 20
36.41859641976545
 30
0.0
 11
239.353692341845
 21
35.345675984425
 31
0.0
  0
LINE
  5
73E6
  8
0
 10
235.86235026918959
 20
35.345675984425
 30
0.0
 11
239.353692341845
 21
35.345675984425
 31
0.0
  0
LINE
  5
73E7
  8
0
 10
222.1463076581569
 20
104.6543240155753
 30
0.0
 11
222.1463076581569
 21
104.9172491438336
 31
0.0
  0
LINE
  5
73E8
  8
0
 10
222.146307658155
 20
104.9172491438336
 30
0.0
 11
225.63764973081041
 21
104.9172491438336
 31
0.0
  0
LINE
  5
73E9
  8
0
 10
231.32735026918971
 20
104.9172491438336
 30
0.0
 11
234.70764973081029
 21
104.9172491438336
 31
0.0
  0
LINE
  5
73EA
  8
0
 10
235.86235026918959
 20
104.9172491438336
 30
0.0
 11
239.353692341845
 21
104.9172491438336
 31
0.0
  0
LINE
  5
73EB
  8
0
 10
239.35369234184321
 20
104.9172491438336
 30
0.0
 11
239.35369234184321
 21
104.6543240155753
 31
0.0
  0
LINE
  5
73EC
  8
0
 10
221.68000000000001
 20
103.58140358023481
 30
0.0
 11
222.146307658155
 21
104.6543240155753
 31
0.0
  0
LINE
  5
73ED
  8
0
 10
222.146307658155
 20
104.6543240155753
 30
0.0
 11
225.63764973081041
 21
104.6543240155753
 31
0.0
  0
LINE
  5
73EE
  8
0
 10
231.32735026918971
 20
104.6543240155753
 30
0.0
 11
234.70764973081029
 21
104.6543240155753
 31
0.0
  0
LINE
  5
73EF
  8
0
 10
235.86235026918959
 20
104.6543240155753
 30
0.0
 11
239.353692341845
 21
104.6543240155753
 31
0.0
  0
LINE
  5
73F0
  8
0
 10
239.353692341845
 20
104.6543240155753
 30
0.0
 11
239.81999999999991
 21
103.58140358023481
 31
0.0
  0
LINE
  5
73F1
  8
0
 10
221.68000000000001
 20
36.41859641976545
 30
0.0
 11
222.146307658155
 21
35.525458817879368
 31
0.0
  0
LINE
  5
73F2
  8
0
 10
239.353692341845
 20
35.525458817879368
 30
0.0
 11
239.81999999999991
 21
36.41859641976545
 31
0.0
  0
LINE
  5
73F3
  8
0
 10
222.146307658155
 20
104.4745411821209
 30
0.0
 11
221.68000000000001
 21
103.58140358023481
 31
0.0
  0
LINE
  5
73F4
  8
0
 10
239.81999999999991
 20
103.58140358023481
 30
0.0
 11
239.353692341845
 21
104.4745411821209
 31
0.0
  0
LINE
  5
73F5
  8
0
 10
226.79235026918971
 20
35.525458817879368
 30
0.0
 11
230.17264973081029
 21
35.525458817879368
 31
0.0
  0
LINE
  5
73F6
  8
0
 10
222.146307658155
 20
35.525458817879368
 30
0.0
 11
225.63764973081041
 21
35.525458817879368
 31
0.0
  0
LINE
  5
73F7
  8
0
 10
222.14630765815869
 20
35.525458817879368
 30
0.0
 11
222.14630765815869
 21
36.048428411670152
 31
0.0
  0
LINE
  5
73F8
  8
0
 10
222.146307658155
 20
36.048428411670152
 30
0.0
 11
225.63764973081041
 21
36.048428411670152
 31
0.0
  0
LINE
  5
73F9
  8
0
 10
231.32735026918971
 20
35.525458817879368
 30
0.0
 11
234.70764973081029
 21
35.525458817879368
 31
0.0
  0
LINE
  5
73FA
  8
0
 10
239.35369234184131
 20
36.048428411670152
 30
0.0
 11
239.35369234184131
 21
35.525458817879368
 31
0.0
  0
LINE
  5
73FB
  8
0
 10
235.86235026918959
 20
35.525458817879368
 30
0.0
 11
239.353692341845
 21
35.525458817879368
 31
0.0
  0
LINE
  5
73FC
  8
0
 10
226.79235026918971
 20
36.048428411670152
 30
0.0
 11
230.17264973081029
 21
36.048428411670152
 31
0.0
  0
LINE
  5
73FD
  8
0
 10
231.32735026918971
 20
36.048428411670152
 30
0.0
 11
234.70764973081029
 21
36.048428411670152
 31
0.0
  0
LINE
  5
73FE
  8
0
 10
239.81999999999991
 20
37.158521906171828
 30
0.0
 11
239.353692341845
 21
36.048428411670152
 31
0.0
  0
LINE
  5
73FF
  8
0
 10
235.86235026918959
 20
36.048428411670152
 30
0.0
 11
239.353692341845
 21
36.048428411670152
 31
0.0
  0
LINE
  5
7400
  8
0
 10
222.14630765815389
 20
103.9515715883301
 30
0.0
 11
222.14630765815389
 21
104.4745411821209
 31
0.0
  0
LINE
  5
7401
  8
0
 10
222.146307658155
 20
104.4745411821209
 30
0.0
 11
225.63764973081041
 21
104.4745411821209
 31
0.0
  0
LINE
  5
7402
  8
0
 10
231.32735026918971
 20
104.4745411821209
 30
0.0
 11
234.70764973081029
 21
104.4745411821209
 31
0.0
  0
LINE
  5
7403
  8
0
 10
235.86235026918959
 20
104.4745411821209
 30
0.0
 11
239.353692341845
 21
104.4745411821209
 31
0.0
  0
LINE
  5
7404
  8
0
 10
239.353692341846
 20
104.4745411821209
 30
0.0
 11
239.353692341846
 21
103.9515715883301
 31
0.0
  0
LINE
  5
7405
  8
0
 10
221.68000000000001
 20
102.8414780938285
 30
0.0
 11
222.146307658155
 21
103.9515715883301
 31
0.0
  0
LINE
  5
7406
  8
0
 10
222.14630765815491
 20
103.9515715883301
 30
0.0
 11
225.63764973081041
 21
103.9515715883301
 31
0.0
  0
LINE
  5
7407
  8
0
 10
231.32735026918951
 20
103.9515715883301
 30
0.0
 11
234.70764973081029
 21
103.9515715883301
 31
0.0
  0
LINE
  5
7408
  8
0
 10
235.86235026918959
 20
103.9515715883301
 30
0.0
 11
239.353692341845
 21
103.9515715883301
 31
0.0
  0
LINE
  5
7409
  8
0
 10
239.353692341845
 20
103.9515715883301
 30
0.0
 11
239.81999999999991
 21
102.8414780938285
 31
0.0
  0
LINE
  5
740A
  8
0
 10
221.68000000000001
 20
37.158521906171863
 30
0.0
 11
222.146307658155
 21
36.345877067044917
 31
0.0
  0
LINE
  5
740B
  8
0
 10
239.353692341845
 20
36.345877067044917
 30
0.0
 11
239.81999999999991
 21
37.158521906171828
 31
0.0
  0
LINE
  5
740C
  8
0
 10
222.146307658155
 20
103.6541229329554
 30
0.0
 11
221.68000000000001
 21
102.8414780938285
 31
0.0
  0
LINE
  5
740D
  8
0
 10
239.81999999999991
 20
102.8414780938285
 30
0.0
 11
239.353692341845
 21
103.6541229329554
 31
0.0
  0
LINE
  5
740E
  8
0
 10
226.79235026918971
 20
36.345877067044917
 30
0.0
 11
230.17264973081029
 21
36.345877067044917
 31
0.0
  0
LINE
  5
740F
  8
0
 10
222.146307658155
 20
36.345877067044917
 30
0.0
 11
225.63764973081041
 21
36.345877067044917
 31
0.0
  0
LINE
  5
7410
  8
0
 10
222.1463076581592
 20
36.345877067044917
 30
0.0
 11
222.1463076581592
 21
37.123161362060117
 31
0.0
  0
LINE
  5
7411
  8
0
 10
222.146307658155
 20
37.123161362060117
 30
0.0
 11
225.63764973081041
 21
37.123161362060117
 31
0.0
  0
LINE
  5
7412
  8
0
 10
231.32735026918971
 20
36.345877067044917
 30
0.0
 11
234.70764973081029
 21
36.345877067044917
 31
0.0
  0
LINE
  5
7413
  8
0
 10
239.3536923418408
 20
37.123161362060117
 30
0.0
 11
239.3536923418408
 21
36.345877067044917
 31
0.0
  0
LINE
  5
7414
  8
0
 10
235.86235026918959
 20
36.345877067044917
 30
0.0
 11
239.353692341845
 21
36.345877067044917
 31
0.0
  0
LINE
  5
7415
  8
0
 10
226.79235026918971
 20
37.123161362060117
 30
0.0
 11
230.17264973081029
 21
37.123161362060117
 31
0.0
  0
LINE
  5
7416
  8
0
 10
231.32735026918971
 20
37.123161362060117
 30
0.0
 11
234.70764973081029
 21
37.123161362060117
 31
0.0
  0
LINE
  5
7417
  8
0
 10
239.81999999999991
 20
38.258265499095288
 30
0.0
 11
239.353692341845
 21
37.123161362060117
 31
0.0
  0
LINE
  5
7418
  8
0
 10
235.86235026918959
 20
37.123161362060117
 30
0.0
 11
239.353692341845
 21
37.123161362060117
 31
0.0
  0
LINE
  5
7419
  8
0
 10
222.14630765815409
 20
102.8768386379402
 30
0.0
 11
222.14630765815409
 21
103.6541229329554
 31
0.0
  0
LINE
  5
741A
  8
0
 10
222.146307658155
 20
103.6541229329554
 30
0.0
 11
225.63764973081041
 21
103.6541229329554
 31
0.0
  0
LINE
  5
741B
  8
0
 10
231.32735026918971
 20
103.6541229329554
 30
0.0
 11
234.70764973081029
 21
103.6541229329554
 31
0.0
  0
LINE
  5
741C
  8
0
 10
235.86235026918959
 20
103.6541229329554
 30
0.0
 11
239.353692341845
 21
103.6541229329554
 31
0.0
  0
LINE
  5
741D
  8
0
 10
239.35369234184591
 20
103.6541229329554
 30
0.0
 11
239.35369234184591
 21
102.8768386379402
 31
0.0
  0
LINE
  5
741E
  8
0
 10
221.68000000000001
 20
101.741734500905
 30
0.0
 11
222.146307658155
 21
102.8768386379402
 31
0.0
  0
LINE
  5
741F
  8
0
 10
222.146307658155
 20
102.8768386379402
 30
0.0
 11
225.63764973081041
 21
102.8768386379402
 31
0.0
  0
LINE
  5
7420
  8
0
 10
231.32735026918971
 20
102.8768386379402
 30
0.0
 11
234.70764973081029
 21
102.8768386379402
 31
0.0
  0
LINE
  5
7421
  8
0
 10
235.86235026918959
 20
102.8768386379402
 30
0.0
 11
239.353692341845
 21
102.8768386379402
 31
0.0
  0
LINE
  5
7422
  8
0
 10
239.353692341845
 20
102.8768386379402
 30
0.0
 11
239.81999999999991
 21
101.741734500905
 31
0.0
  0
LINE
  5
7423
  8
0
 10
221.68000000000001
 20
38.258265499095323
 30
0.0
 11
222.146307658155
 21
37.535016929641863
 31
0.0
  0
LINE
  5
7424
  8
0
 10
239.353692341845
 20
37.535016929641863
 30
0.0
 11
239.81999999999991
 21
38.258265499095323
 31
0.0
  0
LINE
  5
7425
  8
0
 10
222.14630765815491
 20
102.4649830703584
 30
0.0
 11
221.68000000000001
 21
101.741734500905
 31
0.0
  0
LINE
  5
7426
  8
0
 10
239.81999999999991
 20
101.741734500905
 30
0.0
 11
239.353692341845
 21
102.4649830703584
 31
0.0
  0
LINE
  5
7427
  8
0
 10
226.79235026918971
 20
37.535016929641863
 30
0.0
 11
230.17264973081029
 21
37.535016929641863
 31
0.0
  0
LINE
  5
7428
  8
0
 10
222.146307658155
 20
37.535016929641863
 30
0.0
 11
225.63764973081041
 21
37.535016929641863
 31
0.0
  0
LINE
  5
7429
  8
0
 10
222.14630765815639
 20
37.535016929641863
 30
0.0
 11
222.14630765815639
 21
38.558099836488182
 31
0.0
  0
LINE
  5
742A
  8
0
 10
222.146307658155
 20
38.558099836488182
 30
0.0
 11
225.63764973081041
 21
38.558099836488182
 31
0.0
  0
LINE
  5
742B
  8
0
 10
231.32735026918971
 20
37.535016929641863
 30
0.0
 11
234.70764973081029
 21
37.535016929641863
 31
0.0
  0
LINE
  5
742C
  8
0
 10
239.35369234184361
 20
38.558099836488182
 30
0.0
 11
239.35369234184361
 21
37.535016929641863
 31
0.0
  0
LINE
  5
742D
  8
0
 10
235.86235026918959
 20
37.535016929641863
 30
0.0
 11
239.353692341845
 21
37.535016929641863
 31
0.0
  0
LINE
  5
742E
  8
0
 10
226.79235026918971
 20
38.558099836488182
 30
0.0
 11
230.17264973081029
 21
38.558099836488182
 31
0.0
  0
LINE
  5
742F
  8
0
 10
231.32735026918971
 20
38.558099836488182
 30
0.0
 11
234.70764973081029
 21
38.558099836488182
 31
0.0
  0
LINE
  5
7430
  8
0
 10
239.81999999999991
 20
39.705778177595633
 30
0.0
 11
239.353692341845
 21
38.558099836488182
 31
0.0
  0
LINE
  5
7431
  8
0
 10
235.86235026918959
 20
38.558099836488182
 30
0.0
 11
239.353692341845
 21
38.558099836488182
 31
0.0
  0
LINE
  5
7432
  8
0
 10
222.14630765815471
 20
101.4419001635121
 30
0.0
 11
222.14630765815471
 21
102.4649830703584
 31
0.0
  0
LINE
  5
7433
  8
0
 10
222.14630765815491
 20
102.4649830703584
 30
0.0
 11
225.63764973081041
 21
102.4649830703584
 31
0.0
  0
LINE
  5
7434
  8
0
 10
231.32735026918951
 20
102.4649830703584
 30
0.0
 11
234.70764973081029
 21
102.4649830703584
 31
0.0
  0
LINE
  5
7435
  8
0
 10
235.86235026918959
 20
102.4649830703584
 30
0.0
 11
239.353692341845
 21
102.4649830703584
 31
0.0
  0
LINE
  5
7436
  8
0
 10
239.35369234184529
 20
102.4649830703584
 30
0.0
 11
239.35369234184529
 21
101.4419001635121
 31
0.0
  0
LINE
  5
7437
  8
0
 10
221.68000000000001
 20
100.29422182240469
 30
0.0
 11
222.14630765815491
 21
101.4419001635121
 31
0.0
  0
LINE
  5
7438
  8
0
 10
222.14630765815491
 20
101.4419001635121
 30
0.0
 11
225.63764973081041
 21
101.4419001635121
 31
0.0
  0
LINE
  5
7439
  8
0
 10
231.32735026918951
 20
101.4419001635121
 30
0.0
 11
234.70764973081029
 21
101.4419001635121
 31
0.0
  0
LINE
  5
743A
  8
0
 10
235.86235026918959
 20
101.4419001635121
 30
0.0
 11
239.353692341845
 21
101.4419001635121
 31
0.0
  0
LINE
  5
743B
  8
0
 10
239.353692341845
 20
101.4419001635121
 30
0.0
 11
239.81999999999991
 21
100.29422182240469
 31
0.0
  0
LINE
  5
743C
  8
0
 10
221.68000000000001
 20
39.70577817759569
 30
0.0
 11
222.14630765815491
 21
39.079849940492217
 31
0.0
  0
LINE
  5
743D
  8
0
 10
239.35369234184509
 20
39.079849940492217
 30
0.0
 11
239.81999999999991
 21
39.70577817759569
 31
0.0
  0
LINE
  5
743E
  8
0
 10
222.146307658155
 20
100.9201500595082
 30
0.0
 11
221.68000000000001
 21
100.29422182240459
 31
0.0
  0
LINE
  5
743F
  8
0
 10
239.81999999999991
 20
100.29422182240469
 30
0.0
 11
239.353692341845
 21
100.9201500595082
 31
0.0
  0
LINE
  5
7440
  8
0
 10
226.7923502691896
 20
39.079849940492217
 30
0.0
 11
230.17264973081049
 21
39.079849940492217
 31
0.0
  0
LINE
  5
7441
  8
0
 10
222.14630765815491
 20
39.079849940492217
 30
0.0
 11
225.63764973081041
 21
39.079849940492217
 31
0.0
  0
LINE
  5
7442
  8
0
 10
222.14630765815531
 20
39.079849940492217
 30
0.0
 11
222.14630765815531
 21
40.337522348748259
 31
0.0
  0
LINE
  5
7443
  8
0
 10
222.146307658155
 20
40.337522348748259
 30
0.0
 11
225.63764973081041
 21
40.337522348748259
 31
0.0
  0
LINE
  5
7444
  8
0
 10
231.32735026918951
 20
39.079849940492217
 30
0.0
 11
234.7076497308104
 21
39.079849940492217
 31
0.0
  0
LINE
  5
7445
  8
0
 10
239.35369234184481
 20
40.337522348748259
 30
0.0
 11
239.35369234184481
 21
39.079849940492217
 31
0.0
  0
LINE
  5
7446
  8
0
 10
235.86235026918959
 20
39.079849940492217
 30
0.0
 11
239.35369234184509
 21
39.079849940492217
 31
0.0
  0
LINE
  5
7447
  8
0
 10
226.79235026918971
 20
40.337522348748259
 30
0.0
 11
230.17264973081029
 21
40.337522348748259
 31
0.0
  0
LINE
  5
7448
  8
0
 10
231.32735026918971
 20
40.337522348748259
 30
0.0
 11
234.70764973081029
 21
40.337522348748259
 31
0.0
  0
LINE
  5
7449
  8
0
 10
239.81999999999991
 20
41.485200689855681
 30
0.0
 11
239.353692341845
 21
40.337522348748259
 31
0.0
  0
LINE
  5
744A
  8
0
 10
235.86235026918959
 20
40.337522348748259
 30
0.0
 11
239.353692341845
 21
40.337522348748259
 31
0.0
  0
LINE
  5
744B
  8
0
 10
222.14630765815451
 20
99.662477651252047
 30
0.0
 11
222.14630765815451
 21
100.9201500595082
 31
0.0
  0
LINE
  5
744C
  8
0
 10
222.146307658155
 20
100.9201500595082
 30
0.0
 11
225.63764973081041
 21
100.9201500595082
 31
0.0
  0
LINE
  5
744D
  8
0
 10
231.32735026918951
 20
100.9201500595082
 30
0.0
 11
234.70764973081029
 21
100.9201500595082
 31
0.0
  0
LINE
  5
744E
  8
0
 10
235.86235026918959
 20
100.9201500595082
 30
0.0
 11
239.353692341845
 21
100.9201500595082
 31
0.0
  0
LINE
  5
744F
  8
0
 10
239.3536923418456
 20
100.9201500595082
 30
0.0
 11
239.3536923418456
 21
99.662477651252047
 31
0.0
  0
LINE
  5
7450
  8
0
 10
221.68000000000001
 20
98.514799310144596
 30
0.0
 11
222.14630765815491
 21
99.662477651252047
 31
0.0
  0
LINE
  5
7451
  8
0
 10
222.14630765815491
 20
99.662477651252047
 30
0.0
 11
225.63764973081041
 21
99.662477651252047
 31
0.0
  0
LINE
  5
7452
  8
0
 10
231.32735026918951
 20
99.662477651252047
 30
0.0
 11
234.70764973081029
 21
99.662477651252047
 31
0.0
  0
LINE
  5
7453
  8
0
 10
235.86235026918959
 20
99.662477651252047
 30
0.0
 11
239.353692341845
 21
99.662477651252047
 31
0.0
  0
LINE
  5
7454
  8
0
 10
239.353692341845
 20
99.662477651252047
 30
0.0
 11
239.81999999999991
 21
98.514799310144568
 31
0.0
  0
LINE
  5
7455
  8
0
 10
221.68000000000001
 20
41.485200689855773
 30
0.0
 11
222.14630765815491
 21
40.963450585851852
 31
0.0
  0
LINE
  5
7456
  8
0
 10
239.35369234184509
 20
40.963450585851852
 30
0.0
 11
239.81999999999991
 21
41.485200689855773
 31
0.0
  0
LINE
  5
7457
  8
0
 10
222.146307658155
 20
99.036549414148567
 30
0.0
 11
221.68000000000001
 21
98.514799310144568
 31
0.0
  0
LINE
  5
7458
  8
0
 10
239.81999999999991
 20
98.514799310144568
 30
0.0
 11
239.353692341845
 21
99.036549414148567
 31
0.0
  0
LINE
  5
7459
  8
0
 10
226.7923502691896
 20
40.963450585851852
 30
0.0
 11
230.17264973081049
 21
40.963450585851852
 31
0.0
  0
LINE
  5
745A
  8
0
 10
222.14630765815491
 20
40.963450585851852
 30
0.0
 11
225.63764973081041
 21
40.963450585851852
 31
0.0
  0
LINE
  5
745B
  8
0
 10
222.14630765815491
 20
40.963450585851852
 30
0.0
 11
222.14630765815491
 21
42.441933173427948
 31
0.0
  0
LINE
  5
745C
  8
0
 10
222.146307658155
 20
42.441933173427948
 30
0.0
 11
225.63764973081041
 21
42.441933173427948
 31
0.0
  0
LINE
  5
745D
  8
0
 10
231.32735026918951
 20
40.963450585851852
 30
0.0
 11
234.7076497308104
 21
40.963450585851852
 31
0.0
  0
LINE
  5
745E
  8
0
 10
239.35369234184509
 20
42.441933173427948
 30
0.0
 11
239.35369234184509
 21
40.963450585851852
 31
0.0
  0
LINE
  5
745F
  8
0
 10
235.86235026918959
 20
40.963450585851852
 30
0.0
 11
239.35369234184509
 21
40.963450585851852
 31
0.0
  0
LINE
  5
7460
  8
0
 10
226.79235026918971
 20
42.441933173427948
 30
0.0
 11
230.17264973081029
 21
42.441933173427948
 31
0.0
  0
LINE
  5
7461
  8
0
 10
231.32735026918971
 20
42.441933173427948
 30
0.0
 11
234.70764973081029
 21
42.441933173427948
 31
0.0
  0
LINE
  5
7462
  8
0
 10
239.81999999999991
 20
43.577037310463133
 30
0.0
 11
239.353692341845
 21
42.441933173427948
 31
0.0
  0
LINE
  5
7463
  8
0
 10
235.86235026918959
 20
42.441933173427948
 30
0.0
 11
239.353692341845
 21
42.441933173427948
 31
0.0
  0
LINE
  5
7464
  8
0
 10
222.146307658159
 20
97.558066826572372
 30
0.0
 11
222.146307658159
 21
99.036549414148567
 31
0.0
  0
LINE
  5
7465
  8
0
 10
222.146307658155
 20
99.036549414148567
 30
0.0
 11
225.63764973081041
 21
99.036549414148567
 31
0.0
  0
LINE
  5
7466
  8
0
 10
231.32735026918971
 20
99.036549414148567
 30
0.0
 11
234.70764973081029
 21
99.036549414148567
 31
0.0
  0
LINE
  5
7467
  8
0
 10
235.86235026918959
 20
99.036549414148567
 30
0.0
 11
239.353692341845
 21
99.036549414148567
 31
0.0
  0
LINE
  5
7468
  8
0
 10
239.353692341841
 20
99.036549414148567
 30
0.0
 11
239.353692341841
 21
97.558066826572372
 31
0.0
  0
LINE
  5
7469
  8
0
 10
221.68000000000001
 20
96.422962689537187
 30
0.0
 11
222.146307658155
 21
97.558066826572372
 31
0.0
  0
LINE
  5
746A
  8
0
 10
222.146307658155
 20
97.558066826572372
 30
0.0
 11
225.63764973081041
 21
97.558066826572372
 31
0.0
  0
LINE
  5
746B
  8
0
 10
231.32735026918971
 20
97.558066826572372
 30
0.0
 11
234.70764973081029
 21
97.558066826572372
 31
0.0
  0
LINE
  5
746C
  8
0
 10
235.86235026918959
 20
97.558066826572372
 30
0.0
 11
239.353692341845
 21
97.558066826572372
 31
0.0
  0
LINE
  5
746D
  8
0
 10
239.353692341845
 20
97.558066826572372
 30
0.0
 11
239.81999999999991
 21
96.422962689537187
 31
0.0
  0
LINE
  5
746E
  8
0
 10
221.68000000000001
 20
43.577037310463183
 30
0.0
 11
222.14630765815491
 21
43.165181742881437
 31
0.0
  0
LINE
  5
746F
  8
0
 10
239.35369234184509
 20
43.165181742881437
 30
0.0
 11
239.81999999999991
 21
43.577037310463183
 31
0.0
  0
LINE
  5
7470
  8
0
 10
222.146307658155
 20
96.834818257118897
 30
0.0
 11
221.68000000000001
 21
96.422962689537158
 31
0.0
  0
LINE
  5
7471
  8
0
 10
239.81999999999991
 20
96.422962689537158
 30
0.0
 11
239.353692341845
 21
96.834818257118897
 31
0.0
  0
LINE
  5
7472
  8
0
 10
226.79235026918971
 20
43.165181742881437
 30
0.0
 11
230.17264973081049
 21
43.165181742881437
 31
0.0
  0
LINE
  5
7473
  8
0
 10
222.14630765815491
 20
43.165181742881437
 30
0.0
 11
225.63764973081041
 21
43.165181742881437
 31
0.0
  0
LINE
  5
7474
  8
0
 10
222.14630765815491
 20
43.165181742881437
 30
0.0
 11
222.14630765815491
 21
44.848275945155827
 31
0.0
  0
LINE
  5
7475
  8
0
 10
222.146307658155
 20
44.848275945155827
 30
0.0
 11
225.63764973081041
 21
44.848275945155827
 31
0.0
  0
LINE
  5
7476
  8
0
 10
231.32735026918951
 20
43.165181742881437
 30
0.0
 11
234.70764973081029
 21
43.165181742881437
 31
0.0
  0
LINE
  5
7477
  8
0
 10
239.3536923418452
 20
44.848275945155827
 30
0.0
 11
239.3536923418452
 21
43.165181742881437
 31
0.0
  0
LINE
  5
7478
  8
0
 10
235.86235026918959
 20
43.165181742881437
 30
0.0
 11
239.353692341845
 21
43.165181742881437
 31
0.0
  0
LINE
  5
7479
  8
0
 10
226.79235026918971
 20
44.848275945155827
 30
0.0
 11
230.17264973081029
 21
44.848275945155827
 31
0.0
  0
LINE
  5
747A
  8
0
 10
231.32735026918971
 20
44.848275945155827
 30
0.0
 11
234.70764973081029
 21
44.848275945155827
 31
0.0
  0
LINE
  5
747B
  8
0
 10
239.81999999999991
 20
45.958369439657517
 30
0.0
 11
239.353692341845
 21
44.848275945155827
 31
0.0
  0
LINE
  5
747C
  8
0
 10
235.86235026918959
 20
44.848275945155827
 30
0.0
 11
239.353692341845
 21
44.848275945155827
 31
0.0
  0
LINE
  5
747D
  8
0
 10
222.1463076581565
 20
95.151724054844465
 30
0.0
 11
222.1463076581565
 21
96.834818257118897
 31
0.0
  0
LINE
  5
747E
  8
0
 10
222.146307658155
 20
96.834818257118897
 30
0.0
 11
225.63764973081041
 21
96.834818257118897
 31
0.0
  0
LINE
  5
747F
  8
0
 10
231.32735026918971
 20
96.834818257118897
 30
0.0
 11
234.70764973081029
 21
96.834818257118897
 31
0.0
  0
LINE
  5
7480
  8
0
 10
235.86235026918959
 20
96.834818257118897
 30
0.0
 11
239.353692341845
 21
96.834818257118897
 31
0.0
  0
LINE
  5
7481
  8
0
 10
239.3536923418435
 20
96.834818257118897
 30
0.0
 11
239.3536923418435
 21
95.151724054844465
 31
0.0
  0
LINE
  5
7482
  8
0
 10
221.68000000000001
 20
94.041630560342753
 30
0.0
 11
222.146307658155
 21
95.151724054844465
 31
0.0
  0
LINE
  5
7483
  8
0
 10
222.146307658155
 20
95.151724054844465
 30
0.0
 11
225.63764973081041
 21
95.151724054844465
 31
0.0
  0
LINE
  5
7484
  8
0
 10
231.32735026918971
 20
95.151724054844465
 30
0.0
 11
234.70764973081029
 21
95.151724054844465
 31
0.0
  0
LINE
  5
7485
  8
0
 10
235.86235026918959
 20
95.151724054844465
 30
0.0
 11
239.353692341845
 21
95.151724054844465
 31
0.0
  0
LINE
  5
7486
  8
0
 10
239.353692341845
 20
95.151724054844465
 30
0.0
 11
239.81999999999991
 21
94.041630560342753
 31
0.0
  0
LINE
  5
7487
  8
0
 10
221.68000000000001
 20
45.958369439657567
 30
0.0
 11
222.146307658155
 21
45.660920784282787
 31
0.0
  0
LINE
  5
7488
  8
0
 10
239.353692341845
 20
45.660920784282787
 30
0.0
 11
239.81999999999991
 21
45.958369439657567
 31
0.0
  0
LINE
  5
7489
  8
0
 10
222.146307658155
 20
94.339079215717547
 30
0.0
 11
221.68000000000001
 21
94.041630560342753
 31
0.0
  0
LINE
  5
748A
  8
0
 10
239.81999999999991
 20
94.041630560342753
 30
0.0
 11
239.353692341845
 21
94.339079215717547
 31
0.0
  0
LINE
  5
748B
  8
0
 10
226.79235026918971
 20
45.660920784282787
 30
0.0
 11
230.17264973081029
 21
45.660920784282787
 31
0.0
  0
LINE
  5
748C
  8
0
 10
222.146307658155
 20
45.660920784282787
 30
0.0
 11
225.63764973081041
 21
45.660920784282787
 31
0.0
  0
LINE
  5
748D
  8
0
 10
222.14630765815559
 20
45.660920784282787
 30
0.0
 11
222.14630765815559
 21
47.53018626896521
 31
0.0
  0
LINE
  5
748E
  8
0
 10
222.146307658155
 20
47.53018626896521
 30
0.0
 11
225.63764973081041
 21
47.53018626896521
 31
0.0
  0
LINE
  5
748F
  8
0
 10
231.32735026918971
 20
45.660920784282787
 30
0.0
 11
234.70764973081029
 21
45.660920784282787
 31
0.0
  0
LINE
  5
7490
  8
0
 10
239.35369234184441
 20
47.53018626896521
 30
0.0
 11
239.35369234184441
 21
45.660920784282787
 31
0.0
  0
LINE
  5
7491
  8
0
 10
235.86235026918959
 20
45.660920784282787
 30
0.0
 11
239.353692341845
 21
45.660920784282787
 31
0.0
  0
LINE
  5
7492
  8
0
 10
226.79235026918971
 20
47.53018626896521
 30
0.0
 11
230.17264973081029
 21
47.53018626896521
 31
0.0
  0
LINE
  5
7493
  8
0
 10
231.32735026918971
 20
47.53018626896521
 30
0.0
 11
234.70764973081029
 21
47.53018626896521
 31
0.0
  0
LINE
  5
7494
  8
0
 10
239.81999999999991
 20
48.603106704305659
 30
0.0
 11
239.353692341845
 21
47.53018626896521
 31
0.0
  0
LINE
  5
7495
  8
0
 10
235.86235026918959
 20
47.53018626896521
 30
0.0
 11
239.353692341845
 21
47.53018626896521
 31
0.0
  0
LINE
  5
7496
  8
0
 10
222.14630765815559
 20
92.469813731035103
 30
0.0
 11
222.14630765815559
 21
94.339079215717547
 31
0.0
  0
LINE
  5
7497
  8
0
 10
222.146307658155
 20
94.339079215717547
 30
0.0
 11
225.63764973081041
 21
94.339079215717547
 31
0.0
  0
LINE
  5
7498
  8
0
 10
231.32735026918971
 20
94.339079215717547
 30
0.0
 11
234.70764973081029
 21
94.339079215717547
 31
0.0
  0
LINE
  5
7499
  8
0
 10
235.86235026918959
 20
94.339079215717547
 30
0.0
 11
239.353692341845
 21
94.339079215717547
 31
0.0
  0
LINE
  5
749A
  8
0
 10
239.35369234184441
 20
94.339079215717547
 30
0.0
 11
239.35369234184441
 21
92.469813731035103
 31
0.0
  0
LINE
  5
749B
  8
0
 10
221.68000000000001
 20
91.396893295694653
 30
0.0
 11
222.14630765815491
 21
92.469813731035103
 31
0.0
  0
LINE
  5
749C
  8
0
 10
222.14630765815491
 20
92.469813731035103
 30
0.0
 11
225.63764973081041
 21
92.469813731035103
 31
0.0
  0
LINE
  5
749D
  8
0
 10
231.32735026918951
 20
92.469813731035103
 30
0.0
 11
234.70764973081029
 21
92.469813731035103
 31
0.0
  0
LINE
  5
749E
  8
0
 10
235.86235026918959
 20
92.469813731035103
 30
0.0
 11
239.353692341845
 21
92.469813731035103
 31
0.0
  0
LINE
  5
749F
  8
0
 10
239.353692341845
 20
92.469813731035103
 30
0.0
 11
239.81999999999991
 21
91.396893295694653
 31
0.0
  0
LINE
  5
74A0
  8
0
 10
221.68000000000001
 20
48.603106704305709
 30
0.0
 11
222.14630765815491
 21
48.423323870851348
 31
0.0
  0
LINE
  5
74A1
  8
0
 10
239.35369234184509
 20
48.423323870851348
 30
0.0
 11
239.81999999999991
 21
48.603106704305709
 31
0.0
  0
LINE
  5
74A2
  8
0
 10
222.14630765815491
 20
91.576676129149021
 30
0.0
 11
221.68000000000001
 21
91.396893295694625
 31
0.0
  0
LINE
  5
74A3
  8
0
 10
239.81999999999991
 20
91.396893295694625
 30
0.0
 11
239.353692341845
 21
91.576676129149021
 31
0.0
  0
LINE
  5
74A4
  8
0
 10
226.79235026918971
 20
48.423323870851348
 30
0.0
 11
230.17264973081049
 21
48.423323870851348
 31
0.0
  0
LINE
  5
74A5
  8
0
 10
222.14630765815491
 20
48.423323870851348
 30
0.0
 11
225.63764973081041
 21
48.423323870851348
 31
0.0
  0
LINE
  5
74A6
  8
0
 10
222.14630765815491
 20
48.423323870851348
 30
0.0
 11
222.14630765815491
 21
50.458280574122639
 31
0.0
  0
LINE
  5
74A7
  8
0
 10
222.146307658155
 20
50.458280574122639
 30
0.0
 11
225.63764973081041
 21
50.458280574122639
 31
0.0
  0
LINE
  5
74A8
  8
0
 10
231.32735026918951
 20
48.423323870851348
 30
0.0
 11
234.70764973081029
 21
48.423323870851348
 31
0.0
  0
LINE
  5
74A9
  8
0
 10
239.35369234184509
 20
50.458280574122639
 30
0.0
 11
239.35369234184509
 21
48.423323870851348
 31
0.0
  0
LINE
  5
74AA
  8
0
 10
235.86235026918959
 20
48.423323870851348
 30
0.0
 11
239.35369234184509
 21
48.423323870851348
 31
0.0
  0
LINE
  5
74AB
  8
0
 10
226.79235026918971
 20
50.458280574122639
 30
0.0
 11
230.17264973081029
 21
50.458280574122639
 31
0.0
  0
LINE
  5
74AC
  8
0
 10
231.32735026918971
 20
50.458280574122639
 30
0.0
 11
234.70764973081029
 21
50.458280574122639
 31
0.0
  0
LINE
  5
74AD
  8
0
 10
239.81999999999991
 20
51.482272809489203
 30
0.0
 11
239.353692341845
 21
50.458280574122639
 31
0.0
  0
LINE
  5
74AE
  8
0
 10
235.86235026918959
 20
50.458280574122639
 30
0.0
 11
239.353692341845
 21
50.458280574122639
 31
0.0
  0
LINE
  5
74AF
  8
0
 10
222.1463076581515
 20
89.541719425877702
 30
0.0
 11
222.1463076581515
 21
91.576676129149021
 31
0.0
  0
LINE
  5
74B0
  8
0
 10
222.14630765815491
 20
91.576676129149021
 30
0.0
 11
225.63764973081041
 21
91.576676129149021
 31
0.0
  0
LINE
  5
74B1
  8
0
 10
231.32735026918951
 20
91.576676129149021
 30
0.0
 11
234.70764973081029
 21
91.576676129149021
 31
0.0
  0
LINE
  5
74B2
  8
0
 10
235.86235026918959
 20
91.576676129149021
 30
0.0
 11
239.353692341845
 21
91.576676129149021
 31
0.0
  0
LINE
  5
74B3
  8
0
 10
239.3536923418485
 20
91.576676129149021
 30
0.0
 11
239.3536923418485
 21
89.541719425877702
 31
0.0
  0
LINE
  5
74B4
  8
0
 10
221.68000000000001
 20
88.517727190511081
 30
0.0
 11
222.146307658155
 21
89.541719425877702
 31
0.0
  0
LINE
  5
74B5
  8
0
 10
222.146307658155
 20
89.541719425877702
 30
0.0
 11
225.63764973081041
 21
89.541719425877702
 31
0.0
  0
LINE
  5
74B6
  8
0
 10
231.32735026918971
 20
89.541719425877702
 30
0.0
 11
234.70764973081029
 21
89.541719425877702
 31
0.0
  0
LINE
  5
74B7
  8
0
 10
235.86235026918959
 20
89.541719425877702
 30
0.0
 11
239.353692341845
 21
89.541719425877702
 31
0.0
  0
LINE
  5
74B8
  8
0
 10
239.353692341845
 20
89.541719425877702
 30
0.0
 11
239.81999999999991
 21
88.517727190511081
 31
0.0
  0
LINE
  5
74B9
  8
0
 10
221.68000000000001
 20
51.482272809489288
 30
0.0
 11
222.14630765815491
 21
51.422125536300577
 31
0.0
  0
LINE
  5
74BA
  8
0
 10
239.353692341845
 20
51.422125536300577
 30
0.0
 11
239.81999999999991
 21
51.482272809489288
 31
0.0
  0
LINE
  5
74BB
  8
0
 10
222.146307658155
 20
88.577874463699743
 30
0.0
 11
221.68000000000001
 21
88.517727190511053
 31
0.0
  0
LINE
  5
74BC
  8
0
 10
239.81999999999991
 20
88.517727190511053
 30
0.0
 11
239.353692341845
 21
88.577874463699743
 31
0.0
  0
LINE
  5
74BD
  8
0
 10
226.79235026918971
 20
51.422125536300577
 30
0.0
 11
230.17264973081049
 21
51.422125536300577
 31
0.0
  0
LINE
  5
74BE
  8
0
 10
222.14630765815491
 20
51.422125536300577
 30
0.0
 11
225.63764973081041
 21
51.422125536300577
 31
0.0
  0
LINE
  5
74BF
  8
0
 10
222.14630765815591
 20
51.422125536300577
 30
0.0
 11
222.14630765815591
 21
53.600478046677623
 31
0.0
  0
LINE
  5
74C0
  8
0
 10
222.146307658155
 20
53.600478046677623
 30
0.0
 11
225.63764973081041
 21
53.600478046677623
 31
0.0
  0
LINE
  5
74C1
  8
0
 10
231.32735026918951
 20
51.422125536300577
 30
0.0
 11
234.70764973081029
 21
51.422125536300577
 31
0.0
  0
LINE
  5
74C2
  8
0
 10
239.35369234184409
 20
53.600478046677623
 30
0.0
 11
239.35369234184409
 21
51.422125536300577
 31
0.0
  0
LINE
  5
74C3
  8
0
 10
235.86235026918959
 20
51.422125536300577
 30
0.0
 11
239.353692341845
 21
51.422125536300577
 31
0.0
  0
LINE
  5
74C4
  8
0
 10
226.79235026918971
 20
53.600478046677623
 30
0.0
 11
230.17264973081029
 21
53.600478046677623
 31
0.0
  0
LINE
  5
74C5
  8
0
 10
231.32735026918971
 20
53.600478046677623
 30
0.0
 11
234.70764973081029
 21
53.600478046677623
 31
0.0
  0
LINE
  5
74C6
  8
0
 10
239.81999999999991
 20
54.564323008855538
 30
0.0
 11
239.353692341845
 21
53.600478046677623
 31
0.0
  0
LINE
  5
74C7
  8
0
 10
235.86235026918959
 20
53.600478046677623
 30
0.0
 11
239.353692341845
 21
53.600478046677623
 31
0.0
  0
LINE
  5
74C8
  8
0
 10
222.14630765815349
 20
86.399521953322676
 30
0.0
 11
222.14630765815349
 21
88.577874463699743
 31
0.0
  0
LINE
  5
74C9
  8
0
 10
222.14630765815491
 20
88.577874463699743
 30
0.0
 11
225.63764973081041
 21
88.577874463699743
 31
0.0
  0
LINE
  5
74CA
  8
0
 10
231.32735026918951
 20
88.577874463699743
 30
0.0
 11
234.70764973081029
 21
88.577874463699743
 31
0.0
  0
LINE
  5
74CB
  8
0
 10
235.86235026918959
 20
88.577874463699743
 30
0.0
 11
239.353692341845
 21
88.577874463699743
 31
0.0
  0
LINE
  5
74CC
  8
0
 10
239.3536923418464
 20
88.577874463699743
 30
0.0
 11
239.3536923418464
 21
86.399521953322676
 31
0.0
  0
LINE
  5
74CD
  8
0
 10
221.68000000000001
 20
85.435676991144746
 30
0.0
 11
222.14630765815491
 21
86.399521953322676
 31
0.0
  0
LINE
  5
74CE
  8
0
 10
222.14630765815491
 20
86.399521953322676
 30
0.0
 11
225.63764973081041
 21
86.399521953322676
 31
0.0
  0
LINE
  5
74CF
  8
0
 10
231.32735026918951
 20
86.399521953322676
 30
0.0
 11
234.70764973081029
 21
86.399521953322676
 31
0.0
  0
LINE
  5
74D0
  8
0
 10
235.86235026918959
 20
86.399521953322676
 30
0.0
 11
239.353692341845
 21
86.399521953322676
 31
0.0
  0
LINE
  5
74D1
  8
0
 10
239.353692341845
 20
86.399521953322676
 30
0.0
 11
239.81999999999991
 21
85.435676991144774
 31
0.0
  0
LINE
  5
74D2
  8
0
 10
221.68000000000001
 20
54.564323008855588
 30
0.0
 11
222.146307658155
 21
54.624470282044271
 31
0.0
  0
LINE
  5
74D3
  8
0
 10
239.353692341845
 20
54.624470282044271
 30
0.0
 11
239.81999999999991
 21
54.564323008855588
 31
0.0
  0
LINE
  5
74D4
  8
0
 10
221.68000000000001
 20
54.564323008855588
 30
0.0
 11
239.81999999999991
 21
54.564323008855588
 31
0.0
  0
LINE
  5
74D5
  8
0
 10
222.146307658155
 20
85.37552971795607
 30
0.0
 11
221.68000000000001
 21
85.435676991144746
 31
0.0
  0
LINE
  5
74D6
  8
0
 10
221.68000000000001
 20
85.435676991144746
 30
0.0
 11
239.81999999999991
 21
85.435676991144746
 31
0.0
  0
LINE
  5
74D7
  8
0
 10
239.81999999999991
 20
85.435676991144746
 30
0.0
 11
239.353692341845
 21
85.37552971795607
 31
0.0
  0
LINE
  5
74D8
  8
0
 10
226.79235026918971
 20
54.624470282044271
 30
0.0
 11
230.17264973081029
 21
54.624470282044271
 31
0.0
  0
LINE
  5
74D9
  8
0
 10
222.146307658155
 20
54.624470282044271
 30
0.0
 11
225.63764973081041
 21
54.624470282044271
 31
0.0
  0
LINE
  5
74DA
  8
0
 10
222.1463076581563
 20
54.624470282044271
 30
0.0
 11
222.1463076581563
 21
56.922352113573858
 31
0.0
  0
LINE
  5
74DB
  8
0
 10
222.146307658155
 20
56.922352113573858
 30
0.0
 11
225.63764973081041
 21
56.922352113573858
 31
0.0
  0
LINE
  5
74DC
  8
0
 10
231.32735026918971
 20
54.624470282044271
 30
0.0
 11
234.70764973081029
 21
54.624470282044271
 31
0.0
  0
LINE
  5
74DD
  8
0
 10
239.3536923418437
 20
56.922352113573858
 30
0.0
 11
239.3536923418437
 21
54.624470282044271
 31
0.0
  0
LINE
  5
74DE
  8
0
 10
235.86235026918959
 20
54.624470282044271
 30
0.0
 11
239.353692341845
 21
54.624470282044271
 31
0.0
  0
LINE
  5
74DF
  8
0
 10
226.79235026918971
 20
56.922352113573858
 30
0.0
 11
230.17264973081029
 21
56.922352113573858
 31
0.0
  0
LINE
  5
74E0
  8
0
 10
231.32735026918971
 20
56.922352113573858
 30
0.0
 11
234.70764973081029
 21
56.922352113573858
 31
0.0
  0
LINE
  5
74E1
  8
0
 10
239.81999999999991
 20
57.815489715459918
 30
0.0
 11
239.353692341845
 21
56.922352113573858
 31
0.0
  0
LINE
  5
74E2
  8
0
 10
235.86235026918959
 20
56.922352113573858
 30
0.0
 11
239.353692341845
 21
56.922352113573858
 31
0.0
  0
LINE
  5
74E3
  8
0
 10
222.14630765815821
 20
83.077647886426476
 30
0.0
 11
222.14630765815821
 21
85.37552971795607
 31
0.0
  0
LINE
  5
74E4
  8
0
 10
222.146307658155
 20
85.37552971795607
 30
0.0
 11
225.63764973081041
 21
85.37552971795607
 31
0.0
  0
LINE
  5
74E5
  8
0
 10
231.32735026918971
 20
85.37552971795607
 30
0.0
 11
234.70764973081029
 21
85.37552971795607
 31
0.0
  0
LINE
  5
74E6
  8
0
 10
235.86235026918959
 20
85.37552971795607
 30
0.0
 11
239.353692341845
 21
85.37552971795607
 31
0.0
  0
LINE
  5
74E7
  8
0
 10
239.35369234184179
 20
85.37552971795607
 30
0.0
 11
239.35369234184179
 21
83.077647886426476
 31
0.0
  0
LINE
  5
74E8
  8
0
 10
221.68000000000001
 20
82.184510284540394
 30
0.0
 11
222.146307658155
 21
83.077647886426476
 31
0.0
  0
LINE
  5
74E9
  8
0
 10
222.146307658155
 20
83.077647886426476
 30
0.0
 11
225.63764973081041
 21
83.077647886426476
 31
0.0
  0
LINE
  5
74EA
  8
0
 10
231.32735026918971
 20
83.077647886426476
 30
0.0
 11
234.70764973081029
 21
83.077647886426476
 31
0.0
  0
LINE
  5
74EB
  8
0
 10
235.86235026918959
 20
83.077647886426476
 30
0.0
 11
239.353692341845
 21
83.077647886426476
 31
0.0
  0
LINE
  5
74EC
  8
0
 10
239.353692341845
 20
83.077647886426476
 30
0.0
 11
239.81999999999991
 21
82.184510284540366
 31
0.0
  0
LINE
  5
74ED
  8
0
 10
221.68000000000001
 20
57.815489715459996
 30
0.0
 11
222.14630765815491
 21
57.995272548914372
 31
0.0
  0
LINE
  5
74EE
  8
0
 10
239.35369234184509
 20
57.995272548914372
 30
0.0
 11
239.81999999999991
 21
57.815489715459996
 31
0.0
  0
LINE
  5
74EF
  8
0
 10
221.68000000000001
 20
57.815489715459982
 30
0.0
 11
239.81999999999991
 21
57.815489715459982
 31
0.0
  0
LINE
  5
74F0
  8
0
 10
222.146307658155
 20
82.004727451085998
 30
0.0
 11
221.68000000000001
 21
82.184510284540366
 31
0.0
  0
LINE
  5
74F1
  8
0
 10
221.68000000000001
 20
82.184510284540366
 30
0.0
 11
239.81999999999991
 21
82.184510284540366
 31
0.0
  0
LINE
  5
74F2
  8
0
 10
239.81999999999991
 20
82.184510284540366
 30
0.0
 11
239.353692341845
 21
82.004727451085998
 31
0.0
  0
LINE
  5
74F3
  8
0
 10
226.79235026918971
 20
57.995272548914372
 30
0.0
 11
230.17264973081049
 21
57.995272548914372
 31
0.0
  0
LINE
  5
74F4
  8
0
 10
222.14630765815491
 20
57.995272548914372
 30
0.0
 11
225.63764973081041
 21
57.995272548914372
 31
0.0
  0
LINE
  5
74F5
  8
0
 10
222.14630765815591
 20
57.995272548914372
 30
0.0
 11
222.14630765815591
 21
60.387507627387542
 31
0.0
  0
LINE
  5
74F6
  8
0
 10
222.14630765815491
 20
60.387507627387542
 30
0.0
 11
225.63764973081041
 21
60.387507627387542
 31
0.0
  0
LINE
  5
74F7
  8
0
 10
231.32735026918951
 20
57.995272548914372
 30
0.0
 11
234.70764973081029
 21
57.995272548914372
 31
0.0
  0
LINE
  5
74F8
  8
0
 10
239.35369234184409
 20
60.387507627387542
 30
0.0
 11
239.35369234184409
 21
57.995272548914372
 31
0.0
  0
LINE
  5
74F9
  8
0
 10
235.86235026918959
 20
57.995272548914372
 30
0.0
 11
239.35369234184509
 21
57.995272548914372
 31
0.0
  0
LINE
  5
74FA
  8
0
 10
226.79235026918971
 20
60.387507627387542
 30
0.0
 11
230.17264973081049
 21
60.387507627387542
 31
0.0
  0
LINE
  5
74FB
  8
0
 10
231.32735026918951
 20
60.387507627387542
 30
0.0
 11
234.70764973081029
 21
60.387507627387542
 31
0.0
  0
LINE
  5
74FC
  8
0
 10
239.81999999999991
 20
61.20015246651441
 30
0.0
 11
239.353692341845
 21
60.387507627387542
 31
0.0
  0
LINE
  5
74FD
  8
0
 10
235.86235026918959
 20
60.387507627387542
 30
0.0
 11
239.353692341845
 21
60.387507627387542
 31
0.0
  0
LINE
  5
74FE
  8
0
 10
222.1463076581588
 20
79.612492372612806
 30
0.0
 11
222.1463076581588
 21
82.004727451085998
 31
0.0
  0
LINE
  5
74FF
  8
0
 10
222.146307658155
 20
82.004727451085955
 30
0.0
 11
225.63764973081041
 21
82.004727451085955
 31
0.0
  0
LINE
  5
7500
  8
0
 10
231.32735026918971
 20
82.004727451085955
 30
0.0
 11
234.70764973081029
 21
82.004727451085955
 31
0.0
  0
LINE
  5
7501
  8
0
 10
235.86235026918959
 20
82.004727451085955
 30
0.0
 11
239.353692341845
 21
82.004727451085955
 31
0.0
  0
LINE
  5
7502
  8
0
 10
239.3536923418412
 20
82.004727451085998
 30
0.0
 11
239.3536923418412
 21
79.612492372612806
 31
0.0
  0
LINE
  5
7503
  8
0
 10
221.68000000000001
 20
78.799847533485902
 30
0.0
 11
222.14630765815491
 21
79.612492372612806
 31
0.0
  0
LINE
  5
7504
  8
0
 10
222.14630765815491
 20
79.612492372612806
 30
0.0
 11
225.63764973081041
 21
79.612492372612806
 31
0.0
  0
LINE
  5
7505
  8
0
 10
231.32735026918951
 20
79.612492372612806
 30
0.0
 11
234.7076497308104
 21
79.612492372612806
 31
0.0
  0
LINE
  5
7506
  8
0
 10
235.86235026918959
 20
79.612492372612806
 30
0.0
 11
239.35369234184509
 21
79.612492372612806
 31
0.0
  0
LINE
  5
7507
  8
0
 10
239.35369234184509
 20
79.612492372612806
 30
0.0
 11
239.81999999999991
 21
78.799847533485902
 31
0.0
  0
LINE
  5
7508
  8
0
 10
221.68000000000001
 20
61.200152466514467
 30
0.0
 11
222.146307658155
 21
61.497601121889247
 31
0.0
  0
LINE
  5
7509
  8
0
 10
239.353692341845
 20
61.497601121889247
 30
0.0
 11
239.81999999999991
 21
61.200152466514488
 31
0.0
  0
LINE
  5
750A
  8
0
 10
221.68000000000001
 20
61.200152466514467
 30
0.0
 11
239.81999999999991
 21
61.200152466514467
 31
0.0
  0
LINE
  5
750B
  8
0
 10
222.146307658155
 20
78.502398878111094
 30
0.0
 11
221.68000000000001
 21
78.799847533485845
 31
0.0
  0
LINE
  5
750C
  8
0
 10
221.68000000000001
 20
78.799847533485845
 30
0.0
 11
239.81999999999991
 21
78.799847533485845
 31
0.0
  0
LINE
  5
750D
  8
0
 10
239.81999999999991
 20
78.799847533485845
 30
0.0
 11
239.353692341845
 21
78.502398878111094
 31
0.0
  0
LINE
  5
750E
  8
0
 10
226.79235026918971
 20
61.497601121889247
 30
0.0
 11
230.17264973081029
 21
61.497601121889247
 31
0.0
  0
LINE
  5
750F
  8
0
 10
222.146307658155
 20
61.497601121889247
 30
0.0
 11
225.63764973081041
 21
61.497601121889247
 31
0.0
  0
LINE
  5
7510
  8
0
 10
222.1463076581588
 20
61.497601121889247
 30
0.0
 11
222.1463076581588
 21
63.957979619178893
 31
0.0
  0
LINE
  5
7511
  8
0
 10
222.146307658155
 20
63.957979619178893
 30
0.0
 11
225.63764973081041
 21
63.957979619178893
 31
0.0
  0
LINE
  5
7512
  8
0
 10
231.32735026918971
 20
61.497601121889247
 30
0.0
 11
234.70764973081029
 21
61.497601121889247
 31
0.0
  0
LINE
  5
7513
  8
0
 10
239.3536923418412
 20
63.957979619178893
 30
0.0
 11
239.3536923418412
 21
61.497601121889247
 31
0.0
  0
LINE
  5
7514
  8
0
 10
235.86235026918959
 20
61.497601121889247
 30
0.0
 11
239.353692341845
 21
61.497601121889247
 31
0.0
  0
LINE
  5
7515
  8
0
 10
226.79235026918971
 20
63.957979619178893
 30
0.0
 11
230.17264973081029
 21
63.957979619178893
 31
0.0
  0
LINE
  5
7516
  8
0
 10
231.32735026918971
 20
63.957979619178893
 30
0.0
 11
234.70764973081029
 21
63.957979619178893
 31
0.0
  0
LINE
  5
7517
  8
0
 10
239.81999999999991
 20
64.681228188632275
 30
0.0
 11
239.353692341845
 21
63.957979619178893
 31
0.0
  0
LINE
  5
7518
  8
0
 10
235.86235026918959
 20
63.957979619178893
 30
0.0
 11
239.353692341845
 21
63.957979619178893
 31
0.0
  0
LINE
  5
7519
  8
0
 10
222.14630765815289
 20
76.042020380821455
 30
0.0
 11
222.14630765815289
 21
78.502398878111094
 31
0.0
  0
LINE
  5
751A
  8
0
 10
222.146307658155
 20
78.502398878111094
 30
0.0
 11
225.63764973081041
 21
78.502398878111094
 31
0.0
  0
LINE
  5
751B
  8
0
 10
231.32735026918971
 20
78.502398878111094
 30
0.0
 11
234.70764973081029
 21
78.502398878111094
 31
0.0
  0
LINE
  5
751C
  8
0
 10
235.86235026918959
 20
78.502398878111094
 30
0.0
 11
239.353692341845
 21
78.502398878111094
 31
0.0
  0
LINE
  5
751D
  8
0
 10
239.35369234184719
 20
78.502398878111094
 30
0.0
 11
239.35369234184719
 21
76.042020380821455
 31
0.0
  0
LINE
  5
751E
  8
0
 10
221.68000000000001
 20
75.318771811368023
 30
0.0
 11
222.14630765815491
 21
76.042020380821455
 31
0.0
  0
LINE
  5
751F
  8
0
 10
222.14630765815491
 20
76.042020380821455
 30
0.0
 11
225.63764973081041
 21
76.042020380821455
 31
0.0
  0
LINE
  5
7520
  8
0
 10
231.32735026918951
 20
76.042020380821455
 30
0.0
 11
234.70764973081029
 21
76.042020380821455
 31
0.0
  0
LINE
  5
7521
  8
0
 10
235.86235026918959
 20
76.042020380821455
 30
0.0
 11
239.353692341845
 21
76.042020380821455
 31
0.0
  0
LINE
  5
7522
  8
0
 10
239.353692341845
 20
76.042020380821455
 30
0.0
 11
239.81999999999991
 21
75.318771811368052
 31
0.0
  0
LINE
  5
7523
  8
0
 10
221.68000000000001
 20
64.681228188632346
 30
0.0
 11
222.146307658155
 21
65.093083756214085
 31
0.0
  0
LINE
  5
7524
  8
0
 10
239.353692341845
 20
65.093083756214085
 30
0.0
 11
239.81999999999991
 21
64.681228188632318
 31
0.0
  0
LINE
  5
7525
  8
0
 10
221.68000000000001
 20
64.681228188632318
 30
0.0
 11
239.81999999999991
 21
64.681228188632318
 31
0.0
  0
LINE
  5
7526
  8
0
 10
222.146307658155
 20
74.906916243786256
 30
0.0
 11
221.68000000000001
 21
75.318771811367995
 31
0.0
  0
LINE
  5
7527
  8
0
 10
221.68000000000001
 20
75.318771811367995
 30
0.0
 11
239.81999999999991
 21
75.318771811367995
 31
0.0
  0
LINE
  5
7528
  8
0
 10
239.81999999999991
 20
75.318771811367995
 30
0.0
 11
239.353692341845
 21
74.906916243786256
 31
0.0
  0
LINE
  5
7529
  8
0
 10
226.79235026918971
 20
65.093083756214085
 30
0.0
 11
230.17264973081029
 21
65.093083756214085
 31
0.0
  0
LINE
  5
752A
  8
0
 10
222.146307658155
 20
65.093083756214085
 30
0.0
 11
225.63764973081041
 21
65.093083756214085
 31
0.0
  0
LINE
  5
752B
  8
0
 10
222.14630765815821
 20
65.093083756214085
 30
0.0
 11
222.14630765815821
 21
67.59464925063655
 31
0.0
  0
LINE
  5
752C
  8
0
 10
222.14630765815491
 20
67.59464925063655
 30
0.0
 11
225.63764973081041
 21
67.59464925063655
 31
0.0
  0
LINE
  5
752D
  8
0
 10
231.32735026918971
 20
65.093083756214085
 30
0.0
 11
234.70764973081029
 21
65.093083756214085
 31
0.0
  0
LINE
  5
752E
  8
0
 10
239.35369234184179
 20
67.59464925063655
 30
0.0
 11
239.35369234184179
 21
65.093083756214085
 31
0.0
  0
LINE
  5
752F
  8
0
 10
235.86235026918959
 20
65.093083756214085
 30
0.0
 11
239.353692341845
 21
65.093083756214085
 31
0.0
  0
LINE
  5
7530
  8
0
 10
226.79235026918971
 20
67.59464925063655
 30
0.0
 11
230.17264973081049
 21
67.59464925063655
 31
0.0
  0
LINE
  5
7531
  8
0
 10
231.32735026918951
 20
67.59464925063655
 30
0.0
 11
234.70764973081029
 21
67.59464925063655
 31
0.0
  0
LINE
  5
7532
  8
0
 10
239.81999999999991
 20
68.220577487740044
 30
0.0
 11
239.353692341845
 21
67.59464925063655
 31
0.0
  0
LINE
  5
7533
  8
0
 10
235.86235026918959
 20
67.59464925063655
 30
0.0
 11
239.353692341845
 21
67.59464925063655
 31
0.0
  0
LINE
  5
7534
  8
0
 10
222.1463076581596
 20
72.405350749363791
 30
0.0
 11
222.1463076581596
 21
74.906916243786256
 31
0.0
  0
LINE
  5
7535
  8
0
 10
222.146307658155
 20
74.906916243786256
 30
0.0
 11
225.63764973081041
 21
74.906916243786256
 31
0.0
  0
LINE
  5
7536
  8
0
 10
231.32735026918971
 20
74.906916243786256
 30
0.0
 11
234.70764973081029
 21
74.906916243786256
 31
0.0
  0
LINE
  5
7537
  8
0
 10
235.86235026918959
 20
74.906916243786256
 30
0.0
 11
239.353692341845
 21
74.906916243786256
 31
0.0
  0
LINE
  5
7538
  8
0
 10
239.3536923418404
 20
74.906916243786256
 30
0.0
 11
239.3536923418404
 21
72.405350749363791
 31
0.0
  0
LINE
  5
7539
  8
0
 10
221.68000000000001
 20
71.779422512260268
 30
0.0
 11
222.146307658155
 21
72.405350749363791
 31
0.0
  0
LINE
  5
753A
  8
0
 10
222.146307658155
 20
72.405350749363791
 30
0.0
 11
225.63764973081041
 21
72.405350749363791
 31
0.0
  0
LINE
  5
753B
  8
0
 10
231.32735026918971
 20
72.405350749363791
 30
0.0
 11
234.70764973081029
 21
72.405350749363791
 31
0.0
  0
LINE
  5
753C
  8
0
 10
235.86235026918959
 20
72.405350749363791
 30
0.0
 11
239.353692341845
 21
72.405350749363791
 31
0.0
  0
LINE
  5
753D
  8
0
 10
239.353692341845
 20
72.405350749363791
 30
0.0
 11
239.81999999999991
 21
71.779422512260268
 31
0.0
  0
LINE
  5
753E
  8
0
 10
221.68000000000001
 20
68.220577487740101
 30
0.0
 11
222.14630765815491
 21
68.742327591744058
 31
0.0
  0
LINE
  5
753F
  8
0
 10
239.353692341845
 20
68.742327591744058
 30
0.0
 11
239.81999999999991
 21
68.220577487740101
 31
0.0
  0
LINE
  5
7540
  8
0
 10
221.68000000000001
 20
68.220577487740073
 30
0.0
 11
239.81999999999991
 21
68.220577487740073
 31
0.0
  0
LINE
  5
7541
  8
0
 10
222.146307658155
 20
71.257672408256255
 30
0.0
 11
221.68000000000001
 21
71.779422512260211
 31
0.0
  0
LINE
  5
7542
  8
0
 10
221.68000000000001
 20
71.77942251226024
 30
0.0
 11
239.81999999999991
 21
71.77942251226024
 31
0.0
  0
LINE
  5
7543
  8
0
 10
239.81999999999991
 20
71.779422512260211
 30
0.0
 11
239.353692341845
 21
71.257672408256255
 31
0.0
  0
LINE
  5
7544
  8
0
 10
226.79235026918971
 20
71.257672408256255
 30
0.0
 11
230.17264973081029
 21
71.257672408256255
 31
0.0
  0
LINE
  5
7545
  8
0
 10
226.79235026918971
 20
68.742327591744058
 30
0.0
 11
230.17264973081049
 21
68.742327591744058
 31
0.0
  0
LINE
  5
7546
  8
0
 10
222.14630765815491
 20
68.742327591744058
 30
0.0
 11
225.63764973081041
 21
68.742327591744058
 31
0.0
  0
LINE
  5
7547
  8
0
 10
222.14630765815579
 20
68.742327591744058
 30
0.0
 11
222.14630765815579
 21
71.257672408256255
 31
0.0
  0
LINE
  5
7548
  8
0
 10
222.146307658155
 20
71.257672408256255
 30
0.0
 11
225.63764973081041
 21
71.257672408256255
 31
0.0
  0
LINE
  5
7549
  8
0
 10
231.32735026918971
 20
71.257672408256255
 30
0.0
 11
234.70764973081029
 21
71.257672408256255
 31
0.0
  0
LINE
  5
754A
  8
0
 10
231.32735026918951
 20
68.742327591744058
 30
0.0
 11
234.70764973081029
 21
68.742327591744058
 31
0.0
  0
LINE
  5
754B
  8
0
 10
235.86235026918959
 20
71.257672408256255
 30
0.0
 11
239.353692341845
 21
71.257672408256255
 31
0.0
  0
LINE
  5
754C
  8
0
 10
239.35369234184421
 20
71.257672408256255
 30
0.0
 11
239.35369234184421
 21
68.742327591744058
 31
0.0
  0
LINE
  5
754D
  8
0
 10
235.86235026918959
 20
68.742327591744058
 30
0.0
 11
239.353692341845
 21
68.742327591744058
 31
0.0
  0
LINE
  5
754E
  8
0
 10
235.86235026918391
 20
35.02260358297805
 30
0.0
 11
235.86235026918391
 21
35.000000000000163
 31
0.0
  0
LINE
  5
754F
  8
0
 10
235.285
 20
36.04659581834467
 30
0.0
 11
235.86235026918959
 21
35.02260358297805
 31
0.0
  0
LINE
  5
7550
  8
0
 10
235.86235026918689
 20
35.345675984425
 30
0.0
 11
235.86235026918689
 21
35.082750856166761
 31
0.0
  0
LINE
  5
7551
  8
0
 10
235.86235026918959
 20
35.082750856166761
 30
0.0
 11
235.285
 21
36.04659581834467
 31
0.0
  0
LINE
  5
7552
  8
0
 10
235.285
 20
36.418596419765478
 30
0.0
 11
235.86235026918959
 21
35.345675984425
 31
0.0
  0
LINE
  5
7553
  8
0
 10
235.86235026919411
 20
36.048428411670152
 30
0.0
 11
235.86235026919411
 21
35.525458817879368
 31
0.0
  0
LINE
  5
7554
  8
0
 10
235.86235026918959
 20
35.525458817879368
 30
0.0
 11
235.285
 21
36.418596419765507
 31
0.0
  0
LINE
  5
7555
  8
0
 10
235.285
 20
37.158521906171828
 30
0.0
 11
235.86235026918959
 21
36.048428411670152
 31
0.0
  0
LINE
  5
7556
  8
0
 10
235.86235026919491
 20
37.123161362060117
 30
0.0
 11
235.86235026919491
 21
36.345877067044917
 31
0.0
  0
LINE
  5
7557
  8
0
 10
235.86235026918959
 20
36.345877067044917
 30
0.0
 11
235.28500000000011
 21
37.158521906171863
 31
0.0
  0
LINE
  5
7558
  8
0
 10
235.285
 20
38.258265499095323
 30
0.0
 11
235.86235026918959
 21
37.123161362060117
 31
0.0
  0
LINE
  5
7559
  8
0
 10
235.86235026919141
 20
38.558099836488182
 30
0.0
 11
235.86235026919141
 21
37.535016929641863
 31
0.0
  0
LINE
  5
755A
  8
0
 10
235.86235026918959
 20
37.535016929641863
 30
0.0
 11
235.285
 21
38.258265499095337
 31
0.0
  0
LINE
  5
755B
  8
0
 10
235.285
 20
39.705778177595633
 30
0.0
 11
235.86235026918959
 21
38.558099836488182
 31
0.0
  0
LINE
  5
755C
  8
0
 10
235.86235026918999
 20
40.337522348748259
 30
0.0
 11
235.86235026918999
 21
39.079849940492217
 31
0.0
  0
LINE
  5
755D
  8
0
 10
235.86235026918959
 20
39.079849940492217
 30
0.0
 11
235.285
 21
39.70577817759569
 31
0.0
  0
LINE
  5
755E
  8
0
 10
235.285
 20
41.485200689855752
 30
0.0
 11
235.86235026918959
 21
40.337522348748259
 31
0.0
  0
LINE
  5
755F
  8
0
 10
235.86235026918951
 20
42.441933173427948
 30
0.0
 11
235.86235026918951
 21
40.963450585851852
 31
0.0
  0
LINE
  5
7560
  8
0
 10
235.86235026918959
 20
40.963450585851852
 30
0.0
 11
235.285
 21
41.485200689855773
 31
0.0
  0
LINE
  5
7561
  8
0
 10
235.28500000000011
 20
43.577037310463133
 30
0.0
 11
235.86235026918959
 21
42.441933173427948
 31
0.0
  0
LINE
  5
7562
  8
0
 10
235.86235026918939
 20
44.848275945155827
 30
0.0
 11
235.86235026918939
 21
43.165181742881437
 31
0.0
  0
LINE
  5
7563
  8
0
 10
235.86235026918959
 20
43.165181742881437
 30
0.0
 11
235.285
 21
43.577037310463183
 31
0.0
  0
LINE
  5
7564
  8
0
 10
235.285
 20
45.958369439657538
 30
0.0
 11
235.86235026918959
 21
44.848275945155827
 31
0.0
  0
LINE
  5
7565
  8
0
 10
235.86235026919039
 20
47.53018626896521
 30
0.0
 11
235.86235026919039
 21
45.660920784282787
 31
0.0
  0
LINE
  5
7566
  8
0
 10
235.86235026918959
 20
45.660920784282787
 30
0.0
 11
235.285
 21
45.958369439657567
 31
0.0
  0
LINE
  5
7567
  8
0
 10
235.28500000000011
 20
48.603106704305659
 30
0.0
 11
235.86235026918959
 21
47.53018626896521
 31
0.0
  0
LINE
  5
7568
  8
0
 10
235.86235026918959
 20
50.458280574122639
 30
0.0
 11
235.86235026918959
 21
48.423323870851348
 31
0.0
  0
LINE
  5
7569
  8
0
 10
235.86235026918959
 20
48.423323870851348
 30
0.0
 11
235.285
 21
48.603106704305709
 31
0.0
  0
LINE
  5
756A
  8
0
 10
235.285
 20
51.482272809489203
 30
0.0
 11
235.86235026918959
 21
50.458280574122639
 31
0.0
  0
LINE
  5
756B
  8
0
 10
235.86235026919081
 20
53.600478046677623
 30
0.0
 11
235.86235026919081
 21
51.422125536300577
 31
0.0
  0
LINE
  5
756C
  8
0
 10
235.86235026918959
 20
51.422125536300577
 30
0.0
 11
235.285
 21
51.482272809489288
 31
0.0
  0
LINE
  5
756D
  8
0
 10
235.285
 20
54.564323008855538
 30
0.0
 11
235.86235026918959
 21
53.600478046677623
 31
0.0
  0
LINE
  5
756E
  8
0
 10
235.86235026919121
 20
56.922352113573858
 30
0.0
 11
235.86235026919121
 21
54.624470282044271
 31
0.0
  0
LINE
  5
756F
  8
0
 10
235.86235026918959
 20
54.624470282044271
 30
0.0
 11
235.28500000000011
 21
54.564323008855588
 31
0.0
  0
LINE
  5
7570
  8
0
 10
235.285
 20
57.815489715459918
 30
0.0
 11
235.86235026918959
 21
56.922352113573858
 31
0.0
  0
LINE
  5
7571
  8
0
 10
235.86235026919081
 20
60.387507627387542
 30
0.0
 11
235.86235026919081
 21
57.995272548914372
 31
0.0
  0
LINE
  5
7572
  8
0
 10
235.86235026918959
 20
57.995272548914372
 30
0.0
 11
235.285
 21
57.815489715459982
 31
0.0
  0
LINE
  5
7573
  8
0
 10
235.285
 20
61.200152466514439
 30
0.0
 11
235.86235026918959
 21
60.387507627387542
 31
0.0
  0
LINE
  5
7574
  8
0
 10
235.86235026919439
 20
63.957979619178893
 30
0.0
 11
235.86235026919439
 21
61.497601121889247
 31
0.0
  0
LINE
  5
7575
  8
0
 10
235.86235026918959
 20
61.497601121889247
 30
0.0
 11
235.285
 21
61.200152466514467
 31
0.0
  0
LINE
  5
7576
  8
0
 10
235.28500000000011
 20
64.681228188632275
 30
0.0
 11
235.86235026918959
 21
63.957979619178893
 31
0.0
  0
LINE
  5
7577
  8
0
 10
235.8623502691936
 20
67.59464925063655
 30
0.0
 11
235.8623502691936
 21
65.093083756214085
 31
0.0
  0
LINE
  5
7578
  8
0
 10
235.86235026918959
 20
65.093083756214085
 30
0.0
 11
235.28500000000011
 21
64.681228188632346
 31
0.0
  0
LINE
  5
7579
  8
0
 10
235.285
 20
68.220577487740044
 30
0.0
 11
235.86235026918959
 21
67.59464925063655
 31
0.0
  0
LINE
  5
757A
  8
0
 10
235.86235026919081
 20
71.257672408256255
 30
0.0
 11
235.86235026919081
 21
68.742327591744058
 31
0.0
  0
LINE
  5
757B
  8
0
 10
235.86235026918959
 20
68.742327591744058
 30
0.0
 11
235.285
 21
68.220577487740101
 31
0.0
  0
LINE
  5
757C
  8
0
 10
235.285
 20
71.77942251226024
 30
0.0
 11
235.86235026918959
 21
71.257672408256255
 31
0.0
  0
LINE
  5
757D
  8
0
 10
235.28500000000011
 20
75.318771811367995
 30
0.0
 11
235.86235026918959
 21
74.906916243786256
 31
0.0
  0
LINE
  5
757E
  8
0
 10
235.8623502691953
 20
74.906916243786256
 30
0.0
 11
235.8623502691953
 21
72.405350749363791
 31
0.0
  0
LINE
  5
757F
  8
0
 10
235.86235026918959
 20
72.405350749363791
 30
0.0
 11
235.28500000000011
 21
71.779422512260268
 31
0.0
  0
LINE
  5
7580
  8
0
 10
235.28500000000011
 20
78.799847533485845
 30
0.0
 11
235.86235026918959
 21
78.502398878111094
 31
0.0
  0
LINE
  5
7581
  8
0
 10
235.86235026918689
 20
78.502398878111094
 30
0.0
 11
235.86235026918689
 21
76.042020380821455
 31
0.0
  0
LINE
  5
7582
  8
0
 10
235.86235026918959
 20
76.042020380821455
 30
0.0
 11
235.285
 21
75.318771811368023
 31
0.0
  0
LINE
  5
7583
  8
0
 10
235.28500000000011
 20
82.184510284540366
 30
0.0
 11
235.86235026918959
 21
82.004727451085955
 31
0.0
  0
LINE
  5
7584
  8
0
 10
235.86235026919439
 20
82.004727451085955
 30
0.0
 11
235.86235026919439
 21
79.612492372612806
 31
0.0
  0
LINE
  5
7585
  8
0
 10
235.86235026918959
 20
79.612492372612806
 30
0.0
 11
235.285
 21
78.799847533485874
 31
0.0
  0
LINE
  5
7586
  8
0
 10
235.28500000000011
 20
85.435676991144746
 30
0.0
 11
235.86235026918959
 21
85.37552971795607
 31
0.0
  0
LINE
  5
7587
  8
0
 10
235.8623502691936
 20
85.37552971795607
 30
0.0
 11
235.8623502691936
 21
83.077647886426476
 31
0.0
  0
LINE
  5
7588
  8
0
 10
235.86235026918959
 20
83.077647886426476
 30
0.0
 11
235.28500000000011
 21
82.184510284540366
 31
0.0
  0
LINE
  5
7589
  8
0
 10
235.285
 20
88.517727190511053
 30
0.0
 11
235.86235026918959
 21
88.577874463699743
 31
0.0
  0
LINE
  5
758A
  8
0
 10
235.8623502691878
 20
88.577874463699743
 30
0.0
 11
235.8623502691878
 21
86.399521953322676
 31
0.0
  0
LINE
  5
758B
  8
0
 10
235.86235026918959
 20
86.399521953322676
 30
0.0
 11
235.285
 21
85.435676991144746
 31
0.0
  0
LINE
  5
758C
  8
0
 10
235.285
 20
91.396893295694625
 30
0.0
 11
235.86235026918959
 21
91.576676129149021
 31
0.0
  0
LINE
  5
758D
  8
0
 10
235.8623502691853
 20
91.576676129149021
 30
0.0
 11
235.8623502691853
 21
89.541719425877702
 31
0.0
  0
LINE
  5
758E
  8
0
 10
235.86235026918959
 20
89.541719425877702
 30
0.0
 11
235.28500000000011
 21
88.517727190511053
 31
0.0
  0
LINE
  5
758F
  8
0
 10
235.285
 20
94.041630560342753
 30
0.0
 11
235.86235026918959
 21
94.339079215717547
 31
0.0
  0
LINE
  5
7590
  8
0
 10
235.86235026919039
 20
94.339079215717547
 30
0.0
 11
235.86235026919039
 21
92.469813731035103
 31
0.0
  0
LINE
  5
7591
  8
0
 10
235.86235026918959
 20
92.469813731035103
 30
0.0
 11
235.285
 21
91.396893295694625
 31
0.0
  0
LINE
  5
7592
  8
0
 10
235.28500000000011
 20
96.422962689537158
 30
0.0
 11
235.86235026918959
 21
96.834818257118926
 31
0.0
  0
LINE
  5
7593
  8
0
 10
235.86235026919141
 20
96.834818257118926
 30
0.0
 11
235.86235026919141
 21
95.151724054844465
 31
0.0
  0
LINE
  5
7594
  8
0
 10
235.86235026918959
 20
95.151724054844507
 30
0.0
 11
235.285
 21
94.041630560342753
 31
0.0
  0
LINE
  5
7595
  8
0
 10
235.285
 20
98.514799310144568
 30
0.0
 11
235.86235026918959
 21
99.036549414148567
 31
0.0
  0
LINE
  5
7596
  8
0
 10
235.86235026919459
 20
99.036549414148567
 30
0.0
 11
235.86235026919459
 21
97.558066826572372
 31
0.0
  0
LINE
  5
7597
  8
0
 10
235.86235026918959
 20
97.558066826572372
 30
0.0
 11
235.28500000000011
 21
96.422962689537158
 31
0.0
  0
LINE
  5
7598
  8
0
 10
235.285
 20
100.29422182240459
 30
0.0
 11
235.86235026918959
 21
100.9201500595082
 31
0.0
  0
LINE
  5
7599
  8
0
 10
235.86235026918899
 20
100.9201500595082
 30
0.0
 11
235.86235026918899
 21
99.662477651252047
 31
0.0
  0
LINE
  5
759A
  8
0
 10
235.86235026918959
 20
99.662477651252047
 30
0.0
 11
235.28500000000011
 21
98.514799310144568
 31
0.0
  0
LINE
  5
759B
  8
0
 10
235.285
 20
101.741734500905
 30
0.0
 11
235.86235026918959
 21
102.4649830703584
 31
0.0
  0
LINE
  5
759C
  8
0
 10
235.86235026918931
 20
102.4649830703584
 30
0.0
 11
235.86235026918931
 21
101.4419001635121
 31
0.0
  0
LINE
  5
759D
  8
0
 10
235.86235026918959
 20
101.4419001635121
 30
0.0
 11
235.285
 21
100.29422182240459
 31
0.0
  0
LINE
  5
759E
  8
0
 10
235.285
 20
102.8414780938285
 30
0.0
 11
235.86235026918959
 21
103.6541229329554
 31
0.0
  0
LINE
  5
759F
  8
0
 10
235.86235026918851
 20
103.6541229329554
 30
0.0
 11
235.86235026918851
 21
102.8768386379402
 31
0.0
  0
LINE
  5
75A0
  8
0
 10
235.86235026918959
 20
102.8768386379402
 30
0.0
 11
235.28500000000011
 21
101.741734500905
 31
0.0
  0
LINE
  5
75A1
  8
0
 10
235.285
 20
103.58140358023481
 30
0.0
 11
235.86235026918959
 21
104.4745411821209
 31
0.0
  0
LINE
  5
75A2
  8
0
 10
235.8623502691882
 20
104.4745411821209
 30
0.0
 11
235.8623502691882
 21
103.9515715883301
 31
0.0
  0
LINE
  5
75A3
  8
0
 10
235.86235026918959
 20
103.9515715883301
 30
0.0
 11
235.285
 21
102.8414780938285
 31
0.0
  0
LINE
  5
75A4
  8
0
 10
235.285
 20
103.9534041816556
 30
0.0
 11
235.86235026918959
 21
104.9172491438336
 31
0.0
  0
LINE
  5
75A5
  8
0
 10
235.86235026919189
 20
104.9172491438336
 30
0.0
 11
235.86235026919189
 21
104.6543240155753
 31
0.0
  0
LINE
  5
75A6
  8
0
 10
235.86235026918959
 20
104.6543240155753
 30
0.0
 11
235.285
 21
103.58140358023481
 31
0.0
  0
LINE
  5
75A7
  8
0
 10
235.862350269188
 20
105.0000000000002
 30
0.0
 11
235.862350269188
 21
104.97739641702231
 31
0.0
  0
LINE
  5
75A8
  8
0
 10
235.86235026918959
 20
104.97739641702231
 30
0.0
 11
235.28500000000011
 21
103.9534041816556
 31
0.0
  0
LINE
  5
75A9
  8
0
 10
234.70764973081191
 20
104.97739641702231
 30
0.0
 11
234.70764973081191
 21
105.0000000000002
 31
0.0
  0
LINE
  5
75AA
  8
0
 10
235.28500000000011
 20
103.9534041816556
 30
0.0
 11
234.70764973081029
 21
104.97739641702231
 31
0.0
  0
LINE
  5
75AB
  8
0
 10
234.70764973080799
 20
104.6543240155753
 30
0.0
 11
234.70764973080799
 21
104.9172491438336
 31
0.0
  0
LINE
  5
75AC
  8
0
 10
234.70764973081029
 20
104.9172491438336
 30
0.0
 11
235.285
 21
103.9534041816556
 31
0.0
  0
LINE
  5
75AD
  8
0
 10
235.285
 20
103.58140358023481
 30
0.0
 11
234.70764973081029
 21
104.6543240155753
 31
0.0
  0
LINE
  5
75AE
  8
0
 10
234.70764973081171
 20
103.9515715883301
 30
0.0
 11
234.70764973081171
 21
104.4745411821209
 31
0.0
  0
LINE
  5
75AF
  8
0
 10
234.70764973081029
 20
104.4745411821209
 30
0.0
 11
235.285
 21
103.58140358023481
 31
0.0
  0
LINE
  5
75B0
  8
0
 10
235.285
 20
102.8414780938285
 30
0.0
 11
234.70764973081029
 21
103.9515715883301
 31
0.0
  0
LINE
  5
75B1
  8
0
 10
234.70764973081151
 20
102.8768386379402
 30
0.0
 11
234.70764973081151
 21
103.6541229329554
 31
0.0
  0
LINE
  5
75B2
  8
0
 10
234.70764973081029
 20
103.6541229329554
 30
0.0
 11
235.285
 21
102.8414780938285
 31
0.0
  0
LINE
  5
75B3
  8
0
 10
235.28500000000011
 20
101.741734500905
 30
0.0
 11
234.70764973081029
 21
102.8768386379402
 31
0.0
  0
LINE
  5
75B4
  8
0
 10
234.7076497308108
 20
101.4419001635121
 30
0.0
 11
234.7076497308108
 21
102.4649830703584
 31
0.0
  0
LINE
  5
75B5
  8
0
 10
234.70764973081029
 20
102.4649830703584
 30
0.0
 11
235.285
 21
101.741734500905
 31
0.0
  0
LINE
  5
75B6
  8
0
 10
235.285
 20
100.29422182240459
 30
0.0
 11
234.70764973081029
 21
101.4419001635121
 31
0.0
  0
LINE
  5
75B7
  8
0
 10
234.707649730811
 20
99.662477651252047
 30
0.0
 11
234.707649730811
 21
100.9201500595082
 31
0.0
  0
LINE
  5
75B8
  8
0
 10
234.70764973081029
 20
100.9201500595082
 30
0.0
 11
235.285
 21
100.29422182240459
 31
0.0
  0
LINE
  5
75B9
  8
0
 10
235.28500000000011
 20
98.514799310144568
 30
0.0
 11
234.70764973081029
 21
99.662477651252047
 31
0.0
  0
LINE
  5
75BA
  8
0
 10
234.7076497308054
 20
97.558066826572372
 30
0.0
 11
234.7076497308054
 21
99.036549414148567
 31
0.0
  0
LINE
  5
75BB
  8
0
 10
234.70764973081029
 20
99.036549414148567
 30
0.0
 11
235.285
 21
98.514799310144568
 31
0.0
  0
LINE
  5
75BC
  8
0
 10
235.28500000000011
 20
96.422962689537144
 30
0.0
 11
234.70764973081029
 21
97.558066826572372
 31
0.0
  0
LINE
  5
75BD
  8
0
 10
234.7076497308085
 20
95.151724054844465
 30
0.0
 11
234.7076497308085
 21
96.834818257118926
 31
0.0
  0
LINE
  5
75BE
  8
0
 10
234.70764973081029
 20
96.834818257118926
 30
0.0
 11
235.28500000000011
 21
96.422962689537158
 31
0.0
  0
LINE
  5
75BF
  8
0
 10
235.285
 20
94.041630560342753
 30
0.0
 11
234.70764973081029
 21
95.151724054844507
 31
0.0
  0
LINE
  5
75C0
  8
0
 10
234.70764973080961
 20
92.469813731035103
 30
0.0
 11
234.70764973080961
 21
94.339079215717547
 31
0.0
  0
LINE
  5
75C1
  8
0
 10
234.70764973081029
 20
94.339079215717547
 30
0.0
 11
235.285
 21
94.041630560342753
 31
0.0
  0
LINE
  5
75C2
  8
0
 10
235.285
 20
91.396893295694625
 30
0.0
 11
234.70764973081029
 21
92.469813731035103
 31
0.0
  0
LINE
  5
75C3
  8
0
 10
234.70764973081469
 20
89.541719425877702
 30
0.0
 11
234.70764973081469
 21
91.576676129149021
 31
0.0
  0
LINE
  5
75C4
  8
0
 10
234.70764973081029
 20
91.576676129149021
 30
0.0
 11
235.285
 21
91.396893295694625
 31
0.0
  0
LINE
  5
75C5
  8
0
 10
235.28500000000011
 20
88.517727190511053
 30
0.0
 11
234.70764973081029
 21
89.541719425877702
 31
0.0
  0
LINE
  5
75C6
  8
0
 10
234.70764973081211
 20
86.399521953322676
 30
0.0
 11
234.70764973081211
 21
88.577874463699743
 31
0.0
  0
LINE
  5
75C7
  8
0
 10
234.70764973081029
 20
88.577874463699743
 30
0.0
 11
235.285
 21
88.517727190511053
 31
0.0
  0
LINE
  5
75C8
  8
0
 10
235.285
 20
85.435676991144746
 30
0.0
 11
234.70764973081029
 21
86.399521953322676
 31
0.0
  0
LINE
  5
75C9
  8
0
 10
234.70764973080639
 20
83.077647886426476
 30
0.0
 11
234.70764973080639
 21
85.37552971795607
 31
0.0
  0
LINE
  5
75CA
  8
0
 10
234.70764973081029
 20
85.37552971795607
 30
0.0
 11
235.28500000000011
 21
85.435676991144746
 31
0.0
  0
LINE
  5
75CB
  8
0
 10
235.28500000000011
 20
82.184510284540366
 30
0.0
 11
234.70764973081029
 21
83.077647886426476
 31
0.0
  0
LINE
  5
75CC
  8
0
 10
234.7076497308056
 20
79.612492372612806
 30
0.0
 11
234.7076497308056
 21
82.004727451085955
 31
0.0
  0
LINE
  5
75CD
  8
0
 10
234.70764973081029
 20
82.004727451085955
 30
0.0
 11
235.28500000000011
 21
82.184510284540366
 31
0.0
  0
LINE
  5
75CE
  8
0
 10
235.285
 20
78.799847533485902
 30
0.0
 11
234.7076497308104
 21
79.612492372612806
 31
0.0
  0
LINE
  5
75CF
  8
0
 10
234.7076497308131
 20
76.042020380821455
 30
0.0
 11
234.7076497308131
 21
78.502398878111094
 31
0.0
  0
LINE
  5
75D0
  8
0
 10
234.70764973081029
 20
78.502398878111094
 30
0.0
 11
235.28500000000011
 21
78.799847533485845
 31
0.0
  0
LINE
  5
75D1
  8
0
 10
235.285
 20
75.318771811368023
 30
0.0
 11
234.70764973081029
 21
76.042020380821455
 31
0.0
  0
LINE
  5
75D2
  8
0
 10
234.7076497308046
 20
72.405350749363791
 30
0.0
 11
234.7076497308046
 21
74.906916243786256
 31
0.0
  0
LINE
  5
75D3
  8
0
 10
234.70764973081029
 20
74.906916243786256
 30
0.0
 11
235.28500000000011
 21
75.318771811367995
 31
0.0
  0
LINE
  5
75D4
  8
0
 10
235.285
 20
36.000000000000163
 30
0.0
 11
235.285
 21
104.0000000000001
 31
0.0
  0
LINE
  5
75D5
  8
0
 10
235.28500000000011
 20
71.779422512260268
 30
0.0
 11
234.70764973081029
 21
72.405350749363791
 31
0.0
  0
LINE
  5
75D6
  8
0
 10
235.285
 20
68.220577487740101
 30
0.0
 11
234.70764973081029
 21
68.742327591744058
 31
0.0
  0
LINE
  5
75D7
  8
0
 10
234.70764973080929
 20
68.742327591744058
 30
0.0
 11
234.70764973080929
 21
71.257672408256255
 31
0.0
  0
LINE
  5
75D8
  8
0
 10
234.70764973081029
 20
71.257672408256255
 30
0.0
 11
235.285
 21
71.77942251226024
 31
0.0
  0
LINE
  5
75D9
  8
0
 10
235.28500000000011
 20
64.681228188632318
 30
0.0
 11
234.70764973081029
 21
65.093083756214085
 31
0.0
  0
LINE
  5
75DA
  8
0
 10
234.70764973080639
 20
65.093083756214085
 30
0.0
 11
234.70764973080639
 21
67.59464925063655
 31
0.0
  0
LINE
  5
75DB
  8
0
 10
234.70764973081029
 20
67.59464925063655
 30
0.0
 11
235.285
 21
68.220577487740044
 31
0.0
  0
LINE
  5
75DC
  8
0
 10
235.285
 20
61.200152466514467
 30
0.0
 11
234.70764973081029
 21
61.497601121889247
 31
0.0
  0
LINE
  5
75DD
  8
0
 10
234.7076497308056
 20
61.497601121889247
 30
0.0
 11
234.7076497308056
 21
63.957979619178893
 31
0.0
  0
LINE
  5
75DE
  8
0
 10
234.70764973081029
 20
63.957979619178893
 30
0.0
 11
235.28500000000011
 21
64.681228188632275
 31
0.0
  0
LINE
  5
75DF
  8
0
 10
235.285
 20
57.815489715459982
 30
0.0
 11
234.70764973081029
 21
57.995272548914372
 31
0.0
  0
LINE
  5
75E0
  8
0
 10
234.70764973080921
 20
57.995272548914372
 30
0.0
 11
234.70764973080921
 21
60.387507627387542
 31
0.0
  0
LINE
  5
75E1
  8
0
 10
234.70764973081029
 20
60.387507627387542
 30
0.0
 11
235.28500000000011
 21
61.200152466514439
 31
0.0
  0
LINE
  5
75E2
  8
0
 10
235.28500000000011
 20
54.564323008855588
 30
0.0
 11
234.70764973081029
 21
54.624470282044271
 31
0.0
  0
LINE
  5
75E3
  8
0
 10
234.7076497308087
 20
54.624470282044271
 30
0.0
 11
234.7076497308087
 21
56.922352113573858
 31
0.0
  0
LINE
  5
75E4
  8
0
 10
234.70764973081029
 20
56.922352113573858
 30
0.0
 11
235.285
 21
57.815489715459918
 31
0.0
  0
LINE
  5
75E5
  8
0
 10
235.285
 20
51.482272809489288
 30
0.0
 11
234.70764973081029
 21
51.422125536300577
 31
0.0
  0
LINE
  5
75E6
  8
0
 10
234.70764973080921
 20
51.422125536300577
 30
0.0
 11
234.70764973080921
 21
53.600478046677623
 31
0.0
  0
LINE
  5
75E7
  8
0
 10
234.70764973081029
 20
53.600478046677623
 30
0.0
 11
235.285
 21
54.564323008855538
 31
0.0
  0
LINE
  5
75E8
  8
0
 10
235.285
 20
48.603106704305709
 30
0.0
 11
234.70764973081029
 21
48.423323870851348
 31
0.0
  0
LINE
  5
75E9
  8
0
 10
234.7076497308104
 20
48.423323870851348
 30
0.0
 11
234.7076497308104
 21
50.458280574122639
 31
0.0
  0
LINE
  5
75EA
  8
0
 10
234.70764973081029
 20
50.458280574122639
 30
0.0
 11
235.285
 21
51.482272809489203
 31
0.0
  0
LINE
  5
75EB
  8
0
 10
235.285
 20
45.958369439657567
 30
0.0
 11
234.70764973081029
 21
45.660920784282787
 31
0.0
  0
LINE
  5
75EC
  8
0
 10
234.70764973080961
 20
45.660920784282787
 30
0.0
 11
234.70764973080961
 21
47.53018626896521
 31
0.0
  0
LINE
  5
75ED
  8
0
 10
234.70764973081029
 20
47.53018626896521
 30
0.0
 11
235.28500000000011
 21
48.603106704305681
 31
0.0
  0
LINE
  5
75EE
  8
0
 10
235.285
 20
43.577037310463183
 30
0.0
 11
234.70764973081029
 21
43.165181742881437
 31
0.0
  0
LINE
  5
75EF
  8
0
 10
234.70764973081049
 20
43.165181742881437
 30
0.0
 11
234.70764973081049
 21
44.848275945155827
 31
0.0
  0
LINE
  5
75F0
  8
0
 10
234.70764973081029
 20
44.848275945155827
 30
0.0
 11
235.285
 21
45.958369439657538
 31
0.0
  0
LINE
  5
75F1
  8
0
 10
235.285
 20
41.485200689855773
 30
0.0
 11
234.7076497308104
 21
40.963450585851852
 31
0.0
  0
LINE
  5
75F2
  8
0
 10
234.70764973081049
 20
40.963450585851852
 30
0.0
 11
234.70764973081049
 21
42.441933173427948
 31
0.0
  0
LINE
  5
75F3
  8
0
 10
234.70764973081029
 20
42.441933173427948
 30
0.0
 11
235.28500000000011
 21
43.577037310463147
 31
0.0
  0
LINE
  5
75F4
  8
0
 10
235.285
 20
39.70577817759569
 30
0.0
 11
234.7076497308104
 21
39.079849940492217
 31
0.0
  0
LINE
  5
75F5
  8
0
 10
234.70764973081009
 20
39.079849940492217
 30
0.0
 11
234.70764973081009
 21
40.337522348748259
 31
0.0
  0
LINE
  5
75F6
  8
0
 10
234.70764973081029
 20
40.337522348748259
 30
0.0
 11
235.285
 21
41.485200689855709
 31
0.0
  0
LINE
  5
75F7
  8
0
 10
235.285
 20
38.258265499095337
 30
0.0
 11
234.70764973081029
 21
37.535016929641891
 31
0.0
  0
LINE
  5
75F8
  8
0
 10
234.70764973080861
 20
37.535016929641863
 30
0.0
 11
234.70764973080861
 21
38.558099836488182
 31
0.0
  0
LINE
  5
75F9
  8
0
 10
234.70764973081029
 20
38.558099836488182
 30
0.0
 11
235.285
 21
39.705778177595633
 31
0.0
  0
LINE
  5
75FA
  8
0
 10
235.28500000000011
 20
37.158521906171892
 30
0.0
 11
234.70764973081029
 21
36.345877067044917
 31
0.0
  0
LINE
  5
75FB
  8
0
 10
234.70764973080509
 20
36.345877067044917
 30
0.0
 11
234.70764973080509
 21
37.123161362060117
 31
0.0
  0
LINE
  5
75FC
  8
0
 10
234.70764973081029
 20
37.123161362060117
 30
0.0
 11
235.285
 21
38.258265499095323
 31
0.0
  0
LINE
  5
75FD
  8
0
 10
235.285
 20
36.418596419765507
 30
0.0
 11
234.70764973081029
 21
35.525458817879368
 31
0.0
  0
LINE
  5
75FE
  8
0
 10
234.7076497308058
 20
35.525458817879368
 30
0.0
 11
234.7076497308058
 21
36.048428411670152
 31
0.0
  0
LINE
  5
75FF
  8
0
 10
234.70764973081029
 20
36.048428411670152
 30
0.0
 11
235.285
 21
37.158521906171828
 31
0.0
  0
LINE
  5
7600
  8
0
 10
235.285
 20
36.04659581834467
 30
0.0
 11
234.70764973081029
 21
35.082750856166761
 31
0.0
  0
LINE
  5
7601
  8
0
 10
234.7076497308131
 20
35.082750856166761
 30
0.0
 11
234.7076497308131
 21
35.345675984425
 31
0.0
  0
LINE
  5
7602
  8
0
 10
234.70764973081029
 20
35.345675984425
 30
0.0
 11
235.285
 21
36.418596419765478
 31
0.0
  0
LINE
  5
7603
  8
0
 10
234.707649730816
 20
35.000000000000163
 30
0.0
 11
234.707649730816
 21
35.02260358297805
 31
0.0
  0
LINE
  5
7604
  8
0
 10
234.70764973081029
 20
35.02260358297805
 30
0.0
 11
235.285
 21
36.04659581834467
 31
0.0
  0
LINE
  5
7605
  8
0
 10
231.3273502691838
 20
35.02260358297805
 30
0.0
 11
231.3273502691838
 21
35.000000000000163
 31
0.0
  0
LINE
  5
7606
  8
0
 10
230.75
 20
36.046595818344642
 30
0.0
 11
231.32735026918951
 21
35.02260358297805
 31
0.0
  0
LINE
  5
7607
  8
0
 10
231.32735026918689
 20
35.345675984425
 30
0.0
 11
231.32735026918689
 21
35.082750856166761
 31
0.0
  0
LINE
  5
7608
  8
0
 10
231.32735026918951
 20
35.082750856166761
 30
0.0
 11
230.75
 21
36.046595818344642
 31
0.0
  0
LINE
  5
7609
  8
0
 10
230.75
 20
36.41859641976545
 30
0.0
 11
231.32735026918971
 21
35.345675984425
 31
0.0
  0
LINE
  5
760A
  8
0
 10
231.3273502691942
 20
36.048428411670152
 30
0.0
 11
231.3273502691942
 21
35.525458817879368
 31
0.0
  0
LINE
  5
760B
  8
0
 10
231.32735026918971
 20
35.525458817879368
 30
0.0
 11
230.75
 21
36.41859641976545
 31
0.0
  0
LINE
  5
760C
  8
0
 10
230.75
 20
37.158521906171828
 30
0.0
 11
231.32735026918971
 21
36.048428411670152
 31
0.0
  0
LINE
  5
760D
  8
0
 10
231.32735026919499
 20
37.123161362060117
 30
0.0
 11
231.32735026919499
 21
36.345877067044917
 31
0.0
  0
LINE
  5
760E
  8
0
 10
231.32735026918971
 20
36.345877067044917
 30
0.0
 11
230.75
 21
37.158521906171828
 31
0.0
  0
LINE
  5
760F
  8
0
 10
230.75
 20
38.258265499095288
 30
0.0
 11
231.32735026918971
 21
37.123161362060117
 31
0.0
  0
LINE
  5
7610
  8
0
 10
231.32735026919141
 20
38.558099836488182
 30
0.0
 11
231.32735026919141
 21
37.535016929641863
 31
0.0
  0
LINE
  5
7611
  8
0
 10
231.32735026918971
 20
37.535016929641863
 30
0.0
 11
230.75
 21
38.258265499095323
 31
0.0
  0
LINE
  5
7612
  8
0
 10
230.75
 20
39.705778177595633
 30
0.0
 11
231.32735026918971
 21
38.558099836488182
 31
0.0
  0
LINE
  5
7613
  8
0
 10
231.32735026918999
 20
40.337522348748259
 30
0.0
 11
231.32735026918999
 21
39.079849940492217
 31
0.0
  0
LINE
  5
7614
  8
0
 10
231.32735026918951
 20
39.079849940492217
 30
0.0
 11
230.75
 21
39.70577817759569
 31
0.0
  0
LINE
  5
7615
  8
0
 10
230.75
 20
41.485200689855709
 30
0.0
 11
231.32735026918971
 21
40.337522348748259
 31
0.0
  0
LINE
  5
7616
  8
0
 10
231.32735026918951
 20
42.441933173427948
 30
0.0
 11
231.32735026918951
 21
40.963450585851852
 31
0.0
  0
LINE
  5
7617
  8
0
 10
231.32735026918951
 20
40.963450585851852
 30
0.0
 11
230.75
 21
41.485200689855773
 31
0.0
  0
LINE
  5
7618
  8
0
 10
230.75
 20
43.577037310463133
 30
0.0
 11
231.32735026918971
 21
42.441933173427948
 31
0.0
  0
LINE
  5
7619
  8
0
 10
231.3273502691894
 20
44.848275945155827
 30
0.0
 11
231.3273502691894
 21
43.165181742881437
 31
0.0
  0
LINE
  5
761A
  8
0
 10
231.32735026918951
 20
43.165181742881437
 30
0.0
 11
230.75
 21
43.577037310463183
 31
0.0
  0
LINE
  5
761B
  8
0
 10
230.75
 20
45.958369439657517
 30
0.0
 11
231.32735026918951
 21
44.848275945155827
 31
0.0
  0
LINE
  5
761C
  8
0
 10
231.3273502691905
 20
47.53018626896521
 30
0.0
 11
231.3273502691905
 21
45.660920784282787
 31
0.0
  0
LINE
  5
761D
  8
0
 10
231.32735026918971
 20
45.660920784282787
 30
0.0
 11
230.75
 21
45.958369439657538
 31
0.0
  0
LINE
  5
761E
  8
0
 10
230.75
 20
48.603106704305631
 30
0.0
 11
231.32735026918971
 21
47.53018626896521
 31
0.0
  0
LINE
  5
761F
  8
0
 10
231.32735026918951
 20
50.458280574122639
 30
0.0
 11
231.32735026918951
 21
48.423323870851348
 31
0.0
  0
LINE
  5
7620
  8
0
 10
231.32735026918951
 20
48.423323870851348
 30
0.0
 11
230.75
 21
48.603106704305709
 31
0.0
  0
LINE
  5
7621
  8
0
 10
230.75
 20
51.482272809489203
 30
0.0
 11
231.32735026918971
 21
50.458280574122639
 31
0.0
  0
LINE
  5
7622
  8
0
 10
231.32735026919079
 20
53.600478046677623
 30
0.0
 11
231.32735026919079
 21
51.422125536300577
 31
0.0
  0
LINE
  5
7623
  8
0
 10
231.32735026918951
 20
51.422125536300577
 30
0.0
 11
230.75
 21
51.48227280948926
 31
0.0
  0
LINE
  5
7624
  8
0
 10
230.75
 20
54.564323008855538
 30
0.0
 11
231.32735026918971
 21
53.600478046677623
 31
0.0
  0
LINE
  5
7625
  8
0
 10
231.3273502691913
 20
56.922352113573858
 30
0.0
 11
231.3273502691913
 21
54.624470282044271
 31
0.0
  0
LINE
  5
7626
  8
0
 10
231.32735026918971
 20
54.624470282044271
 30
0.0
 11
230.75
 21
54.564323008855588
 31
0.0
  0
LINE
  5
7627
  8
0
 10
230.75
 20
57.815489715459918
 30
0.0
 11
231.32735026918971
 21
56.922352113573858
 31
0.0
  0
LINE
  5
7628
  8
0
 10
231.32735026919079
 20
60.387507627387542
 30
0.0
 11
231.32735026919079
 21
57.995272548914372
 31
0.0
  0
LINE
  5
7629
  8
0
 10
231.32735026918951
 20
57.995272548914372
 30
0.0
 11
230.75
 21
57.815489715459996
 31
0.0
  0
LINE
  5
762A
  8
0
 10
230.75
 20
61.20015246651441
 30
0.0
 11
231.32735026918951
 21
60.387507627387542
 31
0.0
  0
LINE
  5
762B
  8
0
 10
231.32735026919431
 20
63.957979619178893
 30
0.0
 11
231.32735026919431
 21
61.497601121889247
 31
0.0
  0
LINE
  5
762C
  8
0
 10
231.32735026918971
 20
61.497601121889247
 30
0.0
 11
230.75
 21
61.200152466514488
 31
0.0
  0
LINE
  5
762D
  8
0
 10
230.75
 20
64.681228188632275
 30
0.0
 11
231.32735026918971
 21
63.957979619178893
 31
0.0
  0
LINE
  5
762E
  8
0
 10
231.3273502691936
 20
67.59464925063655
 30
0.0
 11
231.3273502691936
 21
65.093083756214085
 31
0.0
  0
LINE
  5
762F
  8
0
 10
231.32735026918971
 20
65.093083756214085
 30
0.0
 11
230.75
 21
64.681228188632346
 31
0.0
  0
LINE
  5
7630
  8
0
 10
230.75
 20
68.220577487740044
 30
0.0
 11
231.32735026918951
 21
67.59464925063655
 31
0.0
  0
LINE
  5
7631
  8
0
 10
231.3273502691907
 20
71.257672408256255
 30
0.0
 11
231.3273502691907
 21
68.742327591744058
 31
0.0
  0
LINE
  5
7632
  8
0
 10
231.32735026918951
 20
68.742327591744058
 30
0.0
 11
230.75
 21
68.220577487740101
 31
0.0
  0
LINE
  5
7633
  8
0
 10
230.75
 20
71.779422512260211
 30
0.0
 11
231.32735026918971
 21
71.257672408256255
 31
0.0
  0
LINE
  5
7634
  8
0
 10
230.75
 20
75.318771811367995
 30
0.0
 11
231.32735026918971
 21
74.906916243786256
 31
0.0
  0
LINE
  5
7635
  8
0
 10
231.32735026919531
 20
74.906916243786256
 30
0.0
 11
231.32735026919531
 21
72.405350749363791
 31
0.0
  0
LINE
  5
7636
  8
0
 10
231.32735026918971
 20
72.405350749363791
 30
0.0
 11
230.75
 21
71.779422512260268
 31
0.0
  0
LINE
  5
7637
  8
0
 10
230.75
 20
78.799847533485845
 30
0.0
 11
231.32735026918971
 21
78.502398878111094
 31
0.0
  0
LINE
  5
7638
  8
0
 10
231.32735026918689
 20
78.502398878111094
 30
0.0
 11
231.32735026918689
 21
76.042020380821455
 31
0.0
  0
LINE
  5
7639
  8
0
 10
231.32735026918951
 20
76.042020380821455
 30
0.0
 11
230.75
 21
75.318771811368023
 31
0.0
  0
LINE
  5
763A
  8
0
 10
230.75
 20
82.184510284540366
 30
0.0
 11
231.32735026918971
 21
82.004727451085998
 31
0.0
  0
LINE
  5
763B
  8
0
 10
231.32735026919431
 20
82.004727451085998
 30
0.0
 11
231.32735026919431
 21
79.612492372612806
 31
0.0
  0
LINE
  5
763C
  8
0
 10
231.32735026918951
 20
79.612492372612806
 30
0.0
 11
230.75
 21
78.799847533485902
 31
0.0
  0
LINE
  5
763D
  8
0
 10
230.75
 20
85.435676991144746
 30
0.0
 11
231.32735026918971
 21
85.37552971795607
 31
0.0
  0
LINE
  5
763E
  8
0
 10
231.3273502691936
 20
85.37552971795607
 30
0.0
 11
231.3273502691936
 21
83.077647886426476
 31
0.0
  0
LINE
  5
763F
  8
0
 10
231.32735026918971
 20
83.077647886426476
 30
0.0
 11
230.75
 21
82.184510284540394
 31
0.0
  0
LINE
  5
7640
  8
0
 10
230.75
 20
88.517727190511053
 30
0.0
 11
231.32735026918971
 21
88.577874463699743
 31
0.0
  0
LINE
  5
7641
  8
0
 10
231.3273502691878
 20
88.577874463699743
 30
0.0
 11
231.3273502691878
 21
86.399521953322676
 31
0.0
  0
LINE
  5
7642
  8
0
 10
231.32735026918951
 20
86.399521953322676
 30
0.0
 11
230.75
 21
85.435676991144746
 31
0.0
  0
LINE
  5
7643
  8
0
 10
230.75
 20
91.396893295694625
 30
0.0
 11
231.32735026918951
 21
91.576676129149021
 31
0.0
  0
LINE
  5
7644
  8
0
 10
231.32735026918519
 20
91.576676129149021
 30
0.0
 11
231.32735026918519
 21
89.541719425877702
 31
0.0
  0
LINE
  5
7645
  8
0
 10
231.32735026918971
 20
89.541719425877702
 30
0.0
 11
230.75
 21
88.517727190511081
 31
0.0
  0
LINE
  5
7646
  8
0
 10
230.75
 20
94.041630560342753
 30
0.0
 11
231.32735026918971
 21
94.339079215717547
 31
0.0
  0
LINE
  5
7647
  8
0
 10
231.3273502691905
 20
94.339079215717547
 30
0.0
 11
231.3273502691905
 21
92.469813731035103
 31
0.0
  0
LINE
  5
7648
  8
0
 10
231.32735026918951
 20
92.469813731035103
 30
0.0
 11
230.75
 21
91.396893295694653
 31
0.0
  0
LINE
  5
7649
  8
0
 10
230.75
 20
96.422962689537158
 30
0.0
 11
231.32735026918971
 21
96.834818257118897
 31
0.0
  0
LINE
  5
764A
  8
0
 10
231.3273502691915
 20
96.834818257118897
 30
0.0
 11
231.3273502691915
 21
95.151724054844507
 31
0.0
  0
LINE
  5
764B
  8
0
 10
231.32735026918971
 20
95.151724054844507
 30
0.0
 11
230.75
 21
94.041630560342753
 31
0.0
  0
LINE
  5
764C
  8
0
 10
230.75
 20
98.514799310144568
 30
0.0
 11
231.32735026918971
 21
99.036549414148567
 31
0.0
  0
LINE
  5
764D
  8
0
 10
231.32735026919451
 20
99.036549414148567
 30
0.0
 11
231.32735026919451
 21
97.558066826572372
 31
0.0
  0
LINE
  5
764E
  8
0
 10
231.32735026918971
 20
97.558066826572372
 30
0.0
 11
230.75
 21
96.422962689537187
 31
0.0
  0
LINE
  5
764F
  8
0
 10
230.75
 20
100.29422182240469
 30
0.0
 11
231.32735026918951
 21
100.9201500595082
 31
0.0
  0
LINE
  5
7650
  8
0
 10
231.327350269189
 20
100.9201500595082
 30
0.0
 11
231.327350269189
 21
99.662477651252047
 31
0.0
  0
LINE
  5
7651
  8
0
 10
231.32735026918951
 20
99.662477651252047
 30
0.0
 11
230.75
 21
98.514799310144596
 31
0.0
  0
LINE
  5
7652
  8
0
 10
230.75
 20
101.741734500905
 30
0.0
 11
231.32735026918951
 21
102.4649830703584
 31
0.0
  0
LINE
  5
7653
  8
0
 10
231.32735026918931
 20
102.4649830703584
 30
0.0
 11
231.32735026918931
 21
101.4419001635121
 31
0.0
  0
LINE
  5
7654
  8
0
 10
231.32735026918951
 20
101.4419001635121
 30
0.0
 11
230.75
 21
100.29422182240469
 31
0.0
  0
LINE
  5
7655
  8
0
 10
230.75
 20
102.8414780938285
 30
0.0
 11
231.32735026918971
 21
103.6541229329554
 31
0.0
  0
LINE
  5
7656
  8
0
 10
231.3273502691886
 20
103.6541229329554
 30
0.0
 11
231.3273502691886
 21
102.8768386379402
 31
0.0
  0
LINE
  5
7657
  8
0
 10
231.32735026918971
 20
102.8768386379402
 30
0.0
 11
230.75
 21
101.741734500905
 31
0.0
  0
LINE
  5
7658
  8
0
 10
230.75
 20
103.58140358023481
 30
0.0
 11
231.32735026918971
 21
104.4745411821209
 31
0.0
  0
LINE
  5
7659
  8
0
 10
231.32735026918829
 20
104.4745411821209
 30
0.0
 11
231.32735026918829
 21
103.9515715883301
 31
0.0
  0
LINE
  5
765A
  8
0
 10
231.32735026918951
 20
103.9515715883301
 30
0.0
 11
230.75
 21
102.8414780938285
 31
0.0
  0
LINE
  5
765B
  8
0
 10
230.75
 20
103.9534041816556
 30
0.0
 11
231.32735026918971
 21
104.9172491438336
 31
0.0
  0
LINE
  5
765C
  8
0
 10
231.32735026919181
 20
104.9172491438336
 30
0.0
 11
231.32735026919181
 21
104.6543240155753
 31
0.0
  0
LINE
  5
765D
  8
0
 10
231.32735026918971
 20
104.6543240155753
 30
0.0
 11
230.75
 21
103.58140358023481
 31
0.0
  0
LINE
  5
765E
  8
0
 10
231.32735026918809
 20
105.0000000000002
 30
0.0
 11
231.32735026918809
 21
104.97739641702231
 31
0.0
  0
LINE
  5
765F
  8
0
 10
231.32735026918971
 20
104.97739641702231
 30
0.0
 11
230.75
 21
103.9534041816556
 31
0.0
  0
LINE
  5
7660
  8
0
 10
230.17264973081191
 20
104.97739641702231
 30
0.0
 11
230.17264973081191
 21
105.0000000000002
 31
0.0
  0
LINE
  5
7661
  8
0
 10
230.75
 20
36.000000000000163
 30
0.0
 11
230.75
 21
104.0000000000001
 31
0.0
  0
LINE
  5
7662
  8
0
 10
230.75
 20
103.9534041816556
 30
0.0
 11
230.17264973081029
 21
104.97739641702231
 31
0.0
  0
LINE
  5
7663
  8
0
 10
230.17264973080819
 20
104.6543240155753
 30
0.0
 11
230.17264973080819
 21
104.9172491438336
 31
0.0
  0
LINE
  5
7664
  8
0
 10
230.17264973081029
 20
104.9172491438336
 30
0.0
 11
230.75
 21
103.9534041816556
 31
0.0
  0
LINE
  5
7665
  8
0
 10
230.75
 20
103.58140358023481
 30
0.0
 11
230.17264973081029
 21
104.6543240155753
 31
0.0
  0
LINE
  5
7666
  8
0
 10
230.17264973081171
 20
103.9515715883301
 30
0.0
 11
230.17264973081171
 21
104.4745411821209
 31
0.0
  0
LINE
  5
7667
  8
0
 10
230.17264973081029
 20
104.4745411821209
 30
0.0
 11
230.75
 21
103.58140358023481
 31
0.0
  0
LINE
  5
7668
  8
0
 10
230.75
 20
102.8414780938285
 30
0.0
 11
230.17264973081049
 21
103.9515715883301
 31
0.0
  0
LINE
  5
7669
  8
0
 10
230.1726497308114
 20
102.8768386379402
 30
0.0
 11
230.1726497308114
 21
103.6541229329554
 31
0.0
  0
LINE
  5
766A
  8
0
 10
230.17264973081029
 20
103.6541229329554
 30
0.0
 11
230.75
 21
102.8414780938285
 31
0.0
  0
LINE
  5
766B
  8
0
 10
230.75
 20
101.741734500905
 30
0.0
 11
230.17264973081029
 21
102.8768386379402
 31
0.0
  0
LINE
  5
766C
  8
0
 10
230.17264973081069
 20
101.4419001635121
 30
0.0
 11
230.17264973081069
 21
102.4649830703584
 31
0.0
  0
LINE
  5
766D
  8
0
 10
230.17264973081049
 20
102.4649830703584
 30
0.0
 11
230.75
 21
101.741734500905
 31
0.0
  0
LINE
  5
766E
  8
0
 10
230.75
 20
100.29422182240469
 30
0.0
 11
230.17264973081049
 21
101.4419001635121
 31
0.0
  0
LINE
  5
766F
  8
0
 10
230.172649730811
 20
99.662477651252047
 30
0.0
 11
230.172649730811
 21
100.9201500595082
 31
0.0
  0
LINE
  5
7670
  8
0
 10
230.17264973081049
 20
100.9201500595082
 30
0.0
 11
230.75
 21
100.29422182240469
 31
0.0
  0
LINE
  5
7671
  8
0
 10
230.75
 20
98.514799310144568
 30
0.0
 11
230.17264973081049
 21
99.662477651252047
 31
0.0
  0
LINE
  5
7672
  8
0
 10
230.17264973080549
 20
97.558066826572372
 30
0.0
 11
230.17264973080549
 21
99.036549414148567
 31
0.0
  0
LINE
  5
7673
  8
0
 10
230.17264973081029
 20
99.036549414148567
 30
0.0
 11
230.75
 21
98.514799310144568
 31
0.0
  0
LINE
  5
7674
  8
0
 10
230.75
 20
96.422962689537187
 30
0.0
 11
230.17264973081029
 21
97.558066826572372
 31
0.0
  0
LINE
  5
7675
  8
0
 10
230.1726497308085
 20
95.151724054844507
 30
0.0
 11
230.1726497308085
 21
96.834818257118897
 31
0.0
  0
LINE
  5
7676
  8
0
 10
230.17264973081029
 20
96.834818257118897
 30
0.0
 11
230.75
 21
96.422962689537158
 31
0.0
  0
LINE
  5
7677
  8
0
 10
230.75
 20
94.041630560342753
 30
0.0
 11
230.17264973081029
 21
95.151724054844507
 31
0.0
  0
LINE
  5
7678
  8
0
 10
230.1726497308095
 20
92.469813731035103
 30
0.0
 11
230.1726497308095
 21
94.339079215717547
 31
0.0
  0
LINE
  5
7679
  8
0
 10
230.17264973081029
 20
94.339079215717547
 30
0.0
 11
230.75
 21
94.041630560342753
 31
0.0
  0
LINE
  5
767A
  8
0
 10
230.75
 20
91.396893295694653
 30
0.0
 11
230.17264973081049
 21
92.469813731035103
 31
0.0
  0
LINE
  5
767B
  8
0
 10
230.17264973081481
 20
89.541719425877702
 30
0.0
 11
230.17264973081481
 21
91.576676129149021
 31
0.0
  0
LINE
  5
767C
  8
0
 10
230.17264973081049
 20
91.576676129149021
 30
0.0
 11
230.75
 21
91.396893295694625
 31
0.0
  0
LINE
  5
767D
  8
0
 10
230.75
 20
88.517727190511053
 30
0.0
 11
230.17264973081029
 21
89.541719425877702
 31
0.0
  0
LINE
  5
767E
  8
0
 10
230.1726497308122
 20
86.399521953322676
 30
0.0
 11
230.1726497308122
 21
88.577874463699743
 31
0.0
  0
LINE
  5
767F
  8
0
 10
230.17264973081049
 20
88.577874463699743
 30
0.0
 11
230.75
 21
88.517727190511053
 31
0.0
  0
LINE
  5
7680
  8
0
 10
230.75
 20
85.435676991144774
 30
0.0
 11
230.17264973081049
 21
86.399521953322662
 31
0.0
  0
LINE
  5
7681
  8
0
 10
230.1726497308064
 20
83.077647886426476
 30
0.0
 11
230.1726497308064
 21
85.37552971795607
 31
0.0
  0
LINE
  5
7682
  8
0
 10
230.17264973081029
 20
85.37552971795607
 30
0.0
 11
230.75
 21
85.435676991144746
 31
0.0
  0
LINE
  5
7683
  8
0
 10
230.75
 20
82.184510284540394
 30
0.0
 11
230.17264973081029
 21
83.077647886426476
 31
0.0
  0
LINE
  5
7684
  8
0
 10
230.17264973080569
 20
79.612492372612806
 30
0.0
 11
230.17264973080569
 21
82.004727451085998
 31
0.0
  0
LINE
  5
7685
  8
0
 10
230.17264973081029
 20
82.004727451085998
 30
0.0
 11
230.75
 21
82.184510284540366
 31
0.0
  0
LINE
  5
7686
  8
0
 10
230.75
 20
78.799847533485902
 30
0.0
 11
230.17264973081049
 21
79.612492372612806
 31
0.0
  0
LINE
  5
7687
  8
0
 10
230.17264973081311
 20
76.042020380821455
 30
0.0
 11
230.17264973081311
 21
78.502398878111094
 31
0.0
  0
LINE
  5
7688
  8
0
 10
230.17264973081029
 20
78.502398878111094
 30
0.0
 11
230.75
 21
78.799847533485845
 31
0.0
  0
LINE
  5
7689
  8
0
 10
230.75
 20
75.318771811368023
 30
0.0
 11
230.17264973081049
 21
76.042020380821455
 31
0.0
  0
LINE
  5
768A
  8
0
 10
230.17264973080469
 20
72.405350749363791
 30
0.0
 11
230.17264973080469
 21
74.906916243786256
 31
0.0
  0
LINE
  5
768B
  8
0
 10
230.17264973081029
 20
74.906916243786256
 30
0.0
 11
230.75
 21
75.318771811367995
 31
0.0
  0
LINE
  5
768C
  8
0
 10
230.75
 20
71.779422512260268
 30
0.0
 11
230.17264973081029
 21
72.405350749363791
 31
0.0
  0
LINE
  5
768D
  8
0
 10
230.75
 20
68.220577487740101
 30
0.0
 11
230.17264973081049
 21
68.742327591744058
 31
0.0
  0
LINE
  5
768E
  8
0
 10
230.1726497308093
 20
68.742327591744058
 30
0.0
 11
230.1726497308093
 21
71.257672408256255
 31
0.0
  0
LINE
  5
768F
  8
0
 10
230.17264973081029
 20
71.257672408256255
 30
0.0
 11
230.75
 21
71.779422512260211
 31
0.0
  0
LINE
  5
7690
  8
0
 10
230.75
 20
64.681228188632346
 30
0.0
 11
230.17264973081029
 21
65.093083756214085
 31
0.0
  0
LINE
  5
7691
  8
0
 10
230.1726497308064
 20
65.093083756214085
 30
0.0
 11
230.1726497308064
 21
67.59464925063655
 31
0.0
  0
LINE
  5
7692
  8
0
 10
230.17264973081049
 20
67.59464925063655
 30
0.0
 11
230.75
 21
68.220577487740044
 31
0.0
  0
LINE
  5
7693
  8
0
 10
230.75
 20
61.200152466514488
 30
0.0
 11
230.17264973081029
 21
61.497601121889247
 31
0.0
  0
LINE
  5
7694
  8
0
 10
230.17264973080569
 20
61.497601121889247
 30
0.0
 11
230.17264973080569
 21
63.957979619178893
 31
0.0
  0
LINE
  5
7695
  8
0
 10
230.17264973081049
 20
63.957979619178893
 30
0.0
 11
230.75
 21
64.681228188632275
 31
0.0
  0
LINE
  5
7696
  8
0
 10
230.75
 20
57.815489715459996
 30
0.0
 11
230.17264973081049
 21
57.995272548914372
 31
0.0
  0
LINE
  5
7697
  8
0
 10
230.17264973080921
 20
57.995272548914372
 30
0.0
 11
230.17264973080921
 21
60.387507627387542
 31
0.0
  0
LINE
  5
7698
  8
0
 10
230.17264973081049
 20
60.387507627387542
 30
0.0
 11
230.75
 21
61.20015246651441
 31
0.0
  0
LINE
  5
7699
  8
0
 10
230.75
 20
54.564323008855588
 30
0.0
 11
230.17264973081029
 21
54.624470282044271
 31
0.0
  0
LINE
  5
769A
  8
0
 10
230.1726497308087
 20
54.624470282044271
 30
0.0
 11
230.1726497308087
 21
56.922352113573858
 31
0.0
  0
LINE
  5
769B
  8
0
 10
230.17264973081029
 20
56.922352113573858
 30
0.0
 11
230.75
 21
57.815489715459918
 31
0.0
  0
LINE
  5
769C
  8
0
 10
230.75
 20
51.48227280948926
 30
0.0
 11
230.17264973081049
 21
51.422125536300577
 31
0.0
  0
LINE
  5
769D
  8
0
 10
230.17264973080921
 20
51.422125536300577
 30
0.0
 11
230.17264973080921
 21
53.600478046677623
 31
0.0
  0
LINE
  5
769E
  8
0
 10
230.17264973081029
 20
53.600478046677623
 30
0.0
 11
230.75
 21
54.564323008855538
 31
0.0
  0
LINE
  5
769F
  8
0
 10
230.75
 20
48.603106704305709
 30
0.0
 11
230.17264973081049
 21
48.423323870851348
 31
0.0
  0
LINE
  5
76A0
  8
0
 10
230.17264973081049
 20
48.423323870851348
 30
0.0
 11
230.17264973081049
 21
50.458280574122639
 31
0.0
  0
LINE
  5
76A1
  8
0
 10
230.17264973081049
 20
50.458280574122639
 30
0.0
 11
230.75
 21
51.482272809489203
 31
0.0
  0
LINE
  5
76A2
  8
0
 10
230.75
 20
45.958369439657538
 30
0.0
 11
230.17264973081029
 21
45.660920784282787
 31
0.0
  0
LINE
  5
76A3
  8
0
 10
230.1726497308095
 20
45.660920784282787
 30
0.0
 11
230.1726497308095
 21
47.53018626896521
 31
0.0
  0
LINE
  5
76A4
  8
0
 10
230.17264973081029
 20
47.53018626896521
 30
0.0
 11
230.75
 21
48.603106704305659
 31
0.0
  0
LINE
  5
76A5
  8
0
 10
230.75
 20
43.577037310463183
 30
0.0
 11
230.17264973081049
 21
43.165181742881437
 31
0.0
  0
LINE
  5
76A6
  8
0
 10
230.1726497308106
 20
43.165181742881437
 30
0.0
 11
230.1726497308106
 21
44.848275945155827
 31
0.0
  0
LINE
  5
76A7
  8
0
 10
230.17264973081029
 20
44.848275945155827
 30
0.0
 11
230.75
 21
45.958369439657517
 31
0.0
  0
LINE
  5
76A8
  8
0
 10
230.75
 20
41.485200689855773
 30
0.0
 11
230.17264973081049
 21
40.963450585851852
 31
0.0
  0
LINE
  5
76A9
  8
0
 10
230.17264973081049
 20
40.963450585851852
 30
0.0
 11
230.17264973081049
 21
42.441933173427948
 31
0.0
  0
LINE
  5
76AA
  8
0
 10
230.17264973081029
 20
42.441933173427948
 30
0.0
 11
230.75
 21
43.577037310463133
 31
0.0
  0
LINE
  5
76AB
  8
0
 10
230.75
 20
39.70577817759569
 30
0.0
 11
230.17264973081049
 21
39.079849940492217
 31
0.0
  0
LINE
  5
76AC
  8
0
 10
230.17264973081001
 20
39.079849940492217
 30
0.0
 11
230.17264973081001
 21
40.337522348748259
 31
0.0
  0
LINE
  5
76AD
  8
0
 10
230.17264973081029
 20
40.337522348748259
 30
0.0
 11
230.75
 21
41.485200689855709
 31
0.0
  0
LINE
  5
76AE
  8
0
 10
230.75
 20
38.258265499095323
 30
0.0
 11
230.17264973081029
 21
37.535016929641863
 31
0.0
  0
LINE
  5
76AF
  8
0
 10
230.1726497308087
 20
37.535016929641863
 30
0.0
 11
230.1726497308087
 21
38.558099836488182
 31
0.0
  0
LINE
  5
76B0
  8
0
 10
230.17264973081029
 20
38.558099836488182
 30
0.0
 11
230.75
 21
39.705778177595633
 31
0.0
  0
LINE
  5
76B1
  8
0
 10
230.75
 20
37.158521906171828
 30
0.0
 11
230.17264973081029
 21
36.345877067044917
 31
0.0
  0
LINE
  5
76B2
  8
0
 10
230.17264973080501
 20
36.345877067044917
 30
0.0
 11
230.17264973080501
 21
37.123161362060117
 31
0.0
  0
LINE
  5
76B3
  8
0
 10
230.17264973081049
 20
37.123161362060117
 30
0.0
 11
230.75
 21
38.258265499095288
 31
0.0
  0
LINE
  5
76B4
  8
0
 10
230.75
 20
36.41859641976545
 30
0.0
 11
230.17264973081029
 21
35.525458817879368
 31
0.0
  0
LINE
  5
76B5
  8
0
 10
230.1726497308058
 20
35.525458817879368
 30
0.0
 11
230.1726497308058
 21
36.048428411670152
 31
0.0
  0
LINE
  5
76B6
  8
0
 10
230.17264973081029
 20
36.048428411670152
 30
0.0
 11
230.75
 21
37.158521906171828
 31
0.0
  0
LINE
  5
76B7
  8
0
 10
230.75
 20
36.046595818344642
 30
0.0
 11
230.17264973081049
 21
35.082750856166761
 31
0.0
  0
LINE
  5
76B8
  8
0
 10
230.17264973081311
 20
35.082750856166761
 30
0.0
 11
230.17264973081311
 21
35.345675984425
 31
0.0
  0
LINE
  5
76B9
  8
0
 10
230.17264973081029
 20
35.345675984425
 30
0.0
 11
230.75
 21
36.41859641976545
 31
0.0
  0
LINE
  5
76BA
  8
0
 10
230.1726497308162
 20
35.000000000000163
 30
0.0
 11
230.1726497308162
 21
35.02260358297805
 31
0.0
  0
LINE
  5
76BB
  8
0
 10
230.17264973081049
 20
35.02260358297805
 30
0.0
 11
230.75
 21
36.046595818344642
 31
0.0
  0
LINE
  5
76BC
  8
0
 10
226.792350269184
 20
35.02260358297805
 30
0.0
 11
226.792350269184
 21
35.000000000000163
 31
0.0
  0
LINE
  5
76BD
  8
0
 10
226.21499999999989
 20
36.046595818344613
 30
0.0
 11
226.79235026918971
 21
35.02260358297805
 31
0.0
  0
LINE
  5
76BE
  8
0
 10
226.79235026918701
 20
35.345675984425
 30
0.0
 11
226.79235026918701
 21
35.082750856166761
 31
0.0
  0
LINE
  5
76BF
  8
0
 10
226.79235026918971
 20
35.082750856166761
 30
0.0
 11
226.21499999999989
 21
36.046595818344642
 31
0.0
  0
LINE
  5
76C0
  8
0
 10
226.21499999999989
 20
36.41859641976545
 30
0.0
 11
226.79235026918971
 21
35.345675984425
 31
0.0
  0
LINE
  5
76C1
  8
0
 10
226.7923502691942
 20
36.048428411670152
 30
0.0
 11
226.7923502691942
 21
35.525458817879368
 31
0.0
  0
LINE
  5
76C2
  8
0
 10
226.79235026918971
 20
35.525458817879368
 30
0.0
 11
226.21499999999989
 21
36.41859641976545
 31
0.0
  0
LINE
  5
76C3
  8
0
 10
226.21499999999989
 20
37.158521906171799
 30
0.0
 11
226.79235026918971
 21
36.048428411670152
 31
0.0
  0
LINE
  5
76C4
  8
0
 10
226.79235026919491
 20
37.123161362060117
 30
0.0
 11
226.79235026919491
 21
36.345877067044917
 31
0.0
  0
LINE
  5
76C5
  8
0
 10
226.79235026918971
 20
36.345877067044917
 30
0.0
 11
226.21499999999989
 21
37.158521906171828
 31
0.0
  0
LINE
  5
76C6
  8
0
 10
226.21499999999989
 20
38.258265499095259
 30
0.0
 11
226.79235026918971
 21
37.123161362060117
 31
0.0
  0
LINE
  5
76C7
  8
0
 10
226.79235026919139
 20
38.558099836488182
 30
0.0
 11
226.79235026919139
 21
37.535016929641863
 31
0.0
  0
LINE
  5
76C8
  8
0
 10
226.79235026918971
 20
37.535016929641863
 30
0.0
 11
226.21499999999989
 21
38.258265499095288
 31
0.0
  0
LINE
  5
76C9
  8
0
 10
226.21499999999989
 20
39.705778177595597
 30
0.0
 11
226.79235026918971
 21
38.558099836488182
 31
0.0
  0
LINE
  5
76CA
  8
0
 10
226.79235026918991
 20
40.337522348748259
 30
0.0
 11
226.79235026918991
 21
39.079849940492217
 31
0.0
  0
LINE
  5
76CB
  8
0
 10
226.7923502691896
 20
39.079849940492217
 30
0.0
 11
226.21499999999989
 21
39.70577817759569
 31
0.0
  0
LINE
  5
76CC
  8
0
 10
226.21499999999989
 20
41.485200689855709
 30
0.0
 11
226.79235026918971
 21
40.337522348748259
 31
0.0
  0
LINE
  5
76CD
  8
0
 10
226.7923502691894
 20
42.441933173427948
 30
0.0
 11
226.7923502691894
 21
40.963450585851852
 31
0.0
  0
LINE
  5
76CE
  8
0
 10
226.7923502691896
 20
40.963450585851852
 30
0.0
 11
226.21499999999989
 21
41.485200689855773
 31
0.0
  0
LINE
  5
76CF
  8
0
 10
226.21499999999989
 20
43.577037310463091
 30
0.0
 11
226.79235026918971
 21
42.441933173427948
 31
0.0
  0
LINE
  5
76D0
  8
0
 10
226.7923502691894
 20
44.848275945155827
 30
0.0
 11
226.7923502691894
 21
43.165181742881437
 31
0.0
  0
LINE
  5
76D1
  8
0
 10
226.79235026918971
 20
43.165181742881437
 30
0.0
 11
226.21499999999989
 21
43.577037310463183
 31
0.0
  0
LINE
  5
76D2
  8
0
 10
226.21499999999989
 20
45.958369439657488
 30
0.0
 11
226.79235026918971
 21
44.848275945155827
 31
0.0
  0
LINE
  5
76D3
  8
0
 10
226.79235026919039
 20
47.53018626896521
 30
0.0
 11
226.79235026919039
 21
45.660920784282787
 31
0.0
  0
LINE
  5
76D4
  8
0
 10
226.79235026918971
 20
45.660920784282787
 30
0.0
 11
226.21499999999989
 21
45.958369439657538
 31
0.0
  0
LINE
  5
76D5
  8
0
 10
226.21499999999989
 20
48.603106704305631
 30
0.0
 11
226.79235026918971
 21
47.53018626896521
 31
0.0
  0
LINE
  5
76D6
  8
0
 10
226.7923502691896
 20
50.458280574122639
 30
0.0
 11
226.7923502691896
 21
48.423323870851348
 31
0.0
  0
LINE
  5
76D7
  8
0
 10
226.79235026918971
 20
48.423323870851348
 30
0.0
 11
226.21499999999989
 21
48.603106704305709
 31
0.0
  0
LINE
  5
76D8
  8
0
 10
226.21499999999989
 20
51.482272809489203
 30
0.0
 11
226.79235026918971
 21
50.458280574122639
 31
0.0
  0
LINE
  5
76D9
  8
0
 10
226.79235026919079
 20
53.600478046677623
 30
0.0
 11
226.79235026919079
 21
51.422125536300577
 31
0.0
  0
LINE
  5
76DA
  8
0
 10
226.79235026918971
 20
51.422125536300577
 30
0.0
 11
226.21499999999989
 21
51.48227280948926
 31
0.0
  0
LINE
  5
76DB
  8
0
 10
226.21499999999989
 20
54.56432300885551
 30
0.0
 11
226.79235026918971
 21
53.600478046677623
 31
0.0
  0
LINE
  5
76DC
  8
0
 10
226.7923502691913
 20
56.922352113573858
 30
0.0
 11
226.7923502691913
 21
54.624470282044271
 31
0.0
  0
LINE
  5
76DD
  8
0
 10
226.79235026918971
 20
54.624470282044271
 30
0.0
 11
226.21499999999989
 21
54.564323008855588
 31
0.0
  0
LINE
  5
76DE
  8
0
 10
226.21499999999989
 20
57.815489715459918
 30
0.0
 11
226.79235026918971
 21
56.922352113573858
 31
0.0
  0
LINE
  5
76DF
  8
0
 10
226.79235026919079
 20
60.387507627387542
 30
0.0
 11
226.79235026919079
 21
57.995272548914372
 31
0.0
  0
LINE
  5
76E0
  8
0
 10
226.79235026918971
 20
57.995272548914372
 30
0.0
 11
226.21499999999989
 21
57.815489715459996
 31
0.0
  0
LINE
  5
76E1
  8
0
 10
226.21499999999989
 20
61.20015246651441
 30
0.0
 11
226.79235026918971
 21
60.387507627387542
 31
0.0
  0
LINE
  5
76E2
  8
0
 10
226.79235026919429
 20
63.957979619178893
 30
0.0
 11
226.79235026919429
 21
61.497601121889247
 31
0.0
  0
LINE
  5
76E3
  8
0
 10
226.79235026918971
 20
61.497601121889247
 30
0.0
 11
226.21499999999989
 21
61.200152466514488
 31
0.0
  0
LINE
  5
76E4
  8
0
 10
226.21499999999989
 20
64.681228188632261
 30
0.0
 11
226.79235026918971
 21
63.957979619178893
 31
0.0
  0
LINE
  5
76E5
  8
0
 10
226.79235026919349
 20
67.59464925063655
 30
0.0
 11
226.79235026919349
 21
65.093083756214085
 31
0.0
  0
LINE
  5
76E6
  8
0
 10
226.79235026918971
 20
65.093083756214085
 30
0.0
 11
226.21499999999989
 21
64.681228188632346
 31
0.0
  0
LINE
  5
76E7
  8
0
 10
226.21499999999989
 20
68.220577487740016
 30
0.0
 11
226.79235026918971
 21
67.59464925063655
 31
0.0
  0
LINE
  5
76E8
  8
0
 10
226.79235026919071
 20
71.257672408256255
 30
0.0
 11
226.79235026919071
 21
68.742327591744058
 31
0.0
  0
LINE
  5
76E9
  8
0
 10
226.79235026918971
 20
68.742327591744058
 30
0.0
 11
226.21499999999989
 21
68.220577487740101
 31
0.0
  0
LINE
  5
76EA
  8
0
 10
226.21499999999989
 20
71.779422512260211
 30
0.0
 11
226.79235026918971
 21
71.257672408256255
 31
0.0
  0
LINE
  5
76EB
  8
0
 10
226.21499999999989
 20
75.318771811367967
 30
0.0
 11
226.79235026918971
 21
74.906916243786256
 31
0.0
  0
LINE
  5
76EC
  8
0
 10
226.79235026919531
 20
74.906916243786256
 30
0.0
 11
226.79235026919531
 21
72.405350749363791
 31
0.0
  0
LINE
  5
76ED
  8
0
 10
226.79235026918971
 20
72.405350749363791
 30
0.0
 11
226.21499999999989
 21
71.779422512260268
 31
0.0
  0
LINE
  5
76EE
  8
0
 10
226.21499999999989
 20
78.799847533485845
 30
0.0
 11
226.79235026918971
 21
78.502398878111094
 31
0.0
  0
LINE
  5
76EF
  8
0
 10
226.79235026918701
 20
78.502398878111094
 30
0.0
 11
226.79235026918701
 21
76.042020380821455
 31
0.0
  0
LINE
  5
76F0
  8
0
 10
226.79235026918971
 20
76.042020380821455
 30
0.0
 11
226.21499999999989
 21
75.318771811368052
 31
0.0
  0
LINE
  5
76F1
  8
0
 10
226.21499999999989
 20
82.184510284540323
 30
0.0
 11
226.79235026918971
 21
82.004727451085955
 31
0.0
  0
LINE
  5
76F2
  8
0
 10
226.79235026919429
 20
82.004727451085955
 30
0.0
 11
226.79235026919429
 21
79.612492372612806
 31
0.0
  0
LINE
  5
76F3
  8
0
 10
226.7923502691896
 20
79.612492372612806
 30
0.0
 11
226.21499999999989
 21
78.799847533485902
 31
0.0
  0
LINE
  5
76F4
  8
0
 10
226.21499999999989
 20
85.435676991144746
 30
0.0
 11
226.79235026918971
 21
85.37552971795607
 31
0.0
  0
LINE
  5
76F5
  8
0
 10
226.79235026919349
 20
85.37552971795607
 30
0.0
 11
226.79235026919349
 21
83.077647886426476
 31
0.0
  0
LINE
  5
76F6
  8
0
 10
226.79235026918971
 20
83.077647886426476
 30
0.0
 11
226.21499999999989
 21
82.184510284540394
 31
0.0
  0
LINE
  5
76F7
  8
0
 10
226.21499999999989
 20
88.517727190511053
 30
0.0
 11
226.79235026918971
 21
88.577874463699743
 31
0.0
  0
LINE
  5
76F8
  8
0
 10
226.79235026918781
 20
88.577874463699743
 30
0.0
 11
226.79235026918781
 21
86.399521953322676
 31
0.0
  0
LINE
  5
76F9
  8
0
 10
226.79235026918971
 20
86.399521953322676
 30
0.0
 11
226.21499999999989
 21
85.435676991144774
 31
0.0
  0
LINE
  5
76FA
  8
0
 10
226.21499999999989
 20
91.396893295694625
 30
0.0
 11
226.79235026918971
 21
91.576676129149021
 31
0.0
  0
LINE
  5
76FB
  8
0
 10
226.79235026918511
 20
91.576676129149021
 30
0.0
 11
226.79235026918511
 21
89.541719425877702
 31
0.0
  0
LINE
  5
76FC
  8
0
 10
226.79235026918971
 20
89.541719425877702
 30
0.0
 11
226.21499999999989
 21
88.517727190511081
 31
0.0
  0
LINE
  5
76FD
  8
0
 10
226.21499999999989
 20
94.041630560342753
 30
0.0
 11
226.79235026918971
 21
94.339079215717547
 31
0.0
  0
LINE
  5
76FE
  8
0
 10
226.79235026919039
 20
94.339079215717547
 30
0.0
 11
226.79235026919039
 21
92.469813731035103
 31
0.0
  0
LINE
  5
76FF
  8
0
 10
226.79235026918971
 20
92.469813731035103
 30
0.0
 11
226.21499999999989
 21
91.396893295694653
 31
0.0
  0
LINE
  5
7700
  8
0
 10
226.21499999999989
 20
96.422962689537158
 30
0.0
 11
226.79235026918971
 21
96.834818257118897
 31
0.0
  0
LINE
  5
7701
  8
0
 10
226.7923502691915
 20
96.834818257118897
 30
0.0
 11
226.7923502691915
 21
95.151724054844465
 31
0.0
  0
LINE
  5
7702
  8
0
 10
226.79235026918971
 20
95.151724054844465
 30
0.0
 11
226.21499999999989
 21
94.041630560342753
 31
0.0
  0
LINE
  5
7703
  8
0
 10
226.21499999999989
 20
98.514799310144568
 30
0.0
 11
226.79235026918971
 21
99.036549414148567
 31
0.0
  0
LINE
  5
7704
  8
0
 10
226.79235026919449
 20
99.036549414148567
 30
0.0
 11
226.79235026919449
 21
97.558066826572372
 31
0.0
  0
LINE
  5
7705
  8
0
 10
226.79235026918971
 20
97.558066826572372
 30
0.0
 11
226.21499999999989
 21
96.422962689537187
 31
0.0
  0
LINE
  5
7706
  8
0
 10
226.21499999999989
 20
100.29422182240469
 30
0.0
 11
226.79235026918971
 21
100.9201500595082
 31
0.0
  0
LINE
  5
7707
  8
0
 10
226.792350269189
 20
100.9201500595082
 30
0.0
 11
226.792350269189
 21
99.662477651252047
 31
0.0
  0
LINE
  5
7708
  8
0
 10
226.79235026918971
 20
99.662477651252047
 30
0.0
 11
226.21499999999989
 21
98.514799310144596
 31
0.0
  0
LINE
  5
7709
  8
0
 10
226.21499999999989
 20
101.741734500905
 30
0.0
 11
226.79235026918971
 21
102.4649830703584
 31
0.0
  0
LINE
  5
770A
  8
0
 10
226.7923502691892
 20
102.4649830703584
 30
0.0
 11
226.7923502691892
 21
101.4419001635121
 31
0.0
  0
LINE
  5
770B
  8
0
 10
226.79235026918971
 20
101.4419001635121
 30
0.0
 11
226.21499999999989
 21
100.29422182240469
 31
0.0
  0
LINE
  5
770C
  8
0
 10
226.21499999999989
 20
102.8414780938285
 30
0.0
 11
226.79235026918971
 21
103.6541229329554
 31
0.0
  0
LINE
  5
770D
  8
0
 10
226.7923502691886
 20
103.6541229329554
 30
0.0
 11
226.7923502691886
 21
102.8768386379402
 31
0.0
  0
LINE
  5
770E
  8
0
 10
226.79235026918971
 20
102.8768386379402
 30
0.0
 11
226.21499999999989
 21
101.741734500905
 31
0.0
  0
LINE
  5
770F
  8
0
 10
226.21499999999989
 20
103.58140358023481
 30
0.0
 11
226.79235026918971
 21
104.4745411821209
 31
0.0
  0
LINE
  5
7710
  8
0
 10
226.79235026918829
 20
104.4745411821209
 30
0.0
 11
226.79235026918829
 21
103.9515715883301
 31
0.0
  0
LINE
  5
7711
  8
0
 10
226.79235026918971
 20
103.9515715883301
 30
0.0
 11
226.21499999999989
 21
102.8414780938285
 31
0.0
  0
LINE
  5
7712
  8
0
 10
226.21499999999989
 20
103.9534041816556
 30
0.0
 11
226.79235026918971
 21
104.9172491438336
 31
0.0
  0
LINE
  5
7713
  8
0
 10
226.79235026919201
 20
104.9172491438336
 30
0.0
 11
226.79235026919201
 21
104.6543240155753
 31
0.0
  0
LINE
  5
7714
  8
0
 10
226.79235026918971
 20
104.6543240155753
 30
0.0
 11
226.21499999999989
 21
103.58140358023481
 31
0.0
  0
LINE
  5
7715
  8
0
 10
226.79235026918809
 20
105.0000000000002
 30
0.0
 11
226.79235026918809
 21
104.97739641702231
 31
0.0
  0
LINE
  5
7716
  8
0
 10
226.79235026918971
 20
104.97739641702231
 30
0.0
 11
226.21499999999989
 21
103.9534041816556
 31
0.0
  0
LINE
  5
7717
  8
0
 10
225.637649730812
 20
104.97739641702231
 30
0.0
 11
225.637649730812
 21
105.0000000000002
 31
0.0
  0
LINE
  5
7718
  8
0
 10
226.21499999999989
 20
36.000000000000163
 30
0.0
 11
226.21499999999989
 21
104.0000000000001
 31
0.0
  0
LINE
  5
7719
  8
0
 10
226.21499999999989
 20
103.9534041816556
 30
0.0
 11
225.63764973081041
 21
104.97739641702231
 31
0.0
  0
LINE
  5
771A
  8
0
 10
225.63764973080811
 20
104.6543240155753
 30
0.0
 11
225.63764973080811
 21
104.9172491438336
 31
0.0
  0
LINE
  5
771B
  8
0
 10
225.63764973081041
 20
104.9172491438336
 30
0.0
 11
226.21499999999989
 21
103.9534041816556
 31
0.0
  0
LINE
  5
771C
  8
0
 10
226.21499999999989
 20
103.58140358023481
 30
0.0
 11
225.63764973081041
 21
104.6543240155753
 31
0.0
  0
LINE
  5
771D
  8
0
 10
225.63764973081169
 20
103.9515715883301
 30
0.0
 11
225.63764973081169
 21
104.4745411821209
 31
0.0
  0
LINE
  5
771E
  8
0
 10
225.63764973081041
 20
104.4745411821209
 30
0.0
 11
226.21499999999989
 21
103.58140358023481
 31
0.0
  0
LINE
  5
771F
  8
0
 10
226.21499999999989
 20
102.8414780938285
 30
0.0
 11
225.63764973081041
 21
103.9515715883301
 31
0.0
  0
LINE
  5
7720
  8
0
 10
225.63764973081149
 20
102.8768386379402
 30
0.0
 11
225.63764973081149
 21
103.6541229329554
 31
0.0
  0
LINE
  5
7721
  8
0
 10
225.63764973081041
 20
103.6541229329554
 30
0.0
 11
226.21499999999989
 21
102.8414780938285
 31
0.0
  0
LINE
  5
7722
  8
0
 10
226.21499999999989
 20
101.741734500905
 30
0.0
 11
225.63764973081041
 21
102.8768386379402
 31
0.0
  0
LINE
  5
7723
  8
0
 10
225.63764973081069
 20
101.4419001635121
 30
0.0
 11
225.63764973081069
 21
102.4649830703584
 31
0.0
  0
LINE
  5
7724
  8
0
 10
225.63764973081041
 20
102.4649830703584
 30
0.0
 11
226.21499999999989
 21
101.741734500905
 31
0.0
  0
LINE
  5
7725
  8
0
 10
226.21499999999989
 20
100.29422182240469
 30
0.0
 11
225.63764973081041
 21
101.4419001635121
 31
0.0
  0
LINE
  5
7726
  8
0
 10
225.63764973081109
 20
99.662477651252047
 30
0.0
 11
225.63764973081109
 21
100.9201500595082
 31
0.0
  0
LINE
  5
7727
  8
0
 10
225.63764973081041
 20
100.9201500595082
 30
0.0
 11
226.21499999999989
 21
100.29422182240469
 31
0.0
  0
LINE
  5
7728
  8
0
 10
226.21499999999989
 20
98.514799310144596
 30
0.0
 11
225.63764973081041
 21
99.662477651252047
 31
0.0
  0
LINE
  5
7729
  8
0
 10
225.63764973080549
 20
97.558066826572372
 30
0.0
 11
225.63764973080549
 21
99.036549414148567
 31
0.0
  0
LINE
  5
772A
  8
0
 10
225.63764973081041
 20
99.036549414148567
 30
0.0
 11
226.21499999999989
 21
98.514799310144568
 31
0.0
  0
LINE
  5
772B
  8
0
 10
226.21499999999989
 20
96.422962689537187
 30
0.0
 11
225.63764973081041
 21
97.558066826572372
 31
0.0
  0
LINE
  5
772C
  8
0
 10
225.63764973080859
 20
95.151724054844465
 30
0.0
 11
225.63764973080859
 21
96.834818257118897
 31
0.0
  0
LINE
  5
772D
  8
0
 10
225.63764973081041
 20
96.834818257118897
 30
0.0
 11
226.21499999999989
 21
96.422962689537158
 31
0.0
  0
LINE
  5
772E
  8
0
 10
226.21499999999989
 20
94.041630560342753
 30
0.0
 11
225.63764973081041
 21
95.151724054844465
 31
0.0
  0
LINE
  5
772F
  8
0
 10
225.63764973080961
 20
92.469813731035103
 30
0.0
 11
225.63764973080961
 21
94.339079215717547
 31
0.0
  0
LINE
  5
7730
  8
0
 10
225.63764973081041
 20
94.339079215717504
 30
0.0
 11
226.21499999999989
 21
94.041630560342753
 31
0.0
  0
LINE
  5
7731
  8
0
 10
226.21499999999989
 20
91.396893295694653
 30
0.0
 11
225.63764973081041
 21
92.469813731035103
 31
0.0
  0
LINE
  5
7732
  8
0
 10
225.6376497308147
 20
89.541719425877702
 30
0.0
 11
225.6376497308147
 21
91.576676129149021
 31
0.0
  0
LINE
  5
7733
  8
0
 10
225.63764973081041
 20
91.576676129149021
 30
0.0
 11
226.21499999999989
 21
91.396893295694625
 31
0.0
  0
LINE
  5
7734
  8
0
 10
226.21499999999989
 20
88.517727190511081
 30
0.0
 11
225.63764973081041
 21
89.541719425877702
 31
0.0
  0
LINE
  5
7735
  8
0
 10
225.6376497308122
 20
86.399521953322676
 30
0.0
 11
225.6376497308122
 21
88.577874463699743
 31
0.0
  0
LINE
  5
7736
  8
0
 10
225.63764973081041
 20
88.577874463699743
 30
0.0
 11
226.21499999999989
 21
88.517727190511053
 31
0.0
  0
LINE
  5
7737
  8
0
 10
226.21499999999989
 20
85.435676991144774
 30
0.0
 11
225.63764973081041
 21
86.399521953322676
 31
0.0
  0
LINE
  5
7738
  8
0
 10
225.6376497308064
 20
83.077647886426476
 30
0.0
 11
225.6376497308064
 21
85.37552971795607
 31
0.0
  0
LINE
  5
7739
  8
0
 10
225.63764973081041
 20
85.37552971795607
 30
0.0
 11
226.21499999999989
 21
85.435676991144746
 31
0.0
  0
LINE
  5
773A
  8
0
 10
226.21499999999989
 20
82.184510284540394
 30
0.0
 11
225.63764973081041
 21
83.077647886426476
 31
0.0
  0
LINE
  5
773B
  8
0
 10
225.63764973080561
 20
79.612492372612806
 30
0.0
 11
225.63764973080561
 21
82.004727451085955
 31
0.0
  0
LINE
  5
773C
  8
0
 10
225.63764973081041
 20
82.004727451085955
 30
0.0
 11
226.21499999999989
 21
82.184510284540323
 31
0.0
  0
LINE
  5
773D
  8
0
 10
226.21499999999989
 20
78.799847533485902
 30
0.0
 11
225.63764973081041
 21
79.612492372612806
 31
0.0
  0
LINE
  5
773E
  8
0
 10
225.63764973081311
 20
76.042020380821455
 30
0.0
 11
225.63764973081311
 21
78.502398878111094
 31
0.0
  0
LINE
  5
773F
  8
0
 10
225.63764973081041
 20
78.502398878111094
 30
0.0
 11
226.21499999999989
 21
78.799847533485845
 31
0.0
  0
LINE
  5
7740
  8
0
 10
226.21499999999989
 20
75.318771811368052
 30
0.0
 11
225.63764973081041
 21
76.042020380821455
 31
0.0
  0
LINE
  5
7741
  8
0
 10
225.6376497308047
 20
72.405350749363791
 30
0.0
 11
225.6376497308047
 21
74.906916243786256
 31
0.0
  0
LINE
  5
7742
  8
0
 10
225.63764973081041
 20
74.906916243786256
 30
0.0
 11
226.21499999999989
 21
75.318771811367967
 31
0.0
  0
LINE
  5
7743
  8
0
 10
226.21499999999989
 20
71.779422512260268
 30
0.0
 11
225.63764973081041
 21
72.405350749363791
 31
0.0
  0
LINE
  5
7744
  8
0
 10
226.21499999999989
 20
68.220577487740101
 30
0.0
 11
225.63764973081041
 21
68.742327591744058
 31
0.0
  0
LINE
  5
7745
  8
0
 10
225.63764973080919
 20
68.742327591744058
 30
0.0
 11
225.63764973080919
 21
71.257672408256255
 31
0.0
  0
LINE
  5
7746
  8
0
 10
225.63764973081041
 20
71.257672408256255
 30
0.0
 11
226.21499999999989
 21
71.779422512260211
 31
0.0
  0
LINE
  5
7747
  8
0
 10
226.21499999999989
 20
64.681228188632346
 30
0.0
 11
225.63764973081041
 21
65.093083756214085
 31
0.0
  0
LINE
  5
7748
  8
0
 10
225.6376497308064
 20
65.093083756214085
 30
0.0
 11
225.6376497308064
 21
67.59464925063655
 31
0.0
  0
LINE
  5
7749
  8
0
 10
225.63764973081041
 20
67.59464925063655
 30
0.0
 11
226.21499999999989
 21
68.220577487740016
 31
0.0
  0
LINE
  5
774A
  8
0
 10
226.21499999999989
 20
61.200152466514488
 30
0.0
 11
225.63764973081041
 21
61.497601121889247
 31
0.0
  0
LINE
  5
774B
  8
0
 10
225.63764973080561
 20
61.497601121889247
 30
0.0
 11
225.63764973080561
 21
63.957979619178893
 31
0.0
  0
LINE
  5
774C
  8
0
 10
225.63764973081041
 20
63.957979619178893
 30
0.0
 11
226.21499999999989
 21
64.681228188632261
 31
0.0
  0
LINE
  5
774D
  8
0
 10
226.21499999999989
 20
57.815489715459996
 30
0.0
 11
225.63764973081041
 21
57.995272548914372
 31
0.0
  0
LINE
  5
774E
  8
0
 10
225.63764973080919
 20
57.995272548914372
 30
0.0
 11
225.63764973080919
 21
60.387507627387542
 31
0.0
  0
LINE
  5
774F
  8
0
 10
225.63764973081041
 20
60.387507627387542
 30
0.0
 11
226.21499999999989
 21
61.20015246651441
 31
0.0
  0
LINE
  5
7750
  8
0
 10
226.21499999999989
 20
54.564323008855588
 30
0.0
 11
225.63764973081041
 21
54.624470282044271
 31
0.0
  0
LINE
  5
7751
  8
0
 10
225.63764973080879
 20
54.624470282044271
 30
0.0
 11
225.63764973080879
 21
56.922352113573858
 31
0.0
  0
LINE
  5
7752
  8
0
 10
225.63764973081041
 20
56.922352113573858
 30
0.0
 11
226.21499999999989
 21
57.815489715459918
 31
0.0
  0
LINE
  5
7753
  8
0
 10
226.21499999999989
 20
51.48227280948926
 30
0.0
 11
225.63764973081041
 21
51.422125536300577
 31
0.0
  0
LINE
  5
7754
  8
0
 10
225.63764973080919
 20
51.422125536300577
 30
0.0
 11
225.63764973080919
 21
53.600478046677623
 31
0.0
  0
LINE
  5
7755
  8
0
 10
225.63764973081041
 20
53.600478046677623
 30
0.0
 11
226.21499999999989
 21
54.56432300885551
 31
0.0
  0
LINE
  5
7756
  8
0
 10
226.21499999999989
 20
48.603106704305709
 30
0.0
 11
225.63764973081041
 21
48.423323870851348
 31
0.0
  0
LINE
  5
7757
  8
0
 10
225.63764973081041
 20
48.423323870851348
 30
0.0
 11
225.63764973081041
 21
50.458280574122639
 31
0.0
  0
LINE
  5
7758
  8
0
 10
225.63764973081041
 20
50.458280574122639
 30
0.0
 11
226.21499999999989
 21
51.482272809489203
 31
0.0
  0
LINE
  5
7759
  8
0
 10
226.21499999999989
 20
45.958369439657538
 30
0.0
 11
225.63764973081041
 21
45.660920784282787
 31
0.0
  0
LINE
  5
775A
  8
0
 10
225.63764973080961
 20
45.660920784282787
 30
0.0
 11
225.63764973080961
 21
47.53018626896521
 31
0.0
  0
LINE
  5
775B
  8
0
 10
225.63764973081041
 20
47.53018626896521
 30
0.0
 11
226.21499999999989
 21
48.603106704305631
 31
0.0
  0
LINE
  5
775C
  8
0
 10
226.21499999999989
 20
43.577037310463183
 30
0.0
 11
225.63764973081041
 21
43.165181742881437
 31
0.0
  0
LINE
  5
775D
  8
0
 10
225.63764973081061
 20
43.165181742881437
 30
0.0
 11
225.63764973081061
 21
44.848275945155827
 31
0.0
  0
LINE
  5
775E
  8
0
 10
225.63764973081041
 20
44.848275945155827
 30
0.0
 11
226.21499999999989
 21
45.958369439657488
 31
0.0
  0
LINE
  5
775F
  8
0
 10
226.21499999999989
 20
41.485200689855773
 30
0.0
 11
225.63764973081041
 21
40.963450585851852
 31
0.0
  0
LINE
  5
7760
  8
0
 10
225.63764973081049
 20
40.963450585851852
 30
0.0
 11
225.63764973081049
 21
42.441933173427948
 31
0.0
  0
LINE
  5
7761
  8
0
 10
225.63764973081041
 20
42.441933173427948
 30
0.0
 11
226.21499999999989
 21
43.577037310463091
 31
0.0
  0
LINE
  5
7762
  8
0
 10
226.21499999999989
 20
39.70577817759569
 30
0.0
 11
225.63764973081041
 21
39.079849940492217
 31
0.0
  0
LINE
  5
7763
  8
0
 10
225.63764973081021
 20
39.079849940492217
 30
0.0
 11
225.63764973081021
 21
40.337522348748259
 31
0.0
  0
LINE
  5
7764
  8
0
 10
225.63764973081041
 20
40.337522348748259
 30
0.0
 11
226.21499999999989
 21
41.485200689855709
 31
0.0
  0
LINE
  5
7765
  8
0
 10
226.21499999999989
 20
38.258265499095288
 30
0.0
 11
225.63764973081041
 21
37.535016929641863
 31
0.0
  0
LINE
  5
7766
  8
0
 10
225.63764973080859
 20
37.535016929641863
 30
0.0
 11
225.63764973080859
 21
38.558099836488182
 31
0.0
  0
LINE
  5
7767
  8
0
 10
225.63764973081041
 20
38.558099836488182
 30
0.0
 11
226.21499999999989
 21
39.705778177595597
 31
0.0
  0
LINE
  5
7768
  8
0
 10
226.21499999999989
 20
37.158521906171828
 30
0.0
 11
225.63764973081041
 21
36.345877067044917
 31
0.0
  0
LINE
  5
7769
  8
0
 10
225.63764973080501
 20
36.345877067044917
 30
0.0
 11
225.63764973080501
 21
37.123161362060117
 31
0.0
  0
LINE
  5
776A
  8
0
 10
225.63764973081041
 20
37.123161362060117
 30
0.0
 11
226.21499999999989
 21
38.258265499095259
 31
0.0
  0
LINE
  5
776B
  8
0
 10
226.21499999999989
 20
36.41859641976545
 30
0.0
 11
225.63764973081041
 21
35.525458817879368
 31
0.0
  0
LINE
  5
776C
  8
0
 10
225.6376497308058
 20
35.525458817879368
 30
0.0
 11
225.6376497308058
 21
36.048428411670152
 31
0.0
  0
LINE
  5
776D
  8
0
 10
225.63764973081041
 20
36.048428411670152
 30
0.0
 11
226.21499999999989
 21
37.158521906171799
 31
0.0
  0
LINE
  5
776E
  8
0
 10
226.21499999999989
 20
36.046595818344642
 30
0.0
 11
225.63764973081041
 21
35.082750856166761
 31
0.0
  0
LINE
  5
776F
  8
0
 10
225.63764973081311
 20
35.082750856166761
 30
0.0
 11
225.63764973081311
 21
35.345675984425
 31
0.0
  0
LINE
  5
7770
  8
0
 10
225.63764973081041
 20
35.345675984425
 30
0.0
 11
226.21499999999989
 21
36.41859641976545
 31
0.0
  0
LINE
  5
7771
  8
0
 10
225.63764973081609
 20
35.000000000000163
 30
0.0
 11
225.63764973081609
 21
35.02260358297805
 31
0.0
  0
LINE
  5
7772
  8
0
 10
225.63764973081041
 20
35.02260358297805
 30
0.0
 11
226.21499999999989
 21
36.046595818344613
 31
0.0
  0
LINE
  5
7785
  8
1
 10
30.000000000000401
 20
70.000000000000171
 30
0.0
 11
109.9999999999992
 21
70.000000000000156
 31
0.0
  0
LINE
  5
7786
  8
1
 10
69.999999999999829
 20
30.000000000000739
 30
0.0
 11
69.999999999999829
 21
109.9999999999996
 31
0.0
  0
CIRCLE
  5
7787
  8
0
 10
69.999999999994714
 20
69.999999999999631
 30
0.0
 40
33.0
  0
CIRCLE
  5
7788
  8
0
 10
69.999999999994714
 20
69.999999999999631
 30
0.0
 40
12.00000000000054
  0
CIRCLE
  5
7789
  8
0
 10
69.999999999994714
 20
69.999999999999631
 30
0.0
 40
8.00000000000054
  0
ARC
  5
778A
  8
0
 10
69.999999999994259
 20
70.000000000000199
 30
0.0
 40
35.000000000000448
 50
357.94071893195928
 51
2.059281068039112
  0
LINE
  5
778B
  8
0
 10
103.9534041816502
 20
68.220577487739575
 30
0.0
 11
104.97739641701681
 21
68.742327591743532
 31
0.0
  0
LINE
  5
778C
  8
0
 10
104.97739641701691
 20
71.257672408255701
 30
0.0
 11
103.9534041816502
 21
71.779422512259657
 31
0.0
  0
LINE
  5
778D
  8
0
 10
104.9172491438282
 20
67.594649250635953
 30
0.0
 11
103.9534041816502
 21
68.220577487739519
 31
0.0
  0
LINE
  5
778E
  8
0
 10
103.9534041816502
 20
71.779422512259771
 30
0.0
 11
104.9172491438281
 21
72.405350749363237
 31
0.0
  0
ARC
  5
778F
  8
0
 10
69.999999999986187
 20
70.000000000001393
 30
0.0
 40
35.00000000000864
 50
351.94071893195883
 51
356.05928106803839
  0
LINE
  5
7790
  8
0
 10
103.58140358022941
 20
64.681228188631849
 30
0.0
 11
104.6543240155699
 21
65.093083756213531
 31
0.0
  0
ARC
  5
7791
  8
0
 10
69.99999999999801
 20
69.999999999999744
 30
0.0
 40
34.999999999996739
 50
3.9407189319599132
 51
8.0592810680411269
  0
LINE
  5
7792
  8
0
 10
104.6543240155697
 20
74.906916243785673
 30
0.0
 11
103.58140358022941
 21
75.318771811367384
 31
0.0
  0
LINE
  5
7793
  8
0
 10
104.4745411821154
 20
63.957979619178303
 30
0.0
 11
103.58140358022941
 21
64.681228188631678
 31
0.0
  0
LINE
  5
7794
  8
0
 10
103.58140358022941
 20
75.318771811367526
 30
0.0
 11
104.4745411821155
 21
76.042020380820915
 31
0.0
  0
ARC
  5
7795
  8
0
 10
69.999999999988916
 20
69.999999999999886
 30
0.0
 40
35.000000000005677
 50
345.94071893196048
 51
350.059281068041
  0
LINE
  5
7796
  8
0
 10
102.841478093823
 20
61.20015246651397
 30
0.0
 11
103.9515715883247
 21
61.497601121888721
 31
0.0
  0
ARC
  5
7797
  8
0
 10
69.999999999999375
 20
70.000000000000227
 30
0.0
 40
34.999999999995261
 50
9.9407189319589904
 51
14.05928106804067
  0
LINE
  5
7798
  8
0
 10
103.9515715883247
 20
78.502398878110512
 30
0.0
 11
102.841478093823
 21
78.799847533485263
 31
0.0
  0
LINE
  5
7799
  8
0
 10
103.6541229329499
 20
60.387507627386952
 30
0.0
 11
102.841478093823
 21
61.200152466513877
 31
0.0
  0
LINE
  5
779A
  8
0
 10
102.841478093823
 20
78.799847533485405
 30
0.0
 11
103.6541229329499
 21
79.61249237261228
 31
0.0
  0
ARC
  5
779B
  8
0
 10
69.999999999984027
 20
70.000000000003496
 30
0.0
 40
35.000000000011333
 50
339.94071893196002
 51
344.05928106804089
  0
LINE
  5
779C
  8
0
 10
101.7417345008996
 20
57.815489715459478
 30
0.0
 11
102.8768386379347
 21
57.995272548913817
 31
0.0
  0
ARC
  5
779D
  8
0
 10
69.999999999999943
 20
70.000000000001478
 30
0.0
 40
34.999999999994429
 50
15.94071893195834
 51
20.059281068039951
  0
LINE
  5
779E
  8
0
 10
102.8768386379347
 20
82.004727451085415
 30
0.0
 11
101.7417345008995
 21
82.184510284539783
 31
0.0
  0
LINE
  5
779F
  8
0
 10
102.4649830703529
 20
56.922352113573311
 30
0.0
 11
101.7417345008995
 21
57.815489715459357
 31
0.0
  0
LINE
  5
77A0
  8
0
 10
101.7417345008995
 20
82.184510284539897
 30
0.0
 11
102.4649830703529
 21
83.07764788642595
 31
0.0
  0
ARC
  5
77A1
  8
0
 10
69.999999999990052
 20
70.000000000001165
 30
0.0
 40
35.000000000004917
 50
333.9407189319619
 51
338.05928106804112
  0
LINE
  5
77A2
  8
0
 10
100.29422182239919
 20
54.564323008855091
 30
0.0
 11
101.4419001635068
 21
54.624470282043738
 31
0.0
  0
ARC
  5
77A3
  8
0
 10
70.000000000001421
 20
70.000000000002359
 30
0.0
 40
34.99999999999276
 50
21.940718931958891
 51
26.05928106804134
  0
LINE
  5
77A4
  8
0
 10
101.4419001635068
 20
85.375529717955459
 30
0.0
 11
100.29422182239919
 21
85.435676991144135
 31
0.0
  0
LINE
  5
77A5
  8
0
 10
100.9201500595027
 20
53.600478046677068
 30
0.0
 11
100.29422182239909
 21
54.564323008855013
 31
0.0
  0
LINE
  5
77A6
  8
0
 10
100.29422182239909
 20
85.435676991144277
 30
0.0
 11
100.9201500595027
 21
86.399521953322164
 31
0.0
  0
ARC
  5
77A7
  8
0
 10
69.999999999987438
 20
70.000000000004604
 30
0.0
 40
35.000000000008811
 50
327.94071893195741
 51
332.05928106804089
  0
LINE
  5
77A8
  8
0
 10
98.514799310139153
 20
51.482272809488762
 30
0.0
 11
99.662477651246661
 21
51.422125536300022
 31
0.0
  0
ARC
  5
77A9
  8
0
 10
69.999999999997442
 20
70.000000000001222
 30
0.0
 40
34.999999999996803
 50
27.940718931958749
 51
32.059281068042601
  0
LINE
  5
77AA
  8
0
 10
99.662477651246661
 20
88.577874463699175
 30
0.0
 11
98.514799310139153
 21
88.517727190510499
 31
0.0
  0
LINE
  5
77AB
  8
0
 10
99.036549414143053
 20
50.45828057412205
 30
0.0
 11
98.514799310139054
 21
51.482272809488649
 31
0.0
  0
LINE
  5
77AC
  8
0
 10
98.514799310139054
 20
88.517727190510584
 30
0.0
 11
99.036549414143053
 21
89.541719425877176
 31
0.0
  0
ARC
  5
77AD
  8
0
 10
69.999999999991417
 20
70.000000000002046
 30
0.0
 40
35.0000000000041
 50
321.94071893196008
 51
326.05928106803901
  0
LINE
  5
77AE
  8
0
 10
96.422962689531744
 20
48.603106704305191
 30
0.0
 11
97.558066826566858
 21
48.423323870850787
 31
0.0
  0
ARC
  5
77AF
  8
0
 10
69.999999999999375
 20
70.00000000000253
 30
0.0
 40
34.999999999994493
 50
33.940718931960937
 51
38.059281068040193
  0
LINE
  5
77B0
  8
0
 10
97.558066826566858
 20
91.576676129148396
 30
0.0
 11
96.422962689531744
 21
91.396893295694014
 31
0.0
  0
LINE
  5
77B1
  8
0
 10
96.834818257113454
 20
47.530186268964677
 30
0.0
 11
96.42296268953163
 21
48.60310670430507
 31
0.0
  0
LINE
  5
77B2
  8
0
 10
96.422962689531744
 20
91.396893295694156
 30
0.0
 11
96.834818257113454
 21
92.469813731034563
 31
0.0
  0
ARC
  5
77B3
  8
0
 10
69.999999999988006
 20
70.000000000005116
 30
0.0
 40
35.000000000008683
 50
315.94071893195911
 51
320.05928106803913
  0
LINE
  5
77B4
  8
0
 10
94.04163056033741
 20
45.958369439657041
 30
0.0
 11
95.151724054838994
 21
45.66092078428224
 31
0.0
  0
ARC
  5
77B5
  8
0
 10
70.00000000000108
 20
70.000000000005059
 30
0.0
 40
34.99999999999163
 50
39.94071893196093
 51
44.059281068041209
  0
LINE
  5
77B6
  8
0
 10
95.151724054838994
 20
94.339079215716964
 30
0.0
 11
94.04163056033741
 21
94.041630560342185
 31
0.0
  0
LINE
  5
77B7
  8
0
 10
94.339079215712033
 20
44.848275945155279
 30
0.0
 11
94.041630560337296
 21
45.958369439656963
 31
0.0
  0
LINE
  5
77B8
  8
0
 10
94.041630560337296
 20
94.041630560342327
 30
0.0
 11
94.339079215712033
 21
95.151724054843953
 31
0.0
  0
ARC
  5
77B9
  8
0
 10
69.999999999987665
 20
70.000000000007375
 30
0.0
 40
35.000000000010459
 50
309.94071893196269
 51
314.05928106803691
  0
LINE
  5
77BA
  8
0
 10
91.396893295689267
 20
43.577037310462657
 30
0.0
 11
92.469813731029674
 21
43.16518174288089
 31
0.0
  0
ARC
  5
77BB
  8
0
 10
69.999999999997556
 20
70.00000000000324
 30
0.0
 40
34.999999999995431
 50
45.940718931962842
 51
50.059281068037251
  0
LINE
  5
77BC
  8
0
 10
92.469813731029674
 20
96.834818257118343
 30
0.0
 11
91.396893295689267
 21
96.422962689536604
 31
0.0
  0
LINE
  5
77BD
  8
0
 10
91.57667612914355
 20
42.441933173427401
 30
0.0
 11
91.396893295689139
 21
43.577037310462572
 31
0.0
  0
LINE
  5
77BE
  8
0
 10
91.396893295689139
 20
96.422962689536689
 30
0.0
 11
91.57667612914355
 21
97.558066826571832
 31
0.0
  0
ARC
  5
77BF
  8
0
 10
70.000000000003695
 20
69.99999999998775
 30
0.0
 40
34.999999999985107
 50
303.94071893195883
 51
308.05928106803992
  0
LINE
  5
77C0
  8
0
 10
88.517727190505695
 20
41.485200689855247
 30
0.0
 11
89.541719425872259
 21
40.963450585851263
 31
0.0
  0
ARC
  5
77C1
  8
0
 10
69.999999999995964
 20
70.000000000000512
 30
0.0
 40
34.999999999998487
 50
51.940718931960141
 51
56.059281068041223
  0
LINE
  5
77C2
  8
0
 10
89.541719425872259
 20
99.036549414147942
 30
0.0
 11
88.517727190505695
 21
98.514799310143985
 31
0.0
  0
LINE
  5
77C3
  8
0
 10
88.577874463694286
 20
40.337522348747697
 30
0.0
 11
88.517727190505582
 21
41.485200689855191
 31
0.0
  0
LINE
  5
77C4
  8
0
 10
88.517727190505582
 20
98.514799310144085
 30
0.0
 11
88.577874463694286
 21
99.662477651251535
 31
0.0
  0
ARC
  5
77C5
  8
0
 10
69.999999999999488
 20
69.999999999991161
 30
0.0
 40
34.999999999990273
 50
297.94071893195689
 51
302.05928106804271
  0
LINE
  5
77C6
  8
0
 10
85.435676991139346
 20
39.705778177595143
 30
0.0
 11
86.399521953317205
 21
39.079849940491613
 31
0.0
  0
ARC
  5
77C7
  8
0
 10
69.999999999992554
 20
69.999999999995453
 30
0.0
 40
35.000000000004711
 50
57.940718931957058
 51
62.059281068043077
  0
LINE
  5
77C8
  8
0
 10
86.399521953317205
 20
100.92015005950761
 30
0.0
 11
85.435676991139346
 21
100.2942218224041
 31
0.0
  0
LINE
  5
77C9
  8
0
 10
85.375529717950542
 20
38.558099836487663
 30
0.0
 11
85.435676991139246
 21
39.705778177595107
 31
0.0
  0
LINE
  5
77CA
  8
0
 10
85.435676991139246
 20
100.2942218224041
 30
0.0
 11
85.375529717950542
 21
101.4419001635116
 31
0.0
  0
ARC
  5
77CB
  8
0
 10
69.999999999997101
 20
69.999999999992752
 30
0.0
 40
34.999999999992717
 50
291.94071893196099
 51
296.0592810680418
  0
LINE
  5
77CC
  8
0
 10
82.184510284534952
 20
38.258265499094762
 30
0.0
 11
83.077647886421062
 21
37.535016929641358
 31
0.0
  0
ARC
  5
77CD
  8
0
 10
69.999999999998465
 20
70.000000000010743
 30
0.0
 40
34.999999999988361
 50
63.940718931958124
 51
68.059281068039013
  0
LINE
  5
77CE
  8
0
 10
83.077647886421062
 20
102.4649830703579
 30
0.0
 11
82.184510284534952
 21
101.7417345009045
 31
0.0
  0
LINE
  5
77CF
  8
0
 10
82.004727451080555
 20
37.123161362059562
 30
0.0
 11
82.184510284534838
 21
38.258265499094762
 31
0.0
  0
LINE
  5
77D0
  8
0
 10
82.184510284534838
 20
101.7417345009045
 30
0.0
 11
82.004727451080555
 21
102.8768386379397
 31
0.0
  0
ARC
  5
77D1
  8
0
 10
69.999999999997556
 20
69.999999999992156
 30
0.0
 40
34.999999999992042
 50
285.94071893196042
 51
290.05928106803862
  0
LINE
  5
77D2
  8
0
 10
78.799847533480431
 20
37.15852190617133
 30
0.0
 11
79.612492372607392
 21
36.345877067044398
 31
0.0
  0
ARC
  5
77D3
  8
0
 10
69.999999999993918
 20
69.999999999997073
 30
0.0
 40
35.000000000002672
 50
69.940718931961484
 51
74.059281068039652
  0
LINE
  5
77D4
  8
0
 10
79.612492372607392
 20
103.65412293295481
 30
0.0
 11
78.799847533480545
 21
102.8414780938279
 31
0.0
  0
LINE
  5
77D5
  8
0
 10
78.502398878105566
 20
36.04842841166959
 30
0.0
 11
78.799847533480317
 21
37.158521906171302
 31
0.0
  0
LINE
  5
77D6
  8
0
 10
78.799847533480317
 20
102.8414780938279
 30
0.0
 11
78.502398878105566
 21
103.9515715883296
 31
0.0
  0
ARC
  5
77D7
  8
0
 10
69.999999999991743
 20
70.000000000013927
 30
0.0
 40
35.000000000014602
 50
279.94071893195752
 51
284.05928106804231
  0
LINE
  5
77D8
  8
0
 10
75.318771811362623
 20
36.418596419764953
 30
0.0
 11
76.042020380816041
 21
35.525458817878871
 31
0.0
  0
ARC
  5
77D9
  8
0
 10
69.999999999992326
 20
69.999999999989043
 30
0.0
 40
35.000000000010822
 50
75.940718931957747
 51
80.059281068042495
  0
LINE
  5
77DA
  8
0
 10
76.042020380816041
 20
104.4745411821204
 30
0.0
 11
75.318771811362623
 21
103.58140358023429
 31
0.0
  0
LINE
  5
77DB
  8
0
 10
74.906916243780813
 20
35.345675984424503
 30
0.0
 11
75.318771811362524
 21
36.418596419764931
 31
0.0
  0
LINE
  5
77DC
  8
0
 10
75.318771811362524
 20
103.58140358023429
 30
0.0
 11
74.906916243780813
 21
104.6543240155747
 31
0.0
  0
ARC
  5
77DD
  8
0
 10
69.99999999999676
 20
69.999999999978826
 30
0.0
 40
34.99999999997911
 50
273.94071893195672
 51
278.05928106804129
  0
LINE
  5
77DE
  8
0
 10
71.779422512254826
 20
36.046595818344123
 30
0.0
 11
72.40535074935832
 21
35.0827508561662
 31
0.0
  0
ARC
  5
77DF
  8
0
 10
69.999999999995623
 20
70.000000000009436
 30
0.0
 40
34.99999999999018
 50
81.940718931958756
 51
86.059281068043305
  0
LINE
  5
77E0
  8
0
 10
72.405350749358433
 20
104.917249143833
 30
0.0
 11
71.779422512254826
 21
103.9534041816551
 31
0.0
  0
LINE
  5
77E1
  8
0
 10
71.257672408250812
 20
35.022603582977517
 30
0.0
 11
71.779422512254712
 21
36.046595818344123
 31
0.0
  0
LINE
  5
77E2
  8
0
 10
71.779422512254826
 20
103.9534041816551
 30
0.0
 11
71.257672408250812
 21
104.97739641702169
 31
0.0
  0
ARC
  5
77E3
  8
0
 10
69.999999999994827
 20
69.999999999995197
 30
0.0
 40
34.99999999999558
 50
267.94071893195758
 51
272.05928106804242
  0
LINE
  5
77E4
  8
0
 10
68.220577487734715
 20
36.046595818344123
 30
0.0
 11
68.742327591738615
 21
35.022603582977517
 31
0.0
  0
ARC
  5
77E5
  8
0
 10
69.999999999993804
 20
69.999999999991303
 30
0.0
 40
35.000000000008342
 50
87.940718931957647
 51
92.059281068035816
  0
LINE
  5
77E6
  8
0
 10
68.742327591738615
 20
104.97739641702179
 30
0.0
 11
68.220577487734602
 21
103.9534041816551
 31
0.0
  0
LINE
  5
77E7
  8
0
 10
67.594649250631093
 20
35.082750856166257
 30
0.0
 11
68.220577487734602
 21
36.046595818344123
 31
0.0
  0
LINE
  5
77E8
  8
0
 10
68.220577487734602
 20
103.9534041816551
 30
0.0
 11
67.594649250631093
 21
104.917249143833
 31
0.0
  0
ARC
  5
77E9
  8
0
 10
69.99999999999369
 20
69.999999999992212
 30
0.0
 40
34.999999999992497
 50
261.94071893195871
 51
266.05928106804328
  0
LINE
  5
77EA
  8
0
 10
64.681228188626903
 20
36.418596419764953
 30
0.0
 11
65.093083756208614
 21
35.345675984424503
 31
0.0
  0
ARC
  5
77EB
  8
0
 10
69.999999999996419
 20
69.999999999983771
 30
0.0
 40
35.00000000001593
 50
93.940718931963204
 51
98.059281068041244
  0
LINE
  5
77EC
  8
0
 10
65.093083756208614
 20
104.6543240155747
 30
0.0
 11
64.681228188626903
 21
103.58140358023429
 31
0.0
  0
LINE
  5
77ED
  8
0
 10
63.957979619173379
 20
35.525458817878842
 30
0.0
 11
64.68122818862679
 21
36.418596419764953
 31
0.0
  0
LINE
  5
77EE
  8
0
 10
64.681228188626903
 20
103.58140358023429
 30
0.0
 11
63.957979619173379
 21
104.4745411821204
 31
0.0
  0
ARC
  5
77EF
  8
0
 10
69.999999999996874
 20
70.00000000000756
 30
0.0
 40
35.000000000008221
 50
255.9407189319578
 51
260.05928106803589
  0
LINE
  5
77F0
  8
0
 10
61.200152466509003
 20
37.158521906171273
 30
0.0
 11
61.49760112188374
 21
36.048428411669619
 31
0.0
  0
ARC
  5
77F1
  8
0
 10
69.999999999997215
 20
69.999999999988631
 30
0.0
 40
35.000000000011262
 50
99.940718931957505
 51
104.0592810680422
  0
LINE
  5
77F2
  8
0
 10
61.49760112188374
 20
103.9515715883296
 30
0.0
 11
61.200152466509003
 21
102.841478093828
 31
0.0
  0
LINE
  5
77F3
  8
0
 10
60.387507627382028
 20
36.345877067044398
 30
0.0
 11
61.200152466509003
 21
37.158521906171302
 31
0.0
  0
LINE
  5
77F4
  8
0
 10
61.200152466509003
 20
102.8414780938279
 30
0.0
 11
60.387507627382028
 21
103.65412293295491
 31
0.0
  0
ARC
  5
77F5
  8
0
 10
70.000000000000057
 20
70.000000000016627
 30
0.0
 40
35.000000000017828
 50
249.9407189319615
 51
254.05928106803961
  0
LINE
  5
77F6
  8
0
 10
57.815489715454589
 20
38.258265499094762
 30
0.0
 11
57.995272548908872
 21
37.123161362059591
 31
0.0
  0
ARC
  5
77F7
  8
0
 10
69.999999999997328
 20
69.999999999989456
 30
0.0
 40
35.000000000010488
 50
105.9407189319603
 51
110.0592810680385
  0
LINE
  5
77F8
  8
0
 10
57.995272548908872
 20
102.8768386379397
 30
0.0
 11
57.815489715454468
 21
101.7417345009044
 31
0.0
  0
LINE
  5
77F9
  8
0
 10
56.922352113568373
 20
37.53501692964133
 30
0.0
 11
57.815489715454468
 21
38.25826549909479
 31
0.0
  0
LINE
  5
77FA
  8
0
 10
57.815489715454468
 20
101.7417345009044
 30
0.0
 11
56.922352113568479
 21
102.4649830703579
 31
0.0
  0
ARC
  5
77FB
  8
0
 10
69.999999999997442
 20
70.000000000005429
 30
0.0
 40
35.00000000000643
 50
243.94071893195809
 51
248.05928106803901
  0
LINE
  5
77FC
  8
0
 10
54.564323008850181
 20
39.705778177595107
 30
0.0
 11
54.624470282038772
 21
38.558099836487628
 31
0.0
  0
ARC
  5
77FD
  8
0
 10
69.999999999991985
 20
70.000000000006196
 30
0.0
 40
34.99999999999288
 50
111.940718931961
 51
116.0592810680418
  0
LINE
  5
77FE
  8
0
 10
54.624470282038772
 20
101.4419001635116
 30
0.0
 11
54.564323008850181
 21
100.2942218224041
 31
0.0
  0
LINE
  5
77FF
  8
0
 10
53.600478046672208
 20
39.079849940491698
 30
0.0
 11
54.564323008850067
 21
39.705778177595171
 31
0.0
  0
LINE
  5
7800
  8
0
 10
54.564323008850067
 20
100.2942218224041
 30
0.0
 11
53.600478046672208
 21
100.92015005950761
 31
0.0
  0
ARC
  5
7801
  8
0
 10
69.999999999990735
 20
69.999999999994941
 30
0.0
 40
34.999999999993882
 50
237.94071893196471
 51
242.05928106804311
  0
LINE
  5
7802
  8
0
 10
51.482272809483838
 20
41.485200689855162
 30
0.0
 11
51.422125536295141
 21
40.33752234874774
 31
0.0
  0
ARC
  5
7803
  8
0
 10
69.999999999995055
 20
69.999999999999119
 30
0.0
 40
35.000000000000632
 50
117.94071893195689
 51
122.05928106804291
  0
LINE
  5
7804
  8
0
 10
51.422125536295141
 20
99.662477651251535
 30
0.0
 11
51.482272809483838
 21
98.514799310144042
 31
0.0
  0
LINE
  5
7805
  8
0
 10
50.458280574117168
 20
40.963450585851312
 30
0.0
 11
51.482272809483732
 21
41.485200689855247
 31
0.0
  0
LINE
  5
7806
  8
0
 10
51.482272809483838
 20
98.514799310144042
 30
0.0
 11
50.458280574117168
 21
99.036549414148027
 31
0.0
  0
ARC
  5
7807
  8
0
 10
69.999999999987324
 20
69.999999999990905
 30
0.0
 40
34.999999999988603
 50
231.94071893196011
 51
236.0592810680412
  0
LINE
  5
7808
  8
0
 10
48.603106704300281
 20
43.577037310462593
 30
0.0
 11
48.423323870845877
 21
42.441933173427429
 31
0.0
  0
ARC
  5
7809
  8
0
 10
70.000000000004945
 20
69.999999999985391
 30
0.0
 40
35.000000000017543
 50
123.9407189319588
 51
128.05928106803981
  0
LINE
  5
780A
  8
0
 10
48.423323870845877
 20
97.558066826571832
 30
0.0
 11
48.603106704300281
 21
96.422962689536661
 31
0.0
  0
LINE
  5
780B
  8
0
 10
47.53018626895976
 20
43.165181742880911
 30
0.0
 11
48.60310670430016
 21
43.577037310462657
 31
0.0
  0
LINE
  5
780C
  8
0
 10
48.60310670430016
 20
96.422962689536647
 30
0.0
 11
47.53018626895976
 21
96.834818257118371
 31
0.0
  0
ARC
  5
780D
  8
0
 10
69.999999999990507
 20
69.99999999999531
 30
0.0
 40
34.999999999993982
 50
225.94071893196281
 51
230.0592810680451
  0
LINE
  5
780E
  8
0
 10
45.958369439652117
 20
45.958369439656991
 30
0.0
 11
45.66092078427738
 21
44.848275945155308
 31
0.0
  0
ARC
  5
780F
  8
0
 10
70.000000000001648
 20
69.999999999991672
 30
0.0
 40
35.000000000010587
 50
129.94071893196269
 51
134.05928106803691
  0
LINE
  5
7810
  8
0
 10
45.66092078427738
 20
95.151724054843953
 30
0.0
 11
45.958369439652117
 21
94.041630560342242
 31
0.0
  0
LINE
  5
7811
  8
0
 10
44.848275945150412
 20
45.660920784282261
 30
0.0
 11
45.958369439652117
 21
45.958369439657041
 31
0.0
  0
LINE
  5
7812
  8
0
 10
45.958369439652117
 20
94.041630560342242
 30
0.0
 11
44.848275945150412
 21
94.339079215717021
 31
0.0
  0
ARC
  5
7813
  8
0
 10
70.000000000004832
 20
70.000000000008384
 30
0.0
 40
35.000000000013387
 50
219.9407189319609
 51
224.05928106804089
  0
LINE
  5
7814
  8
0
 10
43.577037310457683
 20
48.603106704305127
 30
0.0
 11
43.165181742875973
 21
47.530186268964677
 31
0.0
  0
ARC
  5
7815
  8
0
 10
69.999999999989143
 20
70.000000000004775
 30
0.0
 40
34.99999999999244
 50
135.9407189319588
 51
140.05928106803901
  0
LINE
  5
7816
  8
0
 10
43.165181742875973
 20
92.469813731034563
 30
0.0
 11
43.577037310457683
 21
91.396893295694113
 31
0.0
  0
LINE
  5
7817
  8
0
 10
42.441933173422569
 20
48.423323870850822
 30
0.0
 11
43.577037310457683
 21
48.603106704305191
 31
0.0
  0
LINE
  5
7818
  8
0
 10
43.577037310457683
 20
91.396893295694099
 30
0.0
 11
42.441933173422569
 21
91.576676129148467
 31
0.0
  0
ARC
  5
7819
  8
0
 10
69.999999999994145
 20
69.999999999999673
 30
0.0
 40
34.999999999999531
 50
213.9407189319619
 51
218.05928106804009
  0
LINE
  5
781A
  8
0
 10
41.485200689850267
 20
51.482272809488698
 30
0.0
 11
40.963450585846367
 21
50.458280574122078
 31
0.0
  0
ARC
  5
781B
  8
0
 10
69.999999999997783
 20
69.99999999999676
 30
0.0
 40
35.000000000004157
 50
141.94071893195979
 51
146.05928106803799
  0
LINE
  5
781C
  8
0
 10
40.96345058584626
 20
89.541719425877176
 30
0.0
 11
41.485200689850267
 21
88.517727190510556
 31
0.0
  0
LINE
  5
781D
  8
0
 10
40.337522348742773
 20
51.422125536300058
 30
0.0
 11
41.485200689850267
 21
51.482272809488762
 31
0.0
  0
LINE
  5
781E
  8
0
 10
41.485200689850267
 20
88.517727190510556
 30
0.0
 11
40.337522348742873
 21
88.577874463699246
 31
0.0
  0
ARC
  5
781F
  8
0
 10
69.99999999999585
 20
70.000000000000597
 30
0.0
 40
35.000000000001499
 50
207.940718931959
 51
212.05928106804259
  0
LINE
  5
7820
  8
0
 10
39.705778177590282
 20
54.564323008855013
 30
0.0
 11
39.079849940486667
 21
53.600478046677118
 31
0.0
  0
ARC
  5
7821
  8
0
 10
69.999999999986642
 20
70.000000000004292
 30
0.0
 40
34.999999999990713
 50
147.94071893195729
 51
152.0592810680412
  0
LINE
  5
7822
  8
0
 10
39.079849940486667
 20
86.399521953322136
 30
0.0
 11
39.705778177590162
 21
85.435676991144234
 31
0.0
  0
LINE
  5
7823
  8
0
 10
38.558099836482661
 20
54.624470282043738
 30
0.0
 11
39.705778177590162
 21
54.564323008855069
 31
0.0
  0
LINE
  5
7824
  8
0
 10
39.705778177590162
 20
85.43567699114422
 30
0.0
 11
38.558099836482768
 21
85.375529717955516
 31
0.0
  0
ARC
  5
7825
  8
0
 10
69.999999999993804
 20
69.999999999998863
 30
0.0
 40
34.999999999998892
 50
201.94071893195891
 51
206.05928106803799
  0
LINE
  5
7826
  8
0
 10
38.258265499089873
 20
57.815489715459393
 30
0.0
 11
37.53501692963647
 21
56.922352113573339
 31
0.0
  0
ARC
  5
7827
  8
0
 10
70.000000000004377
 20
69.999999999995339
 30
0.0
 40
35.000000000010608
 50
153.9407189319619
 51
158.05928106804109
  0
LINE
  5
7828
  8
0
 10
37.53501692963647
 20
83.07764788642595
 30
0.0
 11
38.258265499089873
 21
82.18451028453984
 31
0.0
  0
LINE
  5
7829
  8
0
 10
37.123161362054653
 20
57.995272548913839
 30
0.0
 11
38.258265499089873
 21
57.815489715459478
 31
0.0
  0
LINE
  5
782A
  8
0
 10
38.258265499089873
 20
82.18451028453984
 30
0.0
 11
37.123161362054653
 21
82.004727451085458
 31
0.0
  0
ARC
  5
782B
  8
0
 10
70.000000000002217
 20
70.000000000002501
 30
0.0
 40
35.000000000007987
 50
195.94071893195871
 51
200.05928106804109
  0
LINE
  5
782C
  8
0
 10
37.158521906166413
 20
61.200152466513877
 30
0.0
 11
36.345877067039453
 21
60.387507627387002
 31
0.0
  0
ARC
  5
782D
  8
0
 10
69.999999999998693
 20
69.999999999999119
 30
0.0
 40
35.000000000003872
 50
159.9407189319619
 51
164.0592810680416
  0
LINE
  5
782E
  8
0
 10
36.345877067039567
 20
79.61249237261228
 30
0.0
 11
37.158521906166413
 21
78.799847533485377
 31
0.0
  0
LINE
  5
782F
  8
0
 10
36.048428411664702
 20
61.497601121888721
 30
0.0
 11
37.1585219061663
 21
61.20015246651397
 31
0.0
  0
LINE
  5
7830
  8
0
 10
37.158521906166413
 20
78.79984753348532
 30
0.0
 11
36.048428411664702
 21
78.502398878110554
 31
0.0
  0
ARC
  5
7831
  8
0
 10
70.000000000020634
 20
70.000000000005073
 30
0.0
 40
35.000000000026517
 50
189.94071893196059
 51
194.05928106803901
  0
LINE
  5
7832
  8
0
 10
36.418596419760043
 20
64.681228188631763
 30
0.0
 11
35.525458817873933
 21
63.95797961917836
 31
0.0
  0
ARC
  5
7833
  8
0
 10
70.000000000003354
 20
69.999999999997982
 30
0.0
 40
35.000000000008832
 50
165.9407189319605
 51
170.059281068041
  0
LINE
  5
7834
  8
0
 10
35.525458817873933
 20
76.042020380820915
 30
0.0
 11
36.418596419760043
 21
75.318771811367526
 31
0.0
  0
LINE
  5
7835
  8
0
 10
35.345675984419529
 20
65.093083756213559
 30
0.0
 11
36.418596419760043
 21
64.68122818863182
 31
0.0
  0
LINE
  5
7836
  8
0
 10
36.418596419760043
 20
75.318771811367469
 30
0.0
 11
35.345675984419529
 21
74.90691624378573
 31
0.0
  0
ARC
  5
7837
  8
0
 10
70.000000000000853
 20
70.000000000000028
 30
0.0
 40
35.000000000006111
 50
183.94071893195991
 51
188.0592810680391
  0
LINE
  5
7838
  8
0
 10
36.046595818339199
 20
68.220577487739519
 30
0.0
 11
35.08275085616134
 21
67.594649250636024
 31
0.0
  0
ARC
  5
7839
  8
0
 10
70.000000000015291
 20
69.999999999997357
 30
0.0
 40
35.000000000020648
 50
171.94071893196039
 51
176.05928106803839
  0
LINE
  5
783A
  8
0
 10
35.08275085616134
 20
72.405350749363265
 30
0.0
 11
36.046595818339199
 21
71.779422512259742
 31
0.0
  0
LINE
  5
783B
  8
0
 10
35.022603582972643
 20
68.742327591743532
 30
0.0
 11
36.046595818339199
 21
68.220577487739575
 31
0.0
  0
LINE
  5
783C
  8
0
 10
36.046595818339199
 20
71.779422512259686
 30
0.0
 11
35.022603582972643
 21
71.257672408255729
 31
0.0
  0
ARC
  5
783D
  8
0
 10
70.000000000002103
 20
69.999999999999943
 30
0.0
 40
35.00000000000734
 50
177.9407189319609
 51
182.05928106804069
  0
CIRCLE
  5
783E
  8
0
 10
69.999999999998806
 20
70.000000000000085
 30
0.0
 40
34.000000000004093
  0
CIRCLE
  5
7849
  8
0
 10
69.999999999999829
 20
70.000000000000171
 30
0.0
 40
6.0
  0
CIRCLE
  5
784A
  8
3
 10
69.999999999999829
 20
70.000000000000171
 30
0.0
 40
5.0529999999999973
  0
LINE
  5
7D60
  8
0
 10
150.5735
 20
76.000000000000171
 30
0.0
 11
149.5
 21
74.926500000000175
 31
0.0
  0
LINE
  5
7D61
  8
0
 10
149.5
 20
65.073500000000166
 30
0.0
 11
150.5735
 21
64.000000000000171
 31
0.0
  0
LINE
  5
7D62
  8
0
 10
199.5
 20
76.000000000000171
 30
0.0
 11
150.5735
 21
76.000000000000171
 31
0.0
  0
LINE
  5
7D63
  8
0
 10
150.5735
 20
64.000000000000171
 30
0.0
 11
199.5
 21
64.000000000000171
 31
0.0
  0
LINE
  5
8142
  8
0
 10
149.5
 20
65.073500000000166
 30
0.0
 11
149.5
 21
74.926500000000175
 31
0.0
  0
LINE
  5
8143
  8
0
 10
150.5735
 20
64.000000000000171
 30
0.0
 11
150.5735
 21
76.000000000000171
 31
0.0
  0
LINE
  5
8144
  8
3
 10
149.62649999999991
 20
75.053000000000083
 30
0.0
 11
198.5
 21
75.053000000000111
 31
0.0
  0
LINE
  5
8145
  8
3
 10
199.38216115510019
 20
76.000000000000171
 30
0.0
 11
198.5
 21
75.053000000000111
 31
0.0
  0
LINE
  5
8146
  8
0
 10
198.5
 20
76.000000000000171
 30
0.0
 11
198.5
 21
64.000000000000171
 31
0.0
  0
LINE
  5
8147
  8
3
 10
149.62650000000011
 20
64.94700000000006
 30
0.0
 11
198.5
 21
64.94700000000006
 31
0.0
  0
LINE
  5
8148
  8
3
 10
199.38216115509999
 20
64.000000000000171
 30
0.0
 11
198.5
 21
64.94700000000006
 31
0.0
  0
TEXT
  5
81D7
  8
0
 62
     3
 10
0.0
 20
0.0
 30
0.0
 40
10.0
  1
GK70X50N
  7
STANDARD1
  0
ENDSEC
  0
EOF
