  0
SECTION
  2
HEADER
  9
$ACADVER
  1
AC1009
  9
$INSBASE
 10
0.0
 20
0.0
 30
0.0
  9
$EXTMIN
 10
0.0
 20
-2.960436562073669
 30
0.0
  9
$EXTMAX
 10
305.50000000000051
 20
85.500000000000085
 30
0.0
  9
$LIMMIN
 10
0.0
 20
0.0
  9
$LIMMAX
 10
187.5
 20
135.0
  9
$ORTHOMODE
 70
     1
  9
$REGENMODE
 70
     1
  9
$FILLMODE
 70
     1
  9
$QTEXTMODE
 70
     0
  9
$MIRRTEXT
 70
     0
  9
$DRAGMODE
 70
     2
  9
$LTSCALE
 40
5.0
  9
$OSMODE
 70
    37
  9
$ATTMODE
 70
     1
  9
$TEXTSIZE
 40
2.5000000000000488
  9
$TRACEWID
 40
0.05
  9
$TEXTSTYLE
  7
STANDARD
  9
$CLAYER
  8
0
  9
$CELTYPE
  6
BYLAYER
  9
$CECOLOR
 62
   256
  9
$DIMSCALE
 40
0.5
  9
$DIMASZ
 40
3.0
  9
$DIMEXO
 40
2.0
  9
$DIMDLI
 40
0.38
  9
$DIMRND
 40
0.0
  9
$DIMDLE
 40
0.0
  9
$DIMEXE
 40
2.0
  9
$DIMTP
 40
0.0
  9
$DIMTM
 40
0.0
  9
$DIMTXT
 40
3.2000000000000002
  9
$DIMCEN
 40
0.0
  9
$DIMTSZ
 40
0.0
  9
$DIMTOL
 70
     0
  9
$DIMLIM
 70
     0
  9
$DIMTIH
 70
     0
  9
$DIMTOH
 70
     0
  9
$DIMSE1
 70
     0
  9
$DIMSE2
 70
     0
  9
$DIMTAD
 70
     1
  9
$DIMZIN
 70
     0
  9
$DIMBLK
  1

  9
$DIMASO
 70
     1
  9
$DIMSHO
 70
     0
  9
$DIMPOST
  1

  9
$DIMAPOST
  1

  9
$DIMALT
 70
     0
  9
$DIMALTD
 70
     2
  9
$DIMALTF
 40
25.399999999999999
  9
$DIMLFAC
 40
1.0
  9
$DIMTOFL
 70
     1
  9
$DIMTVP
 40
1.6000000000000001
  9
$DIMTIX
 70
     1
  9
$DIMSOXD
 70
     0
  9
$DIMSAH
 70
     0
  9
$DIMBLK1
  1

  9
$DIMBLK2
  1

  9
$DIMSTYLE
  2
STANDARD
  9
$DIMCLRD
 70
     0
  9
$DIMCLRE
 70
     0
  9
$DIMCLRT
 70
     0
  9
$DIMTFAC
 40
1.0
  9
$DIMGAP
 40
0.09
  9
$LUNITS
 70
     2
  9
$LUPREC
 70
     1
  9
$SKETCHINC
 40
0.1
  9
$FILLETRAD
 40
0.0
  9
$AUNITS
 70
     0
  9
$AUPREC
 70
     1
  9
$MENU
  1
E:\r13\win\SUPPORT\ACAD
  9
$ELEVATION
 40
0.0
  9
$PELEVATION
 40
0.0
  9
$THICKNESS
 40
0.0
  9
$LIMCHECK
 70
     0
  9
$BLIPMODE
 70
     0
  9
$CHAMFERA
 40
0.0
  9
$CHAMFERB
 40
0.0
  9
$SKPOLY
 70
     0
  9
$TDCREATE
 40
2449839.787418982
  9
$TDUPDATE
 40
2457162.6029488551
  9
$TDINDWG
 40
0.2837156597
  9
$TDUSRTIMER
 40
0.2837156597
  9
$USRTIMER
 70
     1
  9
$ANGBASE
 50
0.0
  9
$ANGDIR
 70
     0
  9
$PDMODE
 70
     0
  9
$PDSIZE
 40
0.0
  9
$PLINEWID
 40
0.0
  9
$COORDS
 70
     1
  9
$SPLFRAME
 70
     0
  9
$SPLINETYPE
 70
     6
  9
$SPLINESEGS
 70
     8
  9
$ATTDIA
 70
     0
  9
$ATTREQ
 70
     1
  9
$HANDLING
 70
     1
  9
$HANDSEED
  5
63BF
  9
$SURFTAB1
 70
     6
  9
$SURFTAB2
 70
     6
  9
$SURFTYPE
 70
     6
  9
$SURFU
 70
     6
  9
$SURFV
 70
     6
  9
$UCSNAME
  2

  9
$UCSORG
 10
0.0
 20
0.0
 30
0.0
  9
$UCSXDIR
 10
1.0
 20
0.0
 30
0.0
  9
$UCSYDIR
 10
0.0
 20
1.0
 30
0.0
  9
$PUCSNAME
  2

  9
$PUCSORG
 10
0.0
 20
0.0
 30
0.0
  9
$PUCSXDIR
 10
1.0
 20
0.0
 30
0.0
  9
$PUCSYDIR
 10
0.0
 20
1.0
 30
0.0
  9
$USERI1
 70
     0
  9
$USERI2
 70
     1
  9
$USERI3
 70
     1
  9
$USERI4
 70
     0
  9
$USERI5
 70
     0
  9
$USERR1
 40
0.0
  9
$USERR2
 40
0.0
  9
$USERR3
 40
0.0
  9
$USERR4
 40
0.0
  9
$USERR5
 40
0.0
  9
$WORLDVIEW
 70
     1
  9
$SHADEDGE
 70
     3
  9
$SHADEDIF
 70
    70
  9
$TILEMODE
 70
     1
  9
$MAXACTVP
 70
    16
  9
$PLIMCHECK
 70
     0
  9
$PEXTMIN
 10
1.0000000000000000E+020
 20
1.0000000000000000E+020
 30
1.0000000000000000E+020
  9
$PEXTMAX
 10
-1.0000000000000000E+020
 20
-1.0000000000000000E+020
 30
-1.0000000000000000E+020
  9
$PLIMMIN
 10
0.0
 20
0.0
  9
$PLIMMAX
 10
12.0
 20
9.0
  9
$UNITMODE
 70
     0
  9
$VISRETAIN
 70
     0
  9
$PLINEGEN
 70
     0
  9
$PSLTSCALE
 70
     0
  0
ENDSEC
  0
SECTION
  2
TABLES
  0
TABLE
  2
VPORT
 70
     1
  0
VPORT
  2
*ACTIVE
 70
     0
 10
0.0
 20
0.0
 11
1.0
 21
1.0
 12
245.1941949864445
 22
135.0
 13
0.0
 23
0.0
 14
5.0
 24
5.0
 15
5.0
 25
5.0
 16
0.0
 26
0.0
 36
1.0
 17
0.0
 27
0.0
 37
0.0
 40
270.01624258579358
 41
1.816239316239316
 42
50.0
 43
0.0
 44
0.0
 50
0.0
 51
0.0
 71
     0
 72
   500
 73
     1
 74
     0
 75
     0
 76
     0
 77
     0
 78
     2
  0
ENDTAB
  0
TABLE
  2
LTYPE
 70
     3
  0
LTYPE
  2
CONTINUOUS
 70
     0
  3
Solid Line
 72
    65
 73
     0
 40
0.0
  0
LTYPE
  2
CENTER
 70
     0
  3
____ _ ____ _ ____ _ ____ _ ____ _ ____ _ ____
 72
    65
 73
     4
 40
2.0
 49
1.25
 49
-0.25
 49
0.25
 49
-0.25
  0
LTYPE
  2
PHANTOM2
 70
     0
  3
___ _ _ ___ _ _ ___ _ _ ___ _ _
 72
    65
 73
     6
 40
1.25
 49
0.625
 49
-0.125
 49
0.125
 49
-0.125
 49
0.125
 49
-0.125
  0
ENDTAB
  0
TABLE
  2
LAYER
 70
     3
  0
LAYER
  2
0
 70
     0
 62
     7
  6
CONTINUOUS
  0
LAYER
  2
1
 70
     0
 62
     1
  6
CENTER
  0
LAYER
  2
3
 70
     0
 62
     3
  6
CONTINUOUS
  0
ENDTAB
  0
TABLE
  2
STYLE
 70
     2
  0
STYLE
  2
STANDARD
 70
     0
 40
0.0
 41
1.0
 50
0.0
 71
     0
 42
2.5000000000000488
  3
TXT
  4
BIGFONT
  0
STYLE
  2
STANDARD1
 70
     0
 40
0.0
 41
1.0
 50
0.0
 71
     0
 42
3.0
  3
txt
  4

  0
ENDTAB
  0
TABLE
  2
VIEW
 70
     2
  0
VIEW
  2
ALL
 70
     0
 40
135.0
 10
110.4957983193277
 20
67.5
 41
0.0
 11
0.0
 21
0.0
 31
1.0
 12
0.0
 22
0.0
 32
0.0
 42
0.0
 43
0.0
 44
0.0
 50
0.0
 71
     0
  0
VIEW
  2
OLE1
 70
     0
 40
63.825144965398117
 10
233.6237691698706
 20
4.175601147383162
 41
113.79500935111911
 11
0.0
 21
0.0
 31
1.0
 12
0.0
 22
0.0
 32
0.0
 42
50.0
 43
0.0
 44
0.0
 50
0.0
 71
     0
  0
ENDTAB
  0
TABLE
  2
UCS
 70
     0
  0
ENDTAB
  0
TABLE
  2
APPID
 70
     6
  0
APPID
  2
ACAD
 70
     0
  0
APPID
  2
ACAD_EXEMPT_FROM_CAD_STANDARDS
 70
     0
  0
APPID
  2
ACAD_MLEADERVER
 70
     0
  0
APPID
  2
ACAD_DSTYLE_DIMJAG
 70
     0
  0
APPID
  2
ACAD_DSTYLE_DIMTALN
 70
     0
  0
APPID
  2
ACAD_NAV_VCDISPLAY
 70
     0
  0
ENDTAB
  0
TABLE
  2
DIMSTYLE
 70
     1
  0
DIMSTYLE
  2
STANDARD
 70
     0
  3

  4

  5

  6

  7

 40
1.0
 41
0.18
 42
0.0625
 43
0.38
 44
0.18
 45
0.0
 46
0.0
 47
0.0
 48
0.0
140
0.18
141
0.09
142
0.0
143
25.399999999999999
144
1.0
145
0.0
146
1.0
147
0.09
 71
     0
 72
     0
 73
     1
 74
     1
 75
     0
 76
     0
 77
     0
 78
     0
170
     0
171
     2
172
     0
173
     0
174
     0
175
     0
176
     0
177
     0
178
     0
  0
ENDTAB
  0
ENDSEC
  0
SECTION
  2
BLOCKS
  0
BLOCK
  8
0
  2
$MODEL_SPACE
 70
     0
 10
0.0
 20
0.0
 30
0.0
  3
$MODEL_SPACE
  1

  0
ENDBLK
  5
85E
  8
0
  0
BLOCK
 67
     1
  8
0
  2
$PAPER_SPACE
 70
     0
 10
0.0
 20
0.0
 30
0.0
  3
$PAPER_SPACE
  1

  0
ENDBLK
  5
85C
 67
     1
  8
0
  0
ENDSEC
  0
SECTION
  2
ENTITIES
  0
LINE
  5
5529
  8
1
 10
234.50000000000051
 20
50.000000000000171
 30
0.0
 11
305.50000000000051
 21
50.000000000000171
 31
0.0
  0
LINE
  5
552A
  8
1
 10
269.99999999999989
 20
14.500000000000069
 30
0.0
 11
269.99999999999989
 21
85.500000000000085
 31
0.0
  0
CIRCLE
  5
552B
  8
0
 10
270.00000000000051
 20
50.000000000000078
 30
0.0
 40
28.5
  0
CIRCLE
  5
552D
  8
0
 10
270.00000000000051
 20
50.000000000000078
 30
0.0
 40
13.05454545454546
  0
CIRCLE
  5
552E
  8
0
 10
270.00000000000051
 20
50.000000000000078
 30
0.0
 40
10.45454545454546
  0
ARC
  5
552F
  8
0
 10
270.00000000000608
 20
50.000000000000249
 30
0.0
 40
30.499999999994341
 50
357.61724342213938
 51
2.3827565778606181
  0
LINE
  5
5530
  8
0
 10
299.44617884958831
 20
48.218834326042661
 30
0.0
 11
300.47362931928808
 21
48.73196367928557
 31
0.0
  0
LINE
  5
5531
  8
0
 10
300.47362931928808
 20
51.2680363207146
 30
0.0
 11
299.44617884958831
 21
51.781165673957531
 31
0.0
  0
LINE
  5
5532
  8
0
 10
300.404287139774
 20
47.585600794773832
 30
0.0
 11
299.44617884958831
 21
48.218834326042639
 31
0.0
  0
LINE
  5
5533
  8
0
 10
299.44617884958831
 20
51.78116567395756
 30
0.0
 11
300.40428713977411
 21
52.414399205226367
 31
0.0
  0
ARC
  5
5534
  8
0
 10
270.00000000000188
 20
49.999999999999368
 30
0.0
 40
30.49999999999843
 50
350.69416649906373
 51
355.45967965478451
  0
LINE
  5
5535
  8
0
 10
299.01678725494122
 20
44.682476384489881
 30
0.0
 11
300.09859736268987
 21
45.068018978269947
 31
0.0
  0
ARC
  5
5536
  8
0
 10
269.99999999999937
 20
50.000000000000107
 30
0.0
 40
30.500000000001059
 50
4.5403203452154646
 51
9.3058335009378741
  0
LINE
  5
5537
  8
0
 10
300.09859736268987
 20
54.931981021730252
 30
0.0
 11
299.01678725494122
 21
55.317523615510311
 31
0.0
  0
LINE
  5
5538
  8
0
 10
299.89158198927009
 20
43.938372645998747
 30
0.0
 11
299.01678725494122
 21
44.682476384489881
 31
0.0
  0
LINE
  5
5539
  8
0
 10
299.01678725494122
 20
55.317523615510339
 30
0.0
 11
299.89158198926998
 21
56.061627354001409
 31
0.0
  0
ARC
  5
553A
  8
0
 10
270.00000000000409
 20
49.999999999999709
 30
0.0
 40
30.499999999996341
 50
343.77108957598432
 51
348.53660273170652
  0
LINE
  5
553B
  8
0
 10
298.16426556200253
 20
41.223659911271618
 30
0.0
 11
299.28466008040488
 21
41.475993666405166
 31
0.0
  0
ARC
  5
553C
  8
0
 10
270.0000000000033
 20
50.000000000000227
 30
0.0
 40
30.49999999999714
 50
11.4633972682935
 51
16.22891042401573
  0
LINE
  5
553D
  8
0
 10
299.28466008040488
 20
58.524006333594997
 30
0.0
 11
298.16426556200253
 21
58.776340088728539
 31
0.0
  0
LINE
  5
553E
  8
0
 10
298.94299026338172
 20
40.379536673641091
 30
0.0
 11
298.16426556200253
 21
41.223659911271596
 31
0.0
  0
LINE
  5
553F
  8
0
 10
298.16426556200253
 20
58.776340088728602
 30
0.0
 11
298.94299026338172
 21
59.620463326359072
 31
0.0
  0
ARC
  5
5540
  8
0
 10
269.9999999999954
 20
50.000000000002053
 30
0.0
 40
30.500000000005411
 50
336.84801265290872
 51
341.61352580863002
  0
LINE
  5
5541
  8
0
 10
296.90104545676712
 20
37.89282223914379
 30
0.0
 11
298.0436865108361
 21
38.00826756127487
 31
0.0
  0
ARC
  5
5542
  8
0
 10
269.99999999999602
 20
49.999999999998721
 30
0.0
 40
30.500000000004611
 50
18.38647419136997
 51
23.151987347089811
  0
LINE
  5
5543
  8
0
 10
298.0436865108361
 20
61.991732438725329
 30
0.0
 11
296.90104545676712
 21
62.107177760856409
 31
0.0
  0
LINE
  5
5544
  8
0
 10
297.57234456551521
 20
36.960988719978531
 30
0.0
 11
296.90104545676712
 21
37.892822239143747
 31
0.0
  0
LINE
  5
5545
  8
0
 10
296.90104545676712
 20
62.107177760856409
 30
0.0
 11
297.57234456551521
 21
63.039011280021661
 31
0.0
  0
ARC
  5
5546
  8
0
 10
270.00000000000091
 20
49.999999999999829
 30
0.0
 40
30.4999999999994
 50
329.92493572983039
 51
334.69044888555288
  0
LINE
  5
5547
  8
0
 10
295.24554753289323
 20
34.738534481759253
 30
0.0
 11
296.39377284305692
 21
34.71540791813095
 31
0.0
  0
ARC
  5
5548
  8
0
 10
269.99999999999892
 20
49.999999999999233
 30
0.0
 40
30.50000000000178
 50
25.309551114447078
 51
30.075064270168049
  0
LINE
  5
5549
  8
0
 10
296.39377284305692
 20
65.284592081869249
 30
0.0
 11
295.24554753289323
 21
65.261465518240954
 31
0.0
  0
LINE
  5
554A
  8
0
 10
295.79963199637058
 20
33.73257891207507
 30
0.0
 11
295.24554753289311
 21
34.738534481759189
 31
0.0
  0
LINE
  5
554B
  8
0
 10
295.24554753289311
 20
65.261465518240982
 30
0.0
 11
295.79963199637069
 21
66.267421087925186
 31
0.0
  0
ARC
  5
554C
  8
0
 10
269.9999999999992
 20
49.999999999999851
 30
0.0
 40
30.50000000000086
 50
323.00185880675627
 51
327.76737196247848
  0
LINE
  5
554D
  8
0
 10
293.22191267796751
 20
31.806793257458089
 30
0.0
 11
294.35897853362547
 21
31.64543204544464
 31
0.0
  0
ARC
  5
554E
  8
0
 10
270.00000000000449
 20
50.000000000002927
 30
0.0
 40
30.499999999995008
 50
32.232628037523682
 51
36.998141193244237
  0
LINE
  5
554F
  8
0
 10
294.35897853362547
 20
68.354567954555563
 30
0.0
 11
293.22191267796751
 21
68.193206742542117
 31
0.0
  0
LINE
  5
5550
  8
0
 10
293.65070269700738
 20
30.74138473467556
 30
0.0
 11
293.22191267796751
 21
31.806793257458089
 31
0.0
  0
LINE
  5
5551
  8
0
 10
293.2219126779674
 20
68.193206742542117
 30
0.0
 11
293.65070269700732
 21
69.258615265324636
 31
0.0
  0
ARC
  5
5552
  8
0
 10
270.00000000000392
 20
49.999999999997051
 30
0.0
 40
30.499999999995381
 50
316.07878188367681
 51
320.84429503939913
  0
LINE
  5
5553
  8
0
 10
290.8596500450036
 20
29.140349954996939
 30
0.0
 11
291.96897546553117
 21
28.843107104423272
 31
0.0
  0
ARC
  5
5554
  8
0
 10
269.9999999999992
 20
49.999999999999197
 30
0.0
 40
30.500000000001609
 50
39.155704960600907
 51
43.921218116323153
  0
LINE
  5
5555
  8
0
 10
291.96897546553117
 20
71.156892895576931
 30
0.0
 11
290.8596500450036
 21
70.859650045003235
 31
0.0
  0
LINE
  5
5556
  8
0
 10
291.1568928955773
 20
28.03102453446937
 30
0.0
 11
290.8596500450036
 21
29.14034995499696
 31
0.0
  0
LINE
  5
5557
  8
0
 10
290.8596500450036
 20
70.859650045003235
 30
0.0
 11
291.1568928955773
 21
71.968975465530832
 31
0.0
  0
ARC
  5
5558
  8
0
 10
269.9999999999954
 20
50.000000000005862
 30
0.0
 40
30.500000000007649
 50
309.15570496060081
 51
313.92121811632143
  0
LINE
  5
5559
  8
0
 10
288.19320674254249
 20
26.778087322033119
 30
0.0
 11
289.25861526532498
 21
26.34929730299319
 31
0.0
  0
ARC
  5
555A
  8
0
 10
269.99999999999778
 20
49.999999999996483
 30
0.0
 40
30.500000000004441
 50
46.078781883678417
 51
50.844295039399242
  0
LINE
  5
555B
  8
0
 10
289.25861526532492
 20
73.650702697006935
 30
0.0
 11
288.19320674254249
 21
73.221912677967055
 31
0.0
  0
LINE
  5
555C
  8
0
 10
288.35456795455588
 20
25.64102146637509
 30
0.0
 11
288.19320674254237
 21
26.778087322033091
 31
0.0
  0
LINE
  5
555D
  8
0
 10
288.19320674254237
 20
73.221912677967083
 30
0.0
 11
288.35456795455588
 21
74.358978533625134
 31
0.0
  0
ARC
  5
555E
  8
0
 10
269.99999999999858
 20
50.000000000001648
 30
0.0
 40
30.500000000002309
 50
302.23262803752692
 51
306.99814119324759
  0
LINE
  5
555F
  8
0
 10
285.26146551824132
 20
24.754452467107399
 30
0.0
 11
286.26742108792553
 21
24.200368003629851
 31
0.0
  0
ARC
  5
5560
  8
0
 10
269.99999999999949
 20
49.999999999997613
 30
0.0
 40
30.500000000002569
 50
53.001858806756438
 51
57.767371962476687
  0
LINE
  5
5561
  8
0
 10
286.26742108792553
 20
75.799631996370266
 30
0.0
 11
285.26146551824132
 21
75.245547532892772
 31
0.0
  0
LINE
  5
5562
  8
0
 10
285.28459208186962
 20
23.606227156943671
 30
0.0
 11
285.26146551824132
 21
24.75445246710737
 31
0.0
  0
LINE
  5
5563
  8
0
 10
285.26146551824132
 20
75.2455475328928
 30
0.0
 11
285.28459208186962
 21
76.393772843056524
 31
0.0
  0
ARC
  5
5564
  8
0
 10
269.99999999999989
 20
50.000000000000739
 30
0.0
 40
30.500000000000799
 50
295.30955111444553
 51
300.0750642701687
  0
LINE
  5
5565
  8
0
 10
282.10717776085681
 20
23.09895454323345
 30
0.0
 11
283.03901128002201
 21
22.427655434485359
 31
0.0
  0
ARC
  5
5566
  8
0
 10
270.00000000000142
 20
50.00000000000167
 30
0.0
 40
30.499999999998131
 50
59.924935729831091
 51
64.690448885554403
  0
LINE
  5
5567
  8
0
 10
283.03901128002201
 20
77.57234456551484
 30
0.0
 11
282.1071777608567
 21
76.901045456766752
 31
0.0
  0
LINE
  5
5568
  8
0
 10
281.99173243872571
 20
21.95631348916444
 30
0.0
 11
282.1071777608567
 21
23.09895454323345
 31
0.0
  0
LINE
  5
5569
  8
0
 10
282.1071777608567
 20
76.901045456766752
 30
0.0
 11
281.99173243872559
 21
78.043686510835727
 31
0.0
  0
ARC
  5
556A
  8
0
 10
269.99999999999801
 20
50.000000000007141
 30
0.0
 40
30.50000000000745
 50
288.38647419137021
 51
293.15198734709151
  0
LINE
  5
556B
  8
0
 10
278.776340088729
 20
21.835734437997989
 30
0.0
 11
279.62046332635941
 21
21.057009736618848
 31
0.0
  0
ARC
  5
556C
  8
0
 10
269.99999999999989
 20
49.999999999997101
 30
0.0
 40
30.50000000000297
 50
66.848012652908466
 51
71.613525808629817
  0
LINE
  5
556D
  8
0
 10
279.62046332635941
 20
78.94299026338129
 30
0.0
 11
278.776340088729
 21
78.164265562002157
 31
0.0
  0
LINE
  5
556E
  8
0
 10
278.52400633359542
 20
20.715339919595628
 30
0.0
 11
278.776340088729
 21
21.835734437997989
 31
0.0
  0
LINE
  5
556F
  8
0
 10
278.77634008872889
 20
78.164265562002214
 30
0.0
 11
278.52400633359542
 21
79.284660080404564
 31
0.0
  0
ARC
  5
5570
  8
0
 10
270.0
 20
50.000000000001528
 30
0.0
 40
30.50000000000151
 50
281.4633972682937
 51
286.22891042401579
  0
LINE
  5
5571
  8
0
 10
275.31752361551071
 20
20.98321274505938
 30
0.0
 11
276.06162735400181
 21
20.10841801073056
 31
0.0
  0
ARC
  5
5572
  8
0
 10
270.00000000000011
 20
49.999999999996703
 30
0.0
 40
30.500000000003361
 50
73.77108957598773
 51
78.536602731706367
  0
LINE
  5
5573
  8
0
 10
276.0616273540017
 20
79.891581989269611
 30
0.0
 11
275.31752361551071
 21
79.016787254940795
 31
0.0
  0
LINE
  5
5574
  8
0
 10
274.93198102173062
 20
19.901402637310671
 30
0.0
 11
275.31752361551071
 21
20.983212745059351
 31
0.0
  0
LINE
  5
5575
  8
0
 10
275.31752361551071
 20
79.016787254940795
 30
0.0
 11
274.93198102173051
 21
80.098597362689503
 31
0.0
  0
ARC
  5
5576
  8
0
 10
270.00000000000028
 20
50.00000000000167
 30
0.0
 40
30.500000000001609
 50
274.54032034521708
 51
279.30583350093792
  0
LINE
  5
5577
  8
0
 10
271.7811656739579
 20
20.553821150412229
 30
0.0
 11
272.4143992052268
 21
19.595712860226481
 31
0.0
  0
ARC
  5
5578
  8
0
 10
269.99999999999932
 20
49.999999999988567
 30
0.0
 40
30.500000000011539
 50
80.69416649906546
 51
85.459679654782946
  0
LINE
  5
5579
  8
0
 10
272.41439920522669
 20
80.404287139773686
 30
0.0
 11
271.7811656739579
 21
79.446178849587938
 31
0.0
  0
LINE
  5
557A
  8
0
 10
271.268036320715
 20
19.526370680712368
 30
0.0
 11
271.7811656739579
 21
20.553821150412229
 31
0.0
  0
LINE
  5
557B
  8
0
 10
271.7811656739579
 20
79.446178849587938
 30
0.0
 11
271.268036320715
 21
80.473629319287767
 31
0.0
  0
ARC
  5
557C
  8
0
 10
270.00000000000091
 20
49.999999999998693
 30
0.0
 40
30.499999999998629
 50
267.61724342213938
 51
272.38275657786062
  0
LINE
  5
557D
  8
0
 10
268.21883432604301
 20
20.553821150412229
 30
0.0
 11
268.73196367928603
 21
19.5263706807124
 31
0.0
  0
ARC
  5
557E
  8
0
 10
270.00000000000028
 20
50.000000000000881
 30
0.0
 40
30.499999999999218
 50
87.617243422139353
 51
92.382756577860647
  0
LINE
  5
557F
  8
0
 10
268.73196367928591
 20
80.473629319287767
 30
0.0
 11
268.21883432604301
 21
79.446178849587938
 31
0.0
  0
LINE
  5
5580
  8
0
 10
267.58560079477422
 20
19.595712860226541
 30
0.0
 11
268.21883432604301
 21
20.553821150412229
 31
0.0
  0
LINE
  5
5581
  8
0
 10
268.21883432604301
 20
79.446178849587938
 30
0.0
 11
267.58560079477422
 21
80.404287139773686
 31
0.0
  0
ARC
  5
5582
  8
0
 10
269.99999999999949
 20
49.999999999997982
 30
0.0
 40
30.49999999999779
 50
260.69416649906208
 51
265.45967965478621
  0
LINE
  5
5583
  8
0
 10
264.6824763844902
 20
20.983212745059351
 30
0.0
 11
265.06801897827029
 21
19.901402637310671
 31
0.0
  0
ARC
  5
5584
  8
0
 10
270.00000000000199
 20
49.999999999988148
 30
0.0
 40
30.500000000012012
 50
94.540320345217069
 51
99.305833500937851
  0
LINE
  5
5585
  8
0
 10
265.06801897827029
 20
80.098597362689446
 30
0.0
 11
264.6824763844902
 21
79.016787254940795
 31
0.0
  0
LINE
  5
5586
  8
0
 10
263.93837264599921
 20
20.108418010730531
 30
0.0
 11
264.6824763844902
 21
20.983212745059351
 31
0.0
  0
LINE
  5
5587
  8
0
 10
264.6824763844902
 20
79.016787254940795
 30
0.0
 11
263.93837264599921
 21
79.891581989269611
 31
0.0
  0
ARC
  5
5588
  8
0
 10
270.00000000000102
 20
50.000000000000988
 30
0.0
 40
30.500000000001041
 50
253.77108957598409
 51
258.53660273170641
  0
LINE
  5
5589
  8
0
 10
261.22365991127202
 20
21.835734437997989
 30
0.0
 11
261.47599366640549
 21
20.715339919595628
 31
0.0
  0
ARC
  5
558A
  8
0
 10
270.00000000000142
 20
49.999999999997442
 30
0.0
 40
30.500000000002789
 50
101.4633972682936
 51
106.22891042401579
  0
LINE
  5
558B
  8
0
 10
261.47599366640549
 20
79.284660080404507
 30
0.0
 11
261.22365991127202
 21
78.164265562002157
 31
0.0
  0
LINE
  5
558C
  8
0
 10
260.3795366736415
 20
21.05700973661882
 30
0.0
 11
261.22365991127202
 21
21.835734437997989
 31
0.0
  0
LINE
  5
558D
  8
0
 10
261.22365991127202
 20
78.164265562002157
 30
0.0
 11
260.3795366736415
 21
78.942990263381347
 31
0.0
  0
ARC
  5
558E
  8
0
 10
269.99999999999869
 20
49.999999999995246
 30
0.0
 40
30.499999999994859
 50
246.84801265290841
 51
251.61352580862979
  0
LINE
  5
558F
  8
0
 10
257.89282223914421
 20
23.09895454323345
 30
0.0
 11
258.0082675612752
 21
21.95631348916444
 31
0.0
  0
ARC
  5
5590
  8
0
 10
270.00000000000011
 20
50.000000000000369
 30
0.0
 40
30.499999999999609
 50
108.3864741913702
 51
113.15198734709151
  0
LINE
  5
5591
  8
0
 10
258.0082675612752
 20
78.043686510835727
 30
0.0
 11
257.8928222391441
 21
76.901045456766752
 31
0.0
  0
LINE
  5
5592
  8
0
 10
256.9609887199789
 20
22.427655434485391
 30
0.0
 11
257.8928222391441
 21
23.09895454323345
 31
0.0
  0
LINE
  5
5593
  8
0
 10
257.89282223914421
 20
76.901045456766752
 30
0.0
 11
256.9609887199789
 21
77.57234456551484
 31
0.0
  0
ARC
  5
5594
  8
0
 10
269.99999999999937
 20
49.999999999998948
 30
0.0
 40
30.499999999998469
 50
239.92493572983111
 51
244.69044888555439
  0
LINE
  5
5595
  8
0
 10
254.73853448175959
 20
24.754452467107399
 30
0.0
 11
254.71540791813129
 21
23.60622715694365
 31
0.0
  0
ARC
  5
5596
  8
0
 10
270.0000000000021
 20
49.999999999996838
 30
0.0
 40
30.500000000003642
 50
115.3095511144456
 51
120.0750642701687
  0
LINE
  5
5597
  8
0
 10
254.71540791813129
 20
76.393772843056524
 30
0.0
 11
254.73853448175959
 21
75.245547532892772
 31
0.0
  0
LINE
  5
5598
  8
0
 10
253.73257891207541
 20
24.200368003629851
 30
0.0
 11
254.73853448175959
 21
24.754452467107399
 31
0.0
  0
LINE
  5
5599
  8
0
 10
254.73853448175959
 20
75.2455475328928
 30
0.0
 11
253.73257891207541
 21
75.799631996370323
 31
0.0
  0
ARC
  5
559A
  8
0
 10
270.0000000000054
 20
50.000000000007503
 30
0.0
 40
30.5000000000089
 50
233.00185880675619
 51
237.76737196247669
  0
LINE
  5
559B
  8
0
 10
251.80679325745839
 20
26.778087322033119
 30
0.0
 11
251.64543204544501
 21
25.64102146637504
 31
0.0
  0
ARC
  5
559C
  8
0
 10
269.99999999999488
 20
50.000000000008328
 30
0.0
 40
30.499999999990049
 50
122.2326280375233
 51
126.9981411932476
  0
LINE
  5
559D
  8
0
 10
251.64543204544501
 20
74.358978533625105
 30
0.0
 11
251.80679325745839
 21
73.221912677967055
 31
0.0
  0
LINE
  5
559E
  8
0
 10
250.7413847346759
 20
26.349297302993168
 30
0.0
 11
251.80679325745839
 21
26.778087322033119
 31
0.0
  0
LINE
  5
559F
  8
0
 10
251.80679325745851
 20
73.221912677967055
 30
0.0
 11
250.7413847346759
 21
73.650702697006977
 31
0.0
  0
ARC
  5
55A0
  8
0
 10
270.0000000000004
 20
50.000000000000028
 30
0.0
 40
30.499999999999929
 50
226.0787818836784
 51
230.8442950393991
  0
LINE
  5
55A1
  8
0
 10
249.1403499549973
 20
29.140349954996939
 30
0.0
 11
248.84310710442361
 21
28.03102453446937
 31
0.0
  0
ARC
  5
55A2
  8
0
 10
270.00000000000148
 20
49.999999999998117
 30
0.0
 40
30.50000000000216
 50
129.1557049606009
 51
133.9212181163214
  0
LINE
  5
55A3
  8
0
 10
248.84310710442361
 20
71.968975465530832
 30
0.0
 11
249.1403499549973
 21
70.859650045003207
 31
0.0
  0
LINE
  5
55A4
  8
0
 10
248.03102453446971
 20
28.843107104423272
 30
0.0
 11
249.1403499549973
 21
29.140349954996939
 31
0.0
  0
LINE
  5
55A5
  8
0
 10
249.1403499549973
 20
70.859650045003235
 30
0.0
 11
248.03102453446971
 21
71.156892895576902
 31
0.0
  0
ARC
  5
55A6
  8
0
 10
269.99999999999898
 20
49.999999999998643
 30
0.0
 40
30.499999999997989
 50
219.1557049606009
 51
223.9212181163231
  0
LINE
  5
55A7
  8
0
 10
246.77808732203351
 20
31.80679325745805
 30
0.0
 11
246.34929730299351
 21
30.74138473467556
 31
0.0
  0
ARC
  5
55A8
  8
0
 10
269.99999999999437
 20
50.000000000005862
 30
0.0
 40
30.499999999991608
 50
136.07878188367681
 51
140.84429503940029
  0
LINE
  5
55A9
  8
0
 10
246.34929730299359
 20
69.258615265324565
 30
0.0
 11
246.77808732203351
 21
68.193206742542088
 31
0.0
  0
LINE
  5
55AA
  8
0
 10
245.64102146637541
 20
31.645432045444611
 30
0.0
 11
246.77808732203351
 21
31.80679325745805
 31
0.0
  0
LINE
  5
55AB
  8
0
 10
246.77808732203351
 20
68.193206742542117
 30
0.0
 11
245.64102146637541
 21
68.354567954555563
 31
0.0
  0
ARC
  5
55AC
  8
0
 10
269.99999999999608
 20
49.999999999997222
 30
0.0
 40
30.49999999999477
 50
212.23262803752209
 51
216.99814119324421
  0
LINE
  5
55AD
  8
0
 10
244.75445246710771
 20
34.738534481759217
 30
0.0
 11
244.20036800363019
 21
33.732578912075013
 31
0.0
  0
ARC
  5
55AE
  8
0
 10
270.00000000000472
 20
49.999999999996582
 30
0.0
 40
30.500000000005521
 50
143.00185880675559
 51
147.7673719624741
  0
LINE
  5
55AF
  8
0
 10
244.20036800363019
 20
66.267421087925186
 30
0.0
 11
244.75445246710771
 21
65.261465518240925
 31
0.0
  0
LINE
  5
55B0
  8
0
 10
243.60622715694399
 20
34.715407918130921
 30
0.0
 11
244.75445246710771
 21
34.738534481759217
 31
0.0
  0
LINE
  5
55B1
  8
0
 10
244.75445246710771
 20
65.261465518240954
 30
0.0
 11
243.60622715694399
 21
65.284592081869249
 31
0.0
  0
ARC
  5
55B2
  8
0
 10
270.000000000005
 20
50.000000000002593
 30
0.0
 40
30.500000000005208
 50
205.30955111444709
 51
210.07506427016801
  0
LINE
  5
55B3
  8
0
 10
243.09895454323379
 20
37.892822239143747
 30
0.0
 11
242.4276554344857
 21
36.960988719978531
 31
0.0
  0
ARC
  5
55B4
  8
0
 10
269.99999999999682
 20
50.000000000002132
 30
0.0
 40
30.499999999995818
 50
149.92493572983039
 51
154.69044888555439
  0
LINE
  5
55B5
  8
0
 10
242.4276554344857
 20
63.03901128002164
 30
0.0
 11
243.09895454323379
 21
62.107177760856409
 31
0.0
  0
LINE
  5
55B6
  8
0
 10
241.95631348916481
 20
38.00826756127487
 30
0.0
 11
243.09895454323379
 21
37.892822239143747
 31
0.0
  0
LINE
  5
55B7
  8
0
 10
243.09895454323379
 20
62.107177760856409
 30
0.0
 11
241.95631348916481
 21
61.991732438725307
 31
0.0
  0
ARC
  5
55B8
  8
0
 10
270.00000000000227
 20
50.000000000000853
 30
0.0
 40
30.500000000002039
 50
198.38647419137001
 51
203.15198734709131
  0
LINE
  5
55B9
  8
0
 10
241.83573443799841
 20
41.223659911271596
 30
0.0
 11
241.05700973661919
 21
40.379536673641091
 31
0.0
  0
ARC
  5
55BA
  8
0
 10
269.99999999999312
 20
50.000000000002593
 30
0.0
 40
30.499999999992252
 50
156.8480126529073
 51
161.61352580862999
  0
LINE
  5
55BB
  8
0
 10
241.05700973661919
 20
59.620463326359072
 30
0.0
 11
241.83573443799841
 21
58.776340088728539
 31
0.0
  0
LINE
  5
55BC
  8
0
 10
240.715339919596
 20
41.475993666405138
 30
0.0
 11
241.83573443799841
 21
41.223659911271596
 31
0.0
  0
LINE
  5
55BD
  8
0
 10
241.83573443799841
 20
58.776340088728567
 30
0.0
 11
240.715339919596
 21
58.524006333594997
 31
0.0
  0
ARC
  5
55BE
  8
0
 10
269.99999999999591
 20
49.99999999999892
 30
0.0
 40
30.499999999995332
 50
191.46339726829191
 51
196.228910424015
  0
LINE
  5
55BF
  8
0
 10
240.98321274505969
 20
44.682476384489853
 30
0.0
 11
240.1084180107309
 21
43.938372645998747
 31
0.0
  0
ARC
  5
55C0
  8
0
 10
269.99999999999733
 20
50.000000000000909
 30
0.0
 40
30.499999999996689
 50
163.771089575985
 51
168.53660273170649
  0
LINE
  5
55C1
  8
0
 10
240.1084180107309
 20
56.061627354001409
 30
0.0
 11
240.98321274505969
 21
55.317523615510311
 31
0.0
  0
LINE
  5
55C2
  8
0
 10
239.90140263731109
 20
45.068018978269912
 30
0.0
 11
240.98321274505969
 21
44.682476384489853
 31
0.0
  0
LINE
  5
55C3
  8
0
 10
240.98321274505969
 20
55.317523615510311
 30
0.0
 11
239.90140263731109
 21
54.931981021730252
 31
0.0
  0
ARC
  5
55C4
  8
0
 10
269.99999999999858
 20
49.999999999999709
 30
0.0
 40
30.499999999998149
 50
184.54032034521541
 51
189.30583350093781
  0
LINE
  5
55C5
  8
0
 10
240.5538211504126
 20
48.218834326042639
 30
0.0
 11
239.5957128602268
 21
47.585600794773832
 31
0.0
  0
ARC
  5
55C6
  8
0
 10
270.00000000000051
 20
49.999999999999488
 30
0.0
 40
30.50000000000011
 50
170.69416649906049
 51
175.45967965478289
  0
LINE
  5
55C7
  8
0
 10
239.5957128602268
 20
52.414399205226339
 30
0.0
 11
240.5538211504126
 21
51.781165673957503
 31
0.0
  0
LINE
  5
55C8
  8
0
 10
239.5263706807128
 20
48.73196367928557
 30
0.0
 11
240.5538211504126
 21
48.218834326042639
 31
0.0
  0
LINE
  5
55C9
  8
0
 10
240.5538211504126
 20
51.781165673957531
 30
0.0
 11
239.5263706807128
 21
51.2680363207146
 31
0.0
  0
ARC
  5
55CA
  8
0
 10
269.99999999999119
 20
50.000000000000078
 30
0.0
 40
30.499999999990749
 50
177.6172434221393
 51
182.38275657786059
  0
CIRCLE
  5
55CC
  8
0
 10
269.99999999999892
 20
49.999999999999922
 30
0.0
 40
29.49999999999843
  0
LINE
  5
561A
  8
1
 10
126.5
 20
50.000000000000078
 30
0.0
 11
195.5
 21
50.000000000000078
 31
0.0
  0
LINE
  5
561B
  8
0
 10
151.80000000000001
 20
56.666666666666742
 30
0.0
 11
151.5
 21
56.666666666666742
 31
0.0
  0
LINE
  5
561C
  8
0
 10
151.5
 20
43.333333333333421
 30
0.0
 11
151.80000000000001
 21
43.333333333333421
 31
0.0
  0
LINE
  5
561D
  8
0
 10
152.80000000000001
 20
61.500000000000092
 30
0.0
 11
151.80000000000001
 21
60.500000000000078
 31
0.0
  0
LINE
  5
561E
  8
0
 10
151.80000000000001
 20
39.500000000000092
 30
0.0
 11
152.80000000000001
 21
38.500000000000078
 31
0.0
  0
LINE
  5
561F
  8
0
 10
170.0
 20
61.500000000000092
 30
0.0
 11
152.80000000000001
 21
61.500000000000092
 31
0.0
  0
LINE
  5
5620
  8
0
 10
152.80000000000001
 20
38.500000000000078
 30
0.0
 11
170.0
 21
38.500000000000078
 31
0.0
  0
ARC
  5
5621
  8
0
 10
170.5
 20
22.000000000000089
 30
0.0
 40
0.5000000000000036
 50
180.0
 51
270.0
  0
ARC
  5
5622
  8
0
 10
170.5
 20
78.000000000000085
 30
0.0
 40
0.4999999999999964
 50
90.0
 51
180.0
  0
LINE
  5
5623
  8
0
 10
171.56
 20
78.500000000000085
 30
0.0
 11
170.5
 21
78.500000000000085
 31
0.0
  0
LINE
  5
5624
  8
0
 10
170.5
 20
21.500000000000089
 30
0.0
 11
171.56
 21
21.500000000000089
 31
0.0
  0
LINE
  5
5625
  8
0
 10
190.0
 20
78.500000000000085
 30
0.0
 11
188.94
 21
78.500000000000085
 31
0.0
  0
LINE
  5
5626
  8
0
 10
188.94
 20
21.500000000000089
 30
0.0
 11
190.0
 21
21.500000000000089
 31
0.0
  0
ARC
  5
5627
  8
0
 10
190.0
 20
22.000000000000089
 30
0.0
 40
0.4999999999999893
 50
270.0
 51
0.0
  0
ARC
  5
5628
  8
0
 10
190.0
 20
78.000000000000085
 30
0.0
 40
0.4999999999999929
 50
0.0
 51
90.0
  0
LINE
  5
5629
  8
0
 10
171.56
 20
20.500000000000089
 30
0.0
 11
172.02630765815519
 21
19.49999999999957
 31
0.0
  0
LINE
  5
562A
  8
0
 10
172.02630765815479
 20
80.499999999999574
 30
0.0
 11
171.56
 21
79.500000000000085
 31
0.0
  0
LINE
  5
562B
  8
0
 10
188.94
 20
79.500000000000085
 30
0.0
 11
188.47369234184521
 21
80.499999999999574
 31
0.0
  0
LINE
  5
562C
  8
0
 10
188.4736923418447
 20
19.49999999999957
 30
0.0
 11
188.94
 21
20.500000000000089
 31
0.0
  0
LINE
  5
562D
  8
0
 10
179.672649730812
 20
80.500000000000085
 30
0.0
 11
176.48235026918789
 21
80.500000000000085
 31
0.0
  0
LINE
  5
562E
  8
0
 10
176.4823502691911
 20
19.50000000000006
 30
0.0
 11
179.67264973080881
 21
19.50000000000006
 31
0.0
  0
LINE
  5
562F
  8
0
 10
172.02630765815621
 20
19.50000000000006
 30
0.0
 11
175.32764973080879
 21
19.50000000000006
 31
0.0
  0
LINE
  5
5630
  8
0
 10
180.82735026919119
 20
19.50000000000006
 30
0.0
 11
184.0176497308087
 21
19.50000000000006
 31
0.0
  0
LINE
  5
5631
  8
0
 10
185.17235026919121
 20
19.50000000000006
 30
0.0
 11
188.4736923418437
 21
19.50000000000006
 31
0.0
  0
LINE
  5
5632
  8
0
 10
175.327649730812
 20
80.500000000000085
 30
0.0
 11
172.02630765815371
 21
80.500000000000085
 31
0.0
  0
LINE
  5
5633
  8
0
 10
184.017649730812
 20
80.500000000000085
 30
0.0
 11
180.827350269188
 21
80.500000000000085
 31
0.0
  0
LINE
  5
5634
  8
0
 10
188.47369234184629
 20
80.500000000000085
 30
0.0
 11
185.172350269188
 21
80.500000000000085
 31
0.0
  0
LINE
  5
5635
  8
0
 10
184.595
 20
20.500000000000089
 30
0.0
 11
185.17235026918999
 21
19.4999999999994
 31
0.0
  0
LINE
  5
5636
  8
0
 10
185.1723502691892
 20
80.499999999999403
 30
0.0
 11
184.595
 21
79.500000000000085
 31
0.0
  0
LINE
  5
5637
  8
0
 10
184.595
 20
79.500000000000085
 30
0.0
 11
184.0176497308108
 21
80.499999999999403
 31
0.0
  0
LINE
  5
5638
  8
0
 10
184.01764973081001
 20
19.4999999999994
 30
0.0
 11
184.595
 21
20.500000000000089
 31
0.0
  0
LINE
  5
5639
  8
0
 10
180.25
 20
20.500000000000089
 30
0.0
 11
180.82735026918999
 21
19.4999999999994
 31
0.0
  0
LINE
  5
563A
  8
0
 10
180.8273502691892
 20
80.499999999999403
 30
0.0
 11
180.25
 21
79.500000000000085
 31
0.0
  0
LINE
  5
563B
  8
0
 10
180.25
 20
79.500000000000085
 30
0.0
 11
179.6726497308108
 21
80.499999999999403
 31
0.0
  0
LINE
  5
563C
  8
0
 10
179.67264973080989
 20
19.4999999999994
 30
0.0
 11
180.25
 21
20.500000000000089
 31
0.0
  0
LINE
  5
563D
  8
0
 10
175.905
 20
20.500000000000089
 30
0.0
 11
176.48235026918999
 21
19.4999999999994
 31
0.0
  0
LINE
  5
563E
  8
0
 10
176.4823502691892
 20
80.499999999999403
 30
0.0
 11
175.905
 21
79.500000000000085
 31
0.0
  0
LINE
  5
563F
  8
0
 10
175.905
 20
79.500000000000085
 30
0.0
 11
175.3276497308108
 21
80.499999999999403
 31
0.0
  0
LINE
  5
5640
  8
0
 10
175.32764973081001
 20
19.4999999999994
 30
0.0
 11
175.905
 21
20.500000000000089
 31
0.0
  0
LINE
  5
5641
  8
0
 10
151.5
 20
43.3333333333334
 30
0.0
 11
151.5
 21
56.666666666666771
 31
0.0
  0
LINE
  5
5642
  8
0
 10
151.80000000000001
 20
39.500000000000092
 30
0.0
 11
151.80000000000001
 21
60.500000000000078
 31
0.0
  0
LINE
  5
5643
  8
0
 10
152.80000000000001
 20
38.500000000000078
 30
0.0
 11
152.80000000000001
 21
61.500000000000092
 31
0.0
  0
LINE
  5
5644
  8
0
 10
170.0
 20
22.000000000000089
 30
0.0
 11
170.0
 21
78.000000000000085
 31
0.0
  0
LINE
  5
5645
  8
0
 10
170.5
 20
21.500000000000089
 30
0.0
 11
170.5
 21
78.500000000000085
 31
0.0
  0
LINE
  5
5646
  8
0
 10
190.0
 20
21.500000000000089
 30
0.0
 11
190.0
 21
78.500000000000085
 31
0.0
  0
LINE
  5
5647
  8
0
 10
190.5
 20
22.000000000000089
 30
0.0
 11
190.5
 21
78.000000000000085
 31
0.0
  0
LINE
  5
5648
  8
0
 10
171.56
 20
20.500052575691509
 30
0.0
 11
171.56
 21
79.499947424308658
 31
0.0
  0
LINE
  5
5649
  8
0
 10
188.94
 20
20.500052575691509
 30
0.0
 11
188.94
 21
79.499947424308658
 31
0.0
  0
LINE
  5
564A
  8
0
 10
172.02630765815499
 20
19.526370680712429
 30
0.0
 11
171.56
 21
20.553821150412201
 31
0.0
  0
LINE
  5
564B
  8
0
 10
172.02630765815499
 20
19.901402637310671
 30
0.0
 11
171.56
 21
20.983212745059351
 31
0.0
  0
LINE
  5
564C
  8
0
 10
172.02630765815499
 20
20.715339919595628
 30
0.0
 11
171.56
 21
21.835734437997989
 31
0.0
  0
LINE
  5
564D
  8
0
 10
172.02630765815499
 20
21.95631348916444
 30
0.0
 11
171.56
 21
23.09895454323345
 31
0.0
  0
LINE
  5
564E
  8
0
 10
172.02630765815499
 20
23.60622715694365
 30
0.0
 11
171.56
 21
24.75445246710737
 31
0.0
  0
LINE
  5
564F
  8
0
 10
172.02630765815499
 20
25.641021466375069
 30
0.0
 11
171.56
 21
26.778087322033119
 31
0.0
  0
LINE
  5
5650
  8
0
 10
172.02630765815499
 20
28.03102453446937
 30
0.0
 11
171.56
 21
29.140349954996939
 31
0.0
  0
LINE
  5
5651
  8
0
 10
172.02630765815499
 20
30.74138473467556
 30
0.0
 11
171.56
 21
31.80679325745805
 31
0.0
  0
LINE
  5
5652
  8
0
 10
172.02630765815499
 20
33.732578912075013
 30
0.0
 11
171.56
 21
34.738534481759217
 31
0.0
  0
LINE
  5
5653
  8
0
 10
172.02630765815499
 20
36.960988719978531
 30
0.0
 11
171.56
 21
37.892822239143747
 31
0.0
  0
LINE
  5
5654
  8
0
 10
172.02630765815499
 20
40.379536673641091
 30
0.0
 11
171.56
 21
41.223659911271596
 31
0.0
  0
LINE
  5
5655
  8
0
 10
172.02630765815499
 20
43.938372645998747
 30
0.0
 11
171.56
 21
44.682476384489853
 31
0.0
  0
LINE
  5
5656
  8
0
 10
172.02630765815499
 20
47.585600794773832
 30
0.0
 11
171.56
 21
48.218834326042639
 31
0.0
  0
LINE
  5
5657
  8
0
 10
176.4823502691896
 20
52.414399205226339
 30
0.0
 11
179.67264973081029
 21
52.414399205226339
 31
0.0
  0
LINE
  5
5658
  8
0
 10
176.4823502691896
 20
54.931981021730252
 30
0.0
 11
179.67264973081029
 21
54.931981021730252
 31
0.0
  0
LINE
  5
5659
  8
0
 10
176.4823502691896
 20
56.061627354001409
 30
0.0
 11
179.67264973081029
 21
56.061627354001409
 31
0.0
  0
LINE
  5
565A
  8
0
 10
176.4823502691896
 20
58.524006333594997
 30
0.0
 11
179.67264973081029
 21
58.524006333594997
 31
0.0
  0
LINE
  5
565B
  8
0
 10
176.4823502691896
 20
59.620463326359072
 30
0.0
 11
179.67264973081029
 21
59.620463326359072
 31
0.0
  0
LINE
  5
565C
  8
0
 10
176.4823502691896
 20
61.991732438725307
 30
0.0
 11
179.67264973081029
 21
61.991732438725307
 31
0.0
  0
LINE
  5
565D
  8
0
 10
176.4823502691896
 20
63.03901128002164
 30
0.0
 11
179.67264973081041
 21
63.03901128002164
 31
0.0
  0
LINE
  5
565E
  8
0
 10
176.4823502691896
 20
65.284592081869249
 30
0.0
 11
179.67264973081029
 21
65.284592081869249
 31
0.0
  0
LINE
  5
565F
  8
0
 10
176.4823502691896
 20
66.267421087925186
 30
0.0
 11
179.67264973081029
 21
66.267421087925186
 31
0.0
  0
LINE
  5
5660
  8
0
 10
176.4823502691896
 20
68.354567954555563
 30
0.0
 11
179.67264973081029
 21
68.354567954555563
 31
0.0
  0
LINE
  5
5661
  8
0
 10
176.4823502691896
 20
69.258615265324565
 30
0.0
 11
179.67264973081041
 21
69.258615265324565
 31
0.0
  0
LINE
  5
5662
  8
0
 10
176.4823502691896
 20
71.156892895576902
 30
0.0
 11
179.67264973081029
 21
71.156892895576902
 31
0.0
  0
LINE
  5
5663
  8
0
 10
176.4823502691896
 20
71.968975465530832
 30
0.0
 11
179.67264973081029
 21
71.968975465530832
 31
0.0
  0
LINE
  5
5664
  8
0
 10
176.4823502691896
 20
73.650702697006977
 30
0.0
 11
179.67264973081029
 21
73.650702697006977
 31
0.0
  0
LINE
  5
5665
  8
0
 10
176.4823502691896
 20
74.358978533625105
 30
0.0
 11
179.67264973081029
 21
74.358978533625105
 31
0.0
  0
LINE
  5
5666
  8
0
 10
176.4823502691896
 20
75.799631996370323
 30
0.0
 11
179.67264973081029
 21
75.799631996370323
 31
0.0
  0
LINE
  5
5667
  8
0
 10
176.4823502691896
 20
76.393772843056524
 30
0.0
 11
179.67264973081029
 21
76.393772843056524
 31
0.0
  0
LINE
  5
5668
  8
0
 10
176.4823502691896
 20
77.57234456551484
 30
0.0
 11
179.67264973081029
 21
77.57234456551484
 31
0.0
  0
LINE
  5
5669
  8
0
 10
176.4823502691896
 20
78.043686510835727
 30
0.0
 11
179.67264973081029
 21
78.043686510835727
 31
0.0
  0
LINE
  5
566A
  8
0
 10
176.4823502691896
 20
78.942990263381347
 30
0.0
 11
179.67264973081029
 21
78.942990263381347
 31
0.0
  0
LINE
  5
566B
  8
0
 10
176.4823502691896
 20
79.284660080404507
 30
0.0
 11
179.67264973081041
 21
79.284660080404507
 31
0.0
  0
LINE
  5
566C
  8
0
 10
176.4823502691896
 20
79.891581989269611
 30
0.0
 11
179.67264973081029
 21
79.891581989269611
 31
0.0
  0
LINE
  5
566D
  8
0
 10
176.4823502691896
 20
80.098597362689446
 30
0.0
 11
179.67264973081041
 21
80.098597362689446
 31
0.0
  0
LINE
  5
566E
  8
0
 10
176.4823502691896
 20
80.404287139773686
 30
0.0
 11
179.67264973081029
 21
80.404287139773686
 31
0.0
  0
LINE
  5
566F
  8
0
 10
176.4823502691896
 20
80.473629319287767
 30
0.0
 11
179.67264973081029
 21
80.473629319287767
 31
0.0
  0
LINE
  5
5670
  8
0
 10
172.02630765815621
 20
19.50000000000006
 30
0.0
 11
172.02630765815621
 21
19.526370680712429
 31
0.0
  0
LINE
  5
5671
  8
0
 10
172.02630765815499
 20
19.526370680712429
 30
0.0
 11
175.32764973081041
 21
19.526370680712429
 31
0.0
  0
LINE
  5
5672
  8
0
 10
188.4736923418437
 20
19.526370680712429
 30
0.0
 11
188.4736923418437
 21
19.50000000000006
 31
0.0
  0
LINE
  5
5673
  8
0
 10
176.4823502691896
 20
19.526370680712429
 30
0.0
 11
179.67264973081029
 21
19.526370680712429
 31
0.0
  0
LINE
  5
5674
  8
0
 10
180.82735026918959
 20
19.526370680712429
 30
0.0
 11
184.01764973081029
 21
19.526370680712429
 31
0.0
  0
LINE
  5
5675
  8
0
 10
188.94
 20
20.553821150412229
 30
0.0
 11
188.47369234184501
 21
19.5263706807124
 31
0.0
  0
LINE
  5
5676
  8
0
 10
185.17235026918959
 20
19.526370680712429
 30
0.0
 11
188.47369234184501
 21
19.526370680712429
 31
0.0
  0
LINE
  5
5677
  8
0
 10
172.02630765815371
 20
80.473629319287767
 30
0.0
 11
172.02630765815371
 21
80.500000000000085
 31
0.0
  0
LINE
  5
5678
  8
0
 10
188.47369234184629
 20
80.500000000000085
 30
0.0
 11
188.47369234184629
 21
80.473629319287767
 31
0.0
  0
LINE
  5
5679
  8
0
 10
171.56
 20
79.446178849587938
 30
0.0
 11
172.02630765815499
 21
80.473629319287767
 31
0.0
  0
LINE
  5
567A
  8
0
 10
172.02630765815499
 20
80.473629319287767
 30
0.0
 11
175.32764973081041
 21
80.473629319287767
 31
0.0
  0
LINE
  5
567B
  8
0
 10
180.82735026918959
 20
80.473629319287767
 30
0.0
 11
184.01764973081029
 21
80.473629319287767
 31
0.0
  0
LINE
  5
567C
  8
0
 10
185.17235026918959
 20
80.473629319287767
 30
0.0
 11
188.47369234184501
 21
80.473629319287767
 31
0.0
  0
LINE
  5
567D
  8
0
 10
188.47369234184501
 20
80.473629319287767
 30
0.0
 11
188.94
 21
79.446178849587938
 31
0.0
  0
LINE
  5
567E
  8
0
 10
171.56
 20
20.553821150412229
 30
0.0
 11
172.02630765815491
 21
19.595712860226541
 31
0.0
  0
LINE
  5
567F
  8
0
 10
188.47369234184501
 20
19.595712860226541
 30
0.0
 11
188.94
 21
20.553821150412229
 31
0.0
  0
LINE
  5
5680
  8
0
 10
172.02630765815499
 20
80.404287139773686
 30
0.0
 11
171.56
 21
79.446178849587938
 31
0.0
  0
LINE
  5
5681
  8
0
 10
188.94
 20
79.446178849587938
 30
0.0
 11
188.47369234184501
 21
80.404287139773686
 31
0.0
  0
LINE
  5
5682
  8
0
 10
176.48235026918951
 20
19.595712860226541
 30
0.0
 11
179.67264973081041
 21
19.595712860226541
 31
0.0
  0
LINE
  5
5683
  8
0
 10
172.02630765815491
 20
19.595712860226541
 30
0.0
 11
175.32764973081041
 21
19.595712860226541
 31
0.0
  0
LINE
  5
5684
  8
0
 10
172.0263076581542
 20
19.595712860226541
 30
0.0
 11
172.0263076581542
 21
19.901402637310671
 31
0.0
  0
LINE
  5
5685
  8
0
 10
172.02630765815499
 20
19.901402637310671
 30
0.0
 11
175.32764973081041
 21
19.901402637310671
 31
0.0
  0
LINE
  5
5686
  8
0
 10
180.82735026918959
 20
19.595712860226541
 30
0.0
 11
184.01764973081029
 21
19.595712860226541
 31
0.0
  0
LINE
  5
5687
  8
0
 10
188.47369234184569
 20
19.901402637310671
 30
0.0
 11
188.47369234184569
 21
19.595712860226541
 31
0.0
  0
LINE
  5
5688
  8
0
 10
185.17235026918959
 20
19.595712860226541
 30
0.0
 11
188.47369234184501
 21
19.595712860226541
 31
0.0
  0
LINE
  5
5689
  8
0
 10
176.4823502691896
 20
19.901402637310671
 30
0.0
 11
179.67264973081029
 21
19.901402637310671
 31
0.0
  0
LINE
  5
568A
  8
0
 10
180.82735026918959
 20
19.901402637310671
 30
0.0
 11
184.01764973081029
 21
19.901402637310671
 31
0.0
  0
LINE
  5
568B
  8
0
 10
188.94
 20
20.983212745059351
 30
0.0
 11
188.47369234184501
 21
19.901402637310671
 31
0.0
  0
LINE
  5
568C
  8
0
 10
185.17235026918959
 20
19.901402637310671
 30
0.0
 11
188.47369234184501
 21
19.901402637310671
 31
0.0
  0
LINE
  5
568D
  8
0
 10
172.02630765815411
 20
80.098597362689446
 30
0.0
 11
172.02630765815411
 21
80.404287139773686
 31
0.0
  0
LINE
  5
568E
  8
0
 10
172.02630765815499
 20
80.404287139773686
 30
0.0
 11
175.32764973081041
 21
80.404287139773686
 31
0.0
  0
LINE
  5
568F
  8
0
 10
180.82735026918959
 20
80.404287139773686
 30
0.0
 11
184.01764973081029
 21
80.404287139773686
 31
0.0
  0
LINE
  5
5690
  8
0
 10
185.17235026918959
 20
80.404287139773686
 30
0.0
 11
188.47369234184501
 21
80.404287139773686
 31
0.0
  0
LINE
  5
5691
  8
0
 10
188.4736923418458
 20
80.404287139773686
 30
0.0
 11
188.4736923418458
 21
80.098597362689446
 31
0.0
  0
LINE
  5
5692
  8
0
 10
171.56
 20
79.016787254940795
 30
0.0
 11
172.02630765815499
 21
80.098597362689446
 31
0.0
  0
LINE
  5
5693
  8
0
 10
172.02630765815499
 20
80.098597362689446
 30
0.0
 11
175.32764973081041
 21
80.098597362689446
 31
0.0
  0
LINE
  5
5694
  8
0
 10
180.82735026918959
 20
80.098597362689446
 30
0.0
 11
184.01764973081029
 21
80.098597362689446
 31
0.0
  0
LINE
  5
5695
  8
0
 10
185.17235026918959
 20
80.098597362689446
 30
0.0
 11
188.47369234184501
 21
80.098597362689446
 31
0.0
  0
LINE
  5
5696
  8
0
 10
188.47369234184501
 20
80.098597362689446
 30
0.0
 11
188.94
 21
79.016787254940795
 31
0.0
  0
LINE
  5
5697
  8
0
 10
171.56
 20
20.983212745059351
 30
0.0
 11
172.02630765815499
 21
20.108418010730531
 31
0.0
  0
LINE
  5
5698
  8
0
 10
188.47369234184501
 20
20.108418010730531
 30
0.0
 11
188.94
 21
20.983212745059351
 31
0.0
  0
LINE
  5
5699
  8
0
 10
172.02630765815499
 20
79.891581989269611
 30
0.0
 11
171.56
 21
79.016787254940795
 31
0.0
  0
LINE
  5
569A
  8
0
 10
188.94
 20
79.016787254940795
 30
0.0
 11
188.47369234184501
 21
79.891581989269611
 31
0.0
  0
LINE
  5
569B
  8
0
 10
176.4823502691896
 20
20.108418010730531
 30
0.0
 11
179.67264973081029
 21
20.108418010730531
 31
0.0
  0
LINE
  5
569C
  8
0
 10
172.02630765815499
 20
20.108418010730531
 30
0.0
 11
175.32764973081029
 21
20.108418010730531
 31
0.0
  0
LINE
  5
569D
  8
0
 10
172.02630765815471
 20
20.108418010730531
 30
0.0
 11
172.02630765815471
 21
20.715339919595628
 31
0.0
  0
LINE
  5
569E
  8
0
 10
172.02630765815499
 20
20.715339919595628
 30
0.0
 11
175.32764973081041
 21
20.715339919595628
 31
0.0
  0
LINE
  5
569F
  8
0
 10
180.82735026918959
 20
20.108418010730531
 30
0.0
 11
184.01764973081029
 21
20.108418010730531
 31
0.0
  0
LINE
  5
56A0
  8
0
 10
188.47369234184529
 20
20.715339919595628
 30
0.0
 11
188.47369234184529
 21
20.108418010730531
 31
0.0
  0
LINE
  5
56A1
  8
0
 10
185.17235026918959
 20
20.108418010730531
 30
0.0
 11
188.47369234184501
 21
20.108418010730531
 31
0.0
  0
LINE
  5
56A2
  8
0
 10
176.4823502691896
 20
20.715339919595628
 30
0.0
 11
179.67264973081029
 21
20.715339919595628
 31
0.0
  0
LINE
  5
56A3
  8
0
 10
180.82735026918959
 20
20.715339919595628
 30
0.0
 11
184.01764973081029
 21
20.715339919595628
 31
0.0
  0
LINE
  5
56A4
  8
0
 10
188.94
 20
21.835734437997989
 30
0.0
 11
188.47369234184501
 21
20.715339919595628
 31
0.0
  0
LINE
  5
56A5
  8
0
 10
185.17235026918959
 20
20.715339919595628
 30
0.0
 11
188.47369234184501
 21
20.715339919595628
 31
0.0
  0
LINE
  5
56A6
  8
0
 10
172.02630765815579
 20
79.284660080404507
 30
0.0
 11
172.02630765815579
 21
79.891581989269611
 31
0.0
  0
LINE
  5
56A7
  8
0
 10
172.02630765815499
 20
79.891581989269611
 30
0.0
 11
175.32764973081041
 21
79.891581989269611
 31
0.0
  0
LINE
  5
56A8
  8
0
 10
180.82735026918959
 20
79.891581989269611
 30
0.0
 11
184.01764973081029
 21
79.891581989269611
 31
0.0
  0
LINE
  5
56A9
  8
0
 10
185.17235026918959
 20
79.891581989269611
 30
0.0
 11
188.47369234184501
 21
79.891581989269611
 31
0.0
  0
LINE
  5
56AA
  8
0
 10
188.47369234184421
 20
79.891581989269611
 30
0.0
 11
188.47369234184421
 21
79.284660080404507
 31
0.0
  0
LINE
  5
56AB
  8
0
 10
171.56
 20
78.164265562002214
 30
0.0
 11
172.02630765815491
 21
79.284660080404507
 31
0.0
  0
LINE
  5
56AC
  8
0
 10
172.02630765815491
 20
79.284660080404507
 30
0.0
 11
175.32764973081041
 21
79.284660080404507
 31
0.0
  0
LINE
  5
56AD
  8
0
 10
180.82735026918959
 20
79.284660080404507
 30
0.0
 11
184.01764973081029
 21
79.284660080404507
 31
0.0
  0
LINE
  5
56AE
  8
0
 10
185.17235026918959
 20
79.284660080404507
 30
0.0
 11
188.47369234184501
 21
79.284660080404507
 31
0.0
  0
LINE
  5
56AF
  8
0
 10
188.47369234184501
 20
79.284660080404507
 30
0.0
 11
188.94
 21
78.164265562002157
 31
0.0
  0
LINE
  5
56B0
  8
0
 10
171.56
 20
21.835734437997989
 30
0.0
 11
172.02630765815499
 21
21.05700973661882
 31
0.0
  0
LINE
  5
56B1
  8
0
 10
188.47369234184501
 20
21.05700973661882
 30
0.0
 11
188.94
 21
21.835734437997989
 31
0.0
  0
LINE
  5
56B2
  8
0
 10
172.02630765815499
 20
78.942990263381347
 30
0.0
 11
171.56
 21
78.164265562002157
 31
0.0
  0
LINE
  5
56B3
  8
0
 10
188.94
 20
78.164265562002157
 30
0.0
 11
188.47369234184501
 21
78.942990263381347
 31
0.0
  0
LINE
  5
56B4
  8
0
 10
176.4823502691896
 20
21.05700973661882
 30
0.0
 11
179.67264973081029
 21
21.05700973661882
 31
0.0
  0
LINE
  5
56B5
  8
0
 10
172.02630765815499
 20
21.05700973661882
 30
0.0
 11
175.32764973081041
 21
21.05700973661882
 31
0.0
  0
LINE
  5
56B6
  8
0
 10
172.02630765815269
 20
21.05700973661882
 30
0.0
 11
172.02630765815269
 21
21.95631348916444
 31
0.0
  0
LINE
  5
56B7
  8
0
 10
172.02630765815499
 20
21.95631348916444
 30
0.0
 11
175.32764973081041
 21
21.95631348916444
 31
0.0
  0
LINE
  5
56B8
  8
0
 10
180.82735026918959
 20
21.05700973661882
 30
0.0
 11
184.01764973081029
 21
21.05700973661882
 31
0.0
  0
LINE
  5
56B9
  8
0
 10
188.4736923418472
 20
21.95631348916444
 30
0.0
 11
188.4736923418472
 21
21.05700973661882
 31
0.0
  0
LINE
  5
56BA
  8
0
 10
185.17235026918959
 20
21.05700973661882
 30
0.0
 11
188.47369234184501
 21
21.05700973661882
 31
0.0
  0
LINE
  5
56BB
  8
0
 10
176.4823502691896
 20
21.95631348916444
 30
0.0
 11
179.67264973081029
 21
21.95631348916444
 31
0.0
  0
LINE
  5
56BC
  8
0
 10
180.82735026918959
 20
21.95631348916444
 30
0.0
 11
184.01764973081029
 21
21.95631348916444
 31
0.0
  0
LINE
  5
56BD
  8
0
 10
188.94
 20
23.09895454323345
 30
0.0
 11
188.47369234184501
 21
21.95631348916444
 31
0.0
  0
LINE
  5
56BE
  8
0
 10
185.17235026918959
 20
21.95631348916444
 30
0.0
 11
188.47369234184501
 21
21.95631348916444
 31
0.0
  0
LINE
  5
56BF
  8
0
 10
172.02630765815451
 20
78.043686510835727
 30
0.0
 11
172.02630765815451
 21
78.942990263381347
 31
0.0
  0
LINE
  5
56C0
  8
0
 10
172.02630765815499
 20
78.942990263381347
 30
0.0
 11
175.32764973081041
 21
78.942990263381347
 31
0.0
  0
LINE
  5
56C1
  8
0
 10
180.82735026918959
 20
78.942990263381347
 30
0.0
 11
184.01764973081029
 21
78.942990263381347
 31
0.0
  0
LINE
  5
56C2
  8
0
 10
185.17235026918959
 20
78.942990263381347
 30
0.0
 11
188.47369234184501
 21
78.942990263381347
 31
0.0
  0
LINE
  5
56C3
  8
0
 10
188.47369234184549
 20
78.942990263381347
 30
0.0
 11
188.47369234184549
 21
78.043686510835727
 31
0.0
  0
LINE
  5
56C4
  8
0
 10
171.56
 20
76.901045456766752
 30
0.0
 11
172.02630765815499
 21
78.043686510835727
 31
0.0
  0
LINE
  5
56C5
  8
0
 10
172.02630765815499
 20
78.043686510835727
 30
0.0
 11
175.32764973081041
 21
78.043686510835727
 31
0.0
  0
LINE
  5
56C6
  8
0
 10
180.82735026918959
 20
78.043686510835727
 30
0.0
 11
184.01764973081029
 21
78.043686510835727
 31
0.0
  0
LINE
  5
56C7
  8
0
 10
185.17235026918959
 20
78.043686510835727
 30
0.0
 11
188.47369234184501
 21
78.043686510835727
 31
0.0
  0
LINE
  5
56C8
  8
0
 10
188.47369234184501
 20
78.043686510835727
 30
0.0
 11
188.94
 21
76.901045456766752
 31
0.0
  0
LINE
  5
56C9
  8
0
 10
171.56
 20
23.09895454323345
 30
0.0
 11
172.02630765815491
 21
22.427655434485359
 31
0.0
  0
LINE
  5
56CA
  8
0
 10
188.47369234184501
 20
22.427655434485391
 30
0.0
 11
188.94
 21
23.09895454323345
 31
0.0
  0
LINE
  5
56CB
  8
0
 10
172.02630765815499
 20
77.57234456551484
 30
0.0
 11
171.56
 21
76.901045456766752
 31
0.0
  0
LINE
  5
56CC
  8
0
 10
188.94
 20
76.901045456766752
 30
0.0
 11
188.47369234184501
 21
77.57234456551484
 31
0.0
  0
LINE
  5
56CD
  8
0
 10
176.48235026918951
 20
22.427655434485359
 30
0.0
 11
179.67264973081041
 21
22.427655434485359
 31
0.0
  0
LINE
  5
56CE
  8
0
 10
172.02630765815491
 20
22.427655434485359
 30
0.0
 11
175.32764973081041
 21
22.427655434485359
 31
0.0
  0
LINE
  5
56CF
  8
0
 10
172.02630765815331
 20
22.427655434485359
 30
0.0
 11
172.02630765815331
 21
23.60622715694365
 31
0.0
  0
LINE
  5
56D0
  8
0
 10
172.02630765815499
 20
23.60622715694365
 30
0.0
 11
175.32764973081041
 21
23.60622715694365
 31
0.0
  0
LINE
  5
56D1
  8
0
 10
180.82735026918959
 20
22.427655434485359
 30
0.0
 11
184.01764973081029
 21
22.427655434485359
 31
0.0
  0
LINE
  5
56D2
  8
0
 10
188.4736923418466
 20
23.60622715694365
 30
0.0
 11
188.4736923418466
 21
22.427655434485359
 31
0.0
  0
LINE
  5
56D3
  8
0
 10
185.17235026918959
 20
22.427655434485359
 30
0.0
 11
188.47369234184501
 21
22.427655434485359
 31
0.0
  0
LINE
  5
56D4
  8
0
 10
176.4823502691896
 20
23.60622715694365
 30
0.0
 11
179.67264973081029
 21
23.60622715694365
 31
0.0
  0
LINE
  5
56D5
  8
0
 10
180.82735026918959
 20
23.60622715694365
 30
0.0
 11
184.01764973081029
 21
23.60622715694365
 31
0.0
  0
LINE
  5
56D6
  8
0
 10
188.94
 20
24.754452467107399
 30
0.0
 11
188.47369234184501
 21
23.60622715694365
 31
0.0
  0
LINE
  5
56D7
  8
0
 10
185.17235026918959
 20
23.60622715694365
 30
0.0
 11
188.47369234184501
 21
23.60622715694365
 31
0.0
  0
LINE
  5
56D8
  8
0
 10
172.0263076581567
 20
76.393772843056524
 30
0.0
 11
172.0263076581567
 21
77.57234456551484
 31
0.0
  0
LINE
  5
56D9
  8
0
 10
172.02630765815499
 20
77.57234456551484
 30
0.0
 11
175.32764973081041
 21
77.57234456551484
 31
0.0
  0
LINE
  5
56DA
  8
0
 10
180.82735026918959
 20
77.57234456551484
 30
0.0
 11
184.01764973081029
 21
77.57234456551484
 31
0.0
  0
LINE
  5
56DB
  8
0
 10
185.17235026918959
 20
77.57234456551484
 30
0.0
 11
188.47369234184501
 21
77.57234456551484
 31
0.0
  0
LINE
  5
56DC
  8
0
 10
188.47369234184319
 20
77.57234456551484
 30
0.0
 11
188.47369234184319
 21
76.393772843056524
 31
0.0
  0
LINE
  5
56DD
  8
0
 10
171.56
 20
75.245547532892772
 30
0.0
 11
172.02630765815499
 21
76.393772843056524
 31
0.0
  0
LINE
  5
56DE
  8
0
 10
172.02630765815499
 20
76.393772843056524
 30
0.0
 11
175.32764973081041
 21
76.393772843056524
 31
0.0
  0
LINE
  5
56DF
  8
0
 10
180.82735026918959
 20
76.393772843056524
 30
0.0
 11
184.01764973081029
 21
76.393772843056524
 31
0.0
  0
LINE
  5
56E0
  8
0
 10
185.17235026918959
 20
76.393772843056524
 30
0.0
 11
188.47369234184501
 21
76.393772843056524
 31
0.0
  0
LINE
  5
56E1
  8
0
 10
188.47369234184501
 20
76.393772843056524
 30
0.0
 11
188.94
 21
75.245547532892772
 31
0.0
  0
LINE
  5
56E2
  8
0
 10
171.56
 20
24.754452467107399
 30
0.0
 11
172.02630765815499
 21
24.200368003629851
 31
0.0
  0
LINE
  5
56E3
  8
0
 10
188.47369234184501
 20
24.200368003629851
 30
0.0
 11
188.94
 21
24.754452467107399
 31
0.0
  0
LINE
  5
56E4
  8
0
 10
172.02630765815499
 20
75.799631996370323
 30
0.0
 11
171.56
 21
75.2455475328928
 31
0.0
  0
LINE
  5
56E5
  8
0
 10
188.94
 20
75.2455475328928
 30
0.0
 11
188.47369234184501
 21
75.799631996370323
 31
0.0
  0
LINE
  5
56E6
  8
0
 10
176.4823502691896
 20
24.200368003629851
 30
0.0
 11
179.67264973081029
 21
24.200368003629851
 31
0.0
  0
LINE
  5
56E7
  8
0
 10
172.02630765815499
 20
24.200368003629851
 30
0.0
 11
175.32764973081041
 21
24.200368003629851
 31
0.0
  0
LINE
  5
56E8
  8
0
 10
172.0263076581559
 20
24.20036800362988
 30
0.0
 11
172.0263076581559
 21
25.64102146637504
 31
0.0
  0
LINE
  5
56E9
  8
0
 10
172.02630765815499
 20
25.64102146637504
 30
0.0
 11
175.32764973081041
 21
25.64102146637504
 31
0.0
  0
LINE
  5
56EA
  8
0
 10
180.82735026918959
 20
24.200368003629851
 30
0.0
 11
184.01764973081029
 21
24.200368003629851
 31
0.0
  0
LINE
  5
56EB
  8
0
 10
188.47369234184401
 20
25.64102146637504
 30
0.0
 11
188.47369234184401
 21
24.20036800362988
 31
0.0
  0
LINE
  5
56EC
  8
0
 10
185.17235026918959
 20
24.200368003629851
 30
0.0
 11
188.47369234184501
 21
24.200368003629851
 31
0.0
  0
LINE
  5
56ED
  8
0
 10
176.4823502691896
 20
25.64102146637504
 30
0.0
 11
179.67264973081029
 21
25.64102146637504
 31
0.0
  0
LINE
  5
56EE
  8
0
 10
180.82735026918959
 20
25.64102146637504
 30
0.0
 11
184.01764973081029
 21
25.64102146637504
 31
0.0
  0
LINE
  5
56EF
  8
0
 10
188.94
 20
26.778087322033119
 30
0.0
 11
188.47369234184501
 21
25.64102146637504
 31
0.0
  0
LINE
  5
56F0
  8
0
 10
185.17235026918959
 20
25.64102146637504
 30
0.0
 11
188.47369234184501
 21
25.64102146637504
 31
0.0
  0
LINE
  5
56F1
  8
0
 10
172.02630765815479
 20
74.358978533625105
 30
0.0
 11
172.02630765815479
 21
75.799631996370323
 31
0.0
  0
LINE
  5
56F2
  8
0
 10
172.02630765815499
 20
75.799631996370323
 30
0.0
 11
175.32764973081041
 21
75.799631996370323
 31
0.0
  0
LINE
  5
56F3
  8
0
 10
180.82735026918959
 20
75.799631996370323
 30
0.0
 11
184.01764973081029
 21
75.799631996370323
 31
0.0
  0
LINE
  5
56F4
  8
0
 10
185.17235026918959
 20
75.799631996370323
 30
0.0
 11
188.47369234184501
 21
75.799631996370323
 31
0.0
  0
LINE
  5
56F5
  8
0
 10
188.47369234184509
 20
75.799631996370323
 30
0.0
 11
188.47369234184509
 21
74.358978533625105
 31
0.0
  0
LINE
  5
56F6
  8
0
 10
171.56
 20
73.221912677967055
 30
0.0
 11
172.02630765815499
 21
74.358978533625105
 31
0.0
  0
LINE
  5
56F7
  8
0
 10
172.02630765815499
 20
74.358978533625105
 30
0.0
 11
175.32764973081041
 21
74.358978533625105
 31
0.0
  0
LINE
  5
56F8
  8
0
 10
180.82735026918959
 20
74.358978533625105
 30
0.0
 11
184.01764973081029
 21
74.358978533625105
 31
0.0
  0
LINE
  5
56F9
  8
0
 10
185.17235026918959
 20
74.358978533625105
 30
0.0
 11
188.47369234184501
 21
74.358978533625105
 31
0.0
  0
LINE
  5
56FA
  8
0
 10
188.47369234184501
 20
74.358978533625105
 30
0.0
 11
188.94
 21
73.221912677967055
 31
0.0
  0
LINE
  5
56FB
  8
0
 10
171.56
 20
26.778087322033119
 30
0.0
 11
172.02630765815499
 21
26.349297302993168
 31
0.0
  0
LINE
  5
56FC
  8
0
 10
188.47369234184501
 20
26.349297302993168
 30
0.0
 11
188.94
 21
26.778087322033119
 31
0.0
  0
LINE
  5
56FD
  8
0
 10
172.02630765815499
 20
73.650702697006977
 30
0.0
 11
171.56
 21
73.221912677967055
 31
0.0
  0
LINE
  5
56FE
  8
0
 10
188.94
 20
73.221912677967055
 30
0.0
 11
188.47369234184501
 21
73.650702697006977
 31
0.0
  0
LINE
  5
56FF
  8
0
 10
176.4823502691896
 20
26.349297302993168
 30
0.0
 11
179.67264973081029
 21
26.349297302993168
 31
0.0
  0
LINE
  5
5700
  8
0
 10
172.02630765815499
 20
26.349297302993168
 30
0.0
 11
175.32764973081041
 21
26.349297302993168
 31
0.0
  0
LINE
  5
5701
  8
0
 10
172.0263076581538
 20
26.349297302993168
 30
0.0
 11
172.0263076581538
 21
28.03102453446937
 31
0.0
  0
LINE
  5
5702
  8
0
 10
172.02630765815499
 20
28.03102453446937
 30
0.0
 11
175.32764973081041
 21
28.03102453446937
 31
0.0
  0
LINE
  5
5703
  8
0
 10
180.82735026918959
 20
26.349297302993168
 30
0.0
 11
184.01764973081029
 21
26.349297302993168
 31
0.0
  0
LINE
  5
5704
  8
0
 10
188.473692341846
 20
28.03102453446937
 30
0.0
 11
188.473692341846
 21
26.349297302993168
 31
0.0
  0
LINE
  5
5705
  8
0
 10
185.17235026918959
 20
26.349297302993168
 30
0.0
 11
188.47369234184501
 21
26.349297302993168
 31
0.0
  0
LINE
  5
5706
  8
0
 10
176.4823502691896
 20
28.03102453446937
 30
0.0
 11
179.67264973081029
 21
28.03102453446937
 31
0.0
  0
LINE
  5
5707
  8
0
 10
180.82735026918959
 20
28.03102453446937
 30
0.0
 11
184.01764973081029
 21
28.03102453446937
 31
0.0
  0
LINE
  5
5708
  8
0
 10
188.94
 20
29.140349954996939
 30
0.0
 11
188.47369234184501
 21
28.03102453446937
 31
0.0
  0
LINE
  5
5709
  8
0
 10
185.17235026918959
 20
28.03102453446937
 30
0.0
 11
188.47369234184501
 21
28.03102453446937
 31
0.0
  0
LINE
  5
570A
  8
0
 10
172.02630765815499
 20
71.968975465530832
 30
0.0
 11
172.02630765815499
 21
73.650702697006977
 31
0.0
  0
LINE
  5
570B
  8
0
 10
172.02630765815499
 20
73.650702697006977
 30
0.0
 11
175.32764973081041
 21
73.650702697006977
 31
0.0
  0
LINE
  5
570C
  8
0
 10
180.82735026918959
 20
73.650702697006977
 30
0.0
 11
184.01764973081029
 21
73.650702697006977
 31
0.0
  0
LINE
  5
570D
  8
0
 10
185.17235026918959
 20
73.650702697006977
 30
0.0
 11
188.47369234184501
 21
73.650702697006977
 31
0.0
  0
LINE
  5
570E
  8
0
 10
188.4736923418449
 20
73.650702697006977
 30
0.0
 11
188.4736923418449
 21
71.968975465530832
 31
0.0
  0
LINE
  5
570F
  8
0
 10
171.56
 20
70.859650045003207
 30
0.0
 11
172.02630765815499
 21
71.968975465530832
 31
0.0
  0
LINE
  5
5710
  8
0
 10
172.02630765815499
 20
71.968975465530832
 30
0.0
 11
175.32764973081029
 21
71.968975465530832
 31
0.0
  0
LINE
  5
5711
  8
0
 10
180.82735026918959
 20
71.968975465530832
 30
0.0
 11
184.01764973081029
 21
71.968975465530832
 31
0.0
  0
LINE
  5
5712
  8
0
 10
185.17235026918959
 20
71.968975465530832
 30
0.0
 11
188.47369234184501
 21
71.968975465530832
 31
0.0
  0
LINE
  5
5713
  8
0
 10
188.47369234184501
 20
71.968975465530832
 30
0.0
 11
188.94
 21
70.859650045003207
 31
0.0
  0
LINE
  5
5714
  8
0
 10
171.56
 20
29.140349954996939
 30
0.0
 11
172.02630765815499
 21
28.84310710442324
 31
0.0
  0
LINE
  5
5715
  8
0
 10
188.47369234184501
 20
28.843107104423272
 30
0.0
 11
188.94
 21
29.140349954996939
 31
0.0
  0
LINE
  5
5716
  8
0
 10
172.02630765815499
 20
71.156892895576902
 30
0.0
 11
171.56
 21
70.859650045003235
 31
0.0
  0
LINE
  5
5717
  8
0
 10
188.94
 20
70.859650045003235
 30
0.0
 11
188.47369234184501
 21
71.156892895576902
 31
0.0
  0
LINE
  5
5718
  8
0
 10
176.4823502691896
 20
28.84310710442324
 30
0.0
 11
179.67264973081029
 21
28.84310710442324
 31
0.0
  0
LINE
  5
5719
  8
0
 10
172.02630765815499
 20
28.84310710442324
 30
0.0
 11
175.32764973081041
 21
28.84310710442324
 31
0.0
  0
LINE
  5
571A
  8
0
 10
172.0263076581553
 20
28.84310710442324
 30
0.0
 11
172.0263076581553
 21
30.74138473467556
 31
0.0
  0
LINE
  5
571B
  8
0
 10
172.02630765815499
 20
30.74138473467556
 30
0.0
 11
175.32764973081041
 21
30.74138473467556
 31
0.0
  0
LINE
  5
571C
  8
0
 10
180.82735026918959
 20
28.84310710442324
 30
0.0
 11
184.01764973081029
 21
28.84310710442324
 31
0.0
  0
LINE
  5
571D
  8
0
 10
188.47369234184461
 20
30.74138473467556
 30
0.0
 11
188.47369234184461
 21
28.843107104423272
 31
0.0
  0
LINE
  5
571E
  8
0
 10
185.17235026918959
 20
28.84310710442324
 30
0.0
 11
188.47369234184501
 21
28.84310710442324
 31
0.0
  0
LINE
  5
571F
  8
0
 10
176.4823502691896
 20
30.74138473467556
 30
0.0
 11
179.67264973081029
 21
30.74138473467556
 31
0.0
  0
LINE
  5
5720
  8
0
 10
180.82735026918959
 20
30.74138473467556
 30
0.0
 11
184.01764973081029
 21
30.74138473467556
 31
0.0
  0
LINE
  5
5721
  8
0
 10
188.94
 20
31.80679325745805
 30
0.0
 11
188.47369234184501
 21
30.74138473467556
 31
0.0
  0
LINE
  5
5722
  8
0
 10
185.17235026918959
 20
30.74138473467556
 30
0.0
 11
188.47369234184501
 21
30.74138473467556
 31
0.0
  0
LINE
  5
5723
  8
0
 10
172.02630765815101
 20
69.258615265324565
 30
0.0
 11
172.02630765815101
 21
71.156892895576902
 31
0.0
  0
LINE
  5
5724
  8
0
 10
172.02630765815499
 20
71.156892895576902
 30
0.0
 11
175.32764973081041
 21
71.156892895576902
 31
0.0
  0
LINE
  5
5725
  8
0
 10
180.82735026918959
 20
71.156892895576902
 30
0.0
 11
184.01764973081029
 21
71.156892895576902
 31
0.0
  0
LINE
  5
5726
  8
0
 10
185.17235026918959
 20
71.156892895576902
 30
0.0
 11
188.47369234184501
 21
71.156892895576902
 31
0.0
  0
LINE
  5
5727
  8
0
 10
188.47369234184899
 20
71.156892895576902
 30
0.0
 11
188.47369234184899
 21
69.258615265324565
 31
0.0
  0
LINE
  5
5728
  8
0
 10
171.56
 20
68.193206742542117
 30
0.0
 11
172.02630765815491
 21
69.258615265324565
 31
0.0
  0
LINE
  5
5729
  8
0
 10
172.02630765815491
 20
69.258615265324565
 30
0.0
 11
175.32764973081041
 21
69.258615265324565
 31
0.0
  0
LINE
  5
572A
  8
0
 10
180.82735026918959
 20
69.258615265324565
 30
0.0
 11
184.01764973081029
 21
69.258615265324565
 31
0.0
  0
LINE
  5
572B
  8
0
 10
185.17235026918959
 20
69.258615265324565
 30
0.0
 11
188.47369234184501
 21
69.258615265324565
 31
0.0
  0
LINE
  5
572C
  8
0
 10
188.47369234184501
 20
69.258615265324565
 30
0.0
 11
188.94
 21
68.193206742542088
 31
0.0
  0
LINE
  5
572D
  8
0
 10
171.56
 20
31.80679325745805
 30
0.0
 11
172.02630765815499
 21
31.645432045444611
 31
0.0
  0
LINE
  5
572E
  8
0
 10
188.47369234184501
 20
31.645432045444611
 30
0.0
 11
188.94
 21
31.80679325745805
 31
0.0
  0
LINE
  5
572F
  8
0
 10
172.02630765815499
 20
68.354567954555563
 30
0.0
 11
171.56
 21
68.193206742542117
 31
0.0
  0
LINE
  5
5730
  8
0
 10
188.94
 20
68.193206742542117
 30
0.0
 11
188.47369234184501
 21
68.354567954555563
 31
0.0
  0
LINE
  5
5731
  8
0
 10
176.4823502691896
 20
31.645432045444611
 30
0.0
 11
179.67264973081029
 21
31.645432045444611
 31
0.0
  0
LINE
  5
5732
  8
0
 10
172.02630765815499
 20
31.645432045444611
 30
0.0
 11
175.32764973081041
 21
31.645432045444611
 31
0.0
  0
LINE
  5
5733
  8
0
 10
172.0263076581542
 20
31.645432045444611
 30
0.0
 11
172.0263076581542
 21
33.732578912075013
 31
0.0
  0
LINE
  5
5734
  8
0
 10
172.02630765815499
 20
33.732578912075013
 30
0.0
 11
175.32764973081041
 21
33.732578912075013
 31
0.0
  0
LINE
  5
5735
  8
0
 10
180.82735026918959
 20
31.645432045444611
 30
0.0
 11
184.01764973081029
 21
31.645432045444611
 31
0.0
  0
LINE
  5
5736
  8
0
 10
188.4736923418458
 20
33.732578912075013
 30
0.0
 11
188.4736923418458
 21
31.645432045444611
 31
0.0
  0
LINE
  5
5737
  8
0
 10
185.17235026918959
 20
31.645432045444611
 30
0.0
 11
188.47369234184501
 21
31.645432045444611
 31
0.0
  0
LINE
  5
5738
  8
0
 10
176.4823502691896
 20
33.732578912075013
 30
0.0
 11
179.67264973081029
 21
33.732578912075013
 31
0.0
  0
LINE
  5
5739
  8
0
 10
180.82735026918959
 20
33.732578912075013
 30
0.0
 11
184.01764973081029
 21
33.732578912075013
 31
0.0
  0
LINE
  5
573A
  8
0
 10
188.94
 20
34.738534481759217
 30
0.0
 11
188.47369234184501
 21
33.732578912075013
 31
0.0
  0
LINE
  5
573B
  8
0
 10
185.17235026918959
 20
33.732578912075013
 30
0.0
 11
188.47369234184501
 21
33.732578912075013
 31
0.0
  0
LINE
  5
573C
  8
0
 10
172.02630765815539
 20
66.267421087925186
 30
0.0
 11
172.02630765815539
 21
68.354567954555563
 31
0.0
  0
LINE
  5
573D
  8
0
 10
172.02630765815499
 20
68.354567954555563
 30
0.0
 11
175.32764973081041
 21
68.354567954555563
 31
0.0
  0
LINE
  5
573E
  8
0
 10
180.82735026918959
 20
68.354567954555563
 30
0.0
 11
184.01764973081029
 21
68.354567954555563
 31
0.0
  0
LINE
  5
573F
  8
0
 10
185.17235026918959
 20
68.354567954555563
 30
0.0
 11
188.47369234184501
 21
68.354567954555563
 31
0.0
  0
LINE
  5
5740
  8
0
 10
188.4736923418445
 20
68.354567954555563
 30
0.0
 11
188.4736923418445
 21
66.267421087925186
 31
0.0
  0
LINE
  5
5741
  8
0
 10
171.56
 20
65.261465518240925
 30
0.0
 11
172.02630765815499
 21
66.267421087925186
 31
0.0
  0
LINE
  5
5742
  8
0
 10
172.02630765815499
 20
66.267421087925186
 30
0.0
 11
175.32764973081029
 21
66.267421087925186
 31
0.0
  0
LINE
  5
5743
  8
0
 10
180.82735026918959
 20
66.267421087925186
 30
0.0
 11
184.01764973081029
 21
66.267421087925186
 31
0.0
  0
LINE
  5
5744
  8
0
 10
185.17235026918959
 20
66.267421087925186
 30
0.0
 11
188.47369234184501
 21
66.267421087925186
 31
0.0
  0
LINE
  5
5745
  8
0
 10
188.47369234184501
 20
66.267421087925186
 30
0.0
 11
188.94
 21
65.261465518240925
 31
0.0
  0
LINE
  5
5746
  8
0
 10
171.56
 20
34.738534481759217
 30
0.0
 11
172.02630765815491
 21
34.715407918130921
 31
0.0
  0
LINE
  5
5747
  8
0
 10
188.47369234184501
 20
34.715407918130921
 30
0.0
 11
188.94
 21
34.738534481759217
 31
0.0
  0
LINE
  5
5748
  8
0
 10
172.02630765815499
 20
65.284592081869249
 30
0.0
 11
171.56
 21
65.261465518240954
 31
0.0
  0
LINE
  5
5749
  8
0
 10
188.94
 20
65.261465518240954
 30
0.0
 11
188.47369234184501
 21
65.284592081869249
 31
0.0
  0
LINE
  5
574A
  8
0
 10
176.4823502691896
 20
34.715407918130921
 30
0.0
 11
179.67264973081029
 21
34.715407918130921
 31
0.0
  0
LINE
  5
574B
  8
0
 10
172.02630765815499
 20
34.715407918130921
 30
0.0
 11
175.32764973081041
 21
34.715407918130921
 31
0.0
  0
LINE
  5
574C
  8
0
 10
172.02630765815749
 20
34.715407918130921
 30
0.0
 11
172.02630765815749
 21
36.960988719978531
 31
0.0
  0
LINE
  5
574D
  8
0
 10
172.02630765815499
 20
36.960988719978531
 30
0.0
 11
175.32764973081041
 21
36.960988719978531
 31
0.0
  0
LINE
  5
574E
  8
0
 10
180.82735026918959
 20
34.715407918130921
 30
0.0
 11
184.01764973081029
 21
34.715407918130921
 31
0.0
  0
LINE
  5
574F
  8
0
 10
188.47369234184239
 20
36.960988719978531
 30
0.0
 11
188.47369234184239
 21
34.715407918130921
 31
0.0
  0
LINE
  5
5750
  8
0
 10
185.17235026918959
 20
34.715407918130921
 30
0.0
 11
188.47369234184501
 21
34.715407918130921
 31
0.0
  0
LINE
  5
5751
  8
0
 10
176.4823502691896
 20
36.960988719978531
 30
0.0
 11
179.67264973081029
 21
36.960988719978531
 31
0.0
  0
LINE
  5
5752
  8
0
 10
180.82735026918959
 20
36.960988719978531
 30
0.0
 11
184.01764973081029
 21
36.960988719978531
 31
0.0
  0
LINE
  5
5753
  8
0
 10
188.94
 20
37.892822239143747
 30
0.0
 11
188.47369234184501
 21
36.960988719978531
 31
0.0
  0
LINE
  5
5754
  8
0
 10
185.17235026918959
 20
36.960988719978531
 30
0.0
 11
188.47369234184501
 21
36.960988719978531
 31
0.0
  0
LINE
  5
5755
  8
0
 10
172.02630765815479
 20
63.03901128002164
 30
0.0
 11
172.02630765815479
 21
65.284592081869249
 31
0.0
  0
LINE
  5
5756
  8
0
 10
172.02630765815499
 20
65.284592081869249
 30
0.0
 11
175.32764973081041
 21
65.284592081869249
 31
0.0
  0
LINE
  5
5757
  8
0
 10
180.82735026918959
 20
65.284592081869249
 30
0.0
 11
184.01764973081029
 21
65.284592081869249
 31
0.0
  0
LINE
  5
5758
  8
0
 10
185.17235026918959
 20
65.284592081869249
 30
0.0
 11
188.47369234184501
 21
65.284592081869249
 31
0.0
  0
LINE
  5
5759
  8
0
 10
188.47369234184521
 20
65.284592081869249
 30
0.0
 11
188.47369234184521
 21
63.03901128002164
 31
0.0
  0
LINE
  5
575A
  8
0
 10
171.56
 20
62.107177760856409
 30
0.0
 11
172.02630765815491
 21
63.03901128002164
 31
0.0
  0
LINE
  5
575B
  8
0
 10
172.02630765815491
 20
63.03901128002164
 30
0.0
 11
175.32764973081041
 21
63.03901128002164
 31
0.0
  0
LINE
  5
575C
  8
0
 10
180.82735026918959
 20
63.03901128002164
 30
0.0
 11
184.01764973081029
 21
63.03901128002164
 31
0.0
  0
LINE
  5
575D
  8
0
 10
185.17235026918959
 20
63.03901128002164
 30
0.0
 11
188.47369234184501
 21
63.03901128002164
 31
0.0
  0
LINE
  5
575E
  8
0
 10
188.47369234184501
 20
63.03901128002164
 30
0.0
 11
188.94
 21
62.107177760856409
 31
0.0
  0
LINE
  5
575F
  8
0
 10
171.56
 20
37.892822239143747
 30
0.0
 11
172.02630765815499
 21
38.00826756127487
 31
0.0
  0
LINE
  5
5760
  8
0
 10
188.47369234184501
 20
38.00826756127487
 30
0.0
 11
188.94
 21
37.892822239143747
 31
0.0
  0
LINE
  5
5761
  8
0
 10
171.56
 20
37.892822239143747
 30
0.0
 11
188.94
 21
37.892822239143747
 31
0.0
  0
LINE
  5
5762
  8
0
 10
172.02630765815499
 20
61.991732438725307
 30
0.0
 11
171.56
 21
62.107177760856409
 31
0.0
  0
LINE
  5
5763
  8
0
 10
171.56
 20
62.107177760856409
 30
0.0
 11
188.94
 21
62.107177760856409
 31
0.0
  0
LINE
  5
5764
  8
0
 10
188.94
 20
62.107177760856409
 30
0.0
 11
188.47369234184501
 21
61.991732438725307
 31
0.0
  0
LINE
  5
5765
  8
0
 10
176.4823502691896
 20
38.00826756127487
 30
0.0
 11
179.67264973081029
 21
38.00826756127487
 31
0.0
  0
LINE
  5
5766
  8
0
 10
172.02630765815499
 20
38.00826756127487
 30
0.0
 11
175.32764973081041
 21
38.00826756127487
 31
0.0
  0
LINE
  5
5767
  8
0
 10
172.02630765815681
 20
38.00826756127487
 30
0.0
 11
172.02630765815681
 21
40.379536673641091
 31
0.0
  0
LINE
  5
5768
  8
0
 10
172.02630765815499
 20
40.379536673641091
 30
0.0
 11
175.32764973081041
 21
40.379536673641091
 31
0.0
  0
LINE
  5
5769
  8
0
 10
180.82735026918959
 20
38.00826756127487
 30
0.0
 11
184.01764973081029
 21
38.00826756127487
 31
0.0
  0
LINE
  5
576A
  8
0
 10
188.47369234184319
 20
40.379536673641091
 30
0.0
 11
188.47369234184319
 21
38.00826756127487
 31
0.0
  0
LINE
  5
576B
  8
0
 10
185.17235026918959
 20
38.00826756127487
 30
0.0
 11
188.47369234184501
 21
38.00826756127487
 31
0.0
  0
LINE
  5
576C
  8
0
 10
176.4823502691896
 20
40.379536673641091
 30
0.0
 11
179.67264973081029
 21
40.379536673641091
 31
0.0
  0
LINE
  5
576D
  8
0
 10
180.82735026918959
 20
40.379536673641091
 30
0.0
 11
184.01764973081029
 21
40.379536673641091
 31
0.0
  0
LINE
  5
576E
  8
0
 10
188.94
 20
41.223659911271596
 30
0.0
 11
188.47369234184501
 21
40.379536673641091
 31
0.0
  0
LINE
  5
576F
  8
0
 10
185.17235026918959
 20
40.379536673641091
 30
0.0
 11
188.47369234184501
 21
40.379536673641091
 31
0.0
  0
LINE
  5
5770
  8
0
 10
172.02630765815451
 20
59.620463326359072
 30
0.0
 11
172.02630765815451
 21
61.991732438725307
 31
0.0
  0
LINE
  5
5771
  8
0
 10
172.02630765815499
 20
61.991732438725307
 30
0.0
 11
175.32764973081041
 21
61.991732438725307
 31
0.0
  0
LINE
  5
5772
  8
0
 10
180.82735026918959
 20
61.991732438725307
 30
0.0
 11
184.01764973081029
 21
61.991732438725307
 31
0.0
  0
LINE
  5
5773
  8
0
 10
185.17235026918959
 20
61.991732438725307
 30
0.0
 11
188.47369234184501
 21
61.991732438725307
 31
0.0
  0
LINE
  5
5774
  8
0
 10
188.47369234184549
 20
61.991732438725307
 30
0.0
 11
188.47369234184549
 21
59.620463326359072
 31
0.0
  0
LINE
  5
5775
  8
0
 10
171.56
 20
58.776340088728539
 30
0.0
 11
172.02630765815499
 21
59.620463326359072
 31
0.0
  0
LINE
  5
5776
  8
0
 10
172.02630765815499
 20
59.620463326359072
 30
0.0
 11
175.32764973081041
 21
59.620463326359072
 31
0.0
  0
LINE
  5
5777
  8
0
 10
180.82735026918959
 20
59.620463326359072
 30
0.0
 11
184.01764973081029
 21
59.620463326359072
 31
0.0
  0
LINE
  5
5778
  8
0
 10
185.17235026918959
 20
59.620463326359072
 30
0.0
 11
188.47369234184501
 21
59.620463326359072
 31
0.0
  0
LINE
  5
5779
  8
0
 10
188.47369234184501
 20
59.620463326359072
 30
0.0
 11
188.94
 21
58.776340088728539
 31
0.0
  0
LINE
  5
577A
  8
0
 10
171.56
 20
41.223659911271596
 30
0.0
 11
172.02630765815499
 21
41.475993666405138
 31
0.0
  0
LINE
  5
577B
  8
0
 10
188.47369234184501
 20
41.475993666405138
 30
0.0
 11
188.94
 21
41.223659911271596
 31
0.0
  0
LINE
  5
577C
  8
0
 10
171.56
 20
41.223659911271596
 30
0.0
 11
188.94
 21
41.223659911271596
 31
0.0
  0
LINE
  5
577D
  8
0
 10
172.02630765815499
 20
58.524006333594997
 30
0.0
 11
171.56
 21
58.776340088728567
 31
0.0
  0
LINE
  5
577E
  8
0
 10
171.56
 20
58.776340088728567
 30
0.0
 11
188.94
 21
58.776340088728567
 31
0.0
  0
LINE
  5
577F
  8
0
 10
188.94
 20
58.776340088728567
 30
0.0
 11
188.47369234184501
 21
58.524006333594997
 31
0.0
  0
LINE
  5
5780
  8
0
 10
176.4823502691896
 20
41.475993666405138
 30
0.0
 11
179.67264973081029
 21
41.475993666405138
 31
0.0
  0
LINE
  5
5781
  8
0
 10
172.02630765815499
 20
41.475993666405138
 30
0.0
 11
175.32764973081041
 21
41.475993666405138
 31
0.0
  0
LINE
  5
5782
  8
0
 10
172.026307658154
 20
41.475993666405138
 30
0.0
 11
172.026307658154
 21
43.938372645998747
 31
0.0
  0
LINE
  5
5783
  8
0
 10
172.02630765815499
 20
43.938372645998747
 30
0.0
 11
175.32764973081041
 21
43.938372645998747
 31
0.0
  0
LINE
  5
5784
  8
0
 10
180.82735026918959
 20
41.475993666405138
 30
0.0
 11
184.01764973081029
 21
41.475993666405138
 31
0.0
  0
LINE
  5
5785
  8
0
 10
188.47369234184589
 20
43.938372645998747
 30
0.0
 11
188.47369234184589
 21
41.475993666405138
 31
0.0
  0
LINE
  5
5786
  8
0
 10
185.17235026918959
 20
41.475993666405138
 30
0.0
 11
188.47369234184501
 21
41.475993666405138
 31
0.0
  0
LINE
  5
5787
  8
0
 10
176.4823502691896
 20
43.938372645998747
 30
0.0
 11
179.67264973081029
 21
43.938372645998747
 31
0.0
  0
LINE
  5
5788
  8
0
 10
180.82735026918959
 20
43.938372645998747
 30
0.0
 11
184.01764973081029
 21
43.938372645998747
 31
0.0
  0
LINE
  5
5789
  8
0
 10
188.94
 20
44.682476384489853
 30
0.0
 11
188.47369234184501
 21
43.938372645998747
 31
0.0
  0
LINE
  5
578A
  8
0
 10
185.17235026918959
 20
43.938372645998747
 30
0.0
 11
188.47369234184501
 21
43.938372645998747
 31
0.0
  0
LINE
  5
578B
  8
0
 10
172.0263076581538
 20
56.061627354001409
 30
0.0
 11
172.0263076581538
 21
58.524006333594997
 31
0.0
  0
LINE
  5
578C
  8
0
 10
172.02630765815499
 20
58.524006333594997
 30
0.0
 11
175.32764973081041
 21
58.524006333594997
 31
0.0
  0
LINE
  5
578D
  8
0
 10
180.82735026918959
 20
58.524006333594997
 30
0.0
 11
184.01764973081029
 21
58.524006333594997
 31
0.0
  0
LINE
  5
578E
  8
0
 10
185.17235026918959
 20
58.524006333594997
 30
0.0
 11
188.47369234184501
 21
58.524006333594997
 31
0.0
  0
LINE
  5
578F
  8
0
 10
188.473692341846
 20
58.524006333594997
 30
0.0
 11
188.473692341846
 21
56.061627354001409
 31
0.0
  0
LINE
  5
5790
  8
0
 10
171.56
 20
55.317523615510311
 30
0.0
 11
172.02630765815499
 21
56.061627354001409
 31
0.0
  0
LINE
  5
5791
  8
0
 10
172.02630765815499
 20
56.061627354001409
 30
0.0
 11
175.32764973081041
 21
56.061627354001409
 31
0.0
  0
LINE
  5
5792
  8
0
 10
180.82735026918959
 20
56.061627354001409
 30
0.0
 11
184.01764973081029
 21
56.061627354001409
 31
0.0
  0
LINE
  5
5793
  8
0
 10
185.17235026918959
 20
56.061627354001409
 30
0.0
 11
188.47369234184501
 21
56.061627354001409
 31
0.0
  0
LINE
  5
5794
  8
0
 10
188.47369234184501
 20
56.061627354001409
 30
0.0
 11
188.94
 21
55.317523615510311
 31
0.0
  0
LINE
  5
5795
  8
0
 10
171.56
 20
44.682476384489853
 30
0.0
 11
172.02630765815499
 21
45.068018978269912
 31
0.0
  0
LINE
  5
5796
  8
0
 10
188.47369234184501
 20
45.068018978269912
 30
0.0
 11
188.94
 21
44.682476384489853
 31
0.0
  0
LINE
  5
5797
  8
0
 10
171.56
 20
44.682476384489853
 30
0.0
 11
188.94
 21
44.682476384489853
 31
0.0
  0
LINE
  5
5798
  8
0
 10
172.02630765815499
 20
54.931981021730252
 30
0.0
 11
171.56
 21
55.317523615510311
 31
0.0
  0
LINE
  5
5799
  8
0
 10
171.56
 20
55.317523615510311
 30
0.0
 11
188.94
 21
55.317523615510311
 31
0.0
  0
LINE
  5
579A
  8
0
 10
188.94
 20
55.317523615510311
 30
0.0
 11
188.47369234184501
 21
54.931981021730252
 31
0.0
  0
LINE
  5
579B
  8
0
 10
176.4823502691896
 20
45.068018978269912
 30
0.0
 11
179.67264973081029
 21
45.068018978269912
 31
0.0
  0
LINE
  5
579C
  8
0
 10
172.02630765815499
 20
45.068018978269912
 30
0.0
 11
175.32764973081041
 21
45.068018978269912
 31
0.0
  0
LINE
  5
579D
  8
0
 10
172.0263076581563
 20
45.068018978269912
 30
0.0
 11
172.0263076581563
 21
47.585600794773832
 31
0.0
  0
LINE
  5
579E
  8
0
 10
172.02630765815499
 20
47.585600794773832
 30
0.0
 11
175.32764973081041
 21
47.585600794773832
 31
0.0
  0
LINE
  5
579F
  8
0
 10
180.82735026918959
 20
45.068018978269912
 30
0.0
 11
184.01764973081029
 21
45.068018978269912
 31
0.0
  0
LINE
  5
57A0
  8
0
 10
188.4736923418437
 20
47.585600794773832
 30
0.0
 11
188.4736923418437
 21
45.068018978269912
 31
0.0
  0
LINE
  5
57A1
  8
0
 10
185.17235026918959
 20
45.068018978269912
 30
0.0
 11
188.47369234184501
 21
45.068018978269912
 31
0.0
  0
LINE
  5
57A2
  8
0
 10
176.4823502691896
 20
47.585600794773832
 30
0.0
 11
179.67264973081029
 21
47.585600794773832
 31
0.0
  0
LINE
  5
57A3
  8
0
 10
180.82735026918959
 20
47.585600794773832
 30
0.0
 11
184.01764973081029
 21
47.585600794773832
 31
0.0
  0
LINE
  5
57A4
  8
0
 10
188.94
 20
48.218834326042639
 30
0.0
 11
188.47369234184501
 21
47.585600794773832
 31
0.0
  0
LINE
  5
57A5
  8
0
 10
185.17235026918959
 20
47.585600794773832
 30
0.0
 11
188.47369234184501
 21
47.585600794773832
 31
0.0
  0
LINE
  5
57A6
  8
0
 10
172.02630765815371
 20
52.414399205226339
 30
0.0
 11
172.02630765815371
 21
54.931981021730252
 31
0.0
  0
LINE
  5
57A7
  8
0
 10
172.02630765815499
 20
54.931981021730252
 30
0.0
 11
175.32764973081041
 21
54.931981021730252
 31
0.0
  0
LINE
  5
57A8
  8
0
 10
180.82735026918959
 20
54.931981021730252
 30
0.0
 11
184.01764973081029
 21
54.931981021730252
 31
0.0
  0
LINE
  5
57A9
  8
0
 10
185.17235026918959
 20
54.931981021730252
 30
0.0
 11
188.47369234184501
 21
54.931981021730252
 31
0.0
  0
LINE
  5
57AA
  8
0
 10
188.47369234184629
 20
54.931981021730252
 30
0.0
 11
188.47369234184629
 21
52.414399205226339
 31
0.0
  0
LINE
  5
57AB
  8
0
 10
171.56
 20
51.781165673957503
 30
0.0
 11
172.02630765815499
 21
52.414399205226339
 31
0.0
  0
LINE
  5
57AC
  8
0
 10
172.02630765815499
 20
52.414399205226339
 30
0.0
 11
175.32764973081029
 21
52.414399205226339
 31
0.0
  0
LINE
  5
57AD
  8
0
 10
180.82735026918959
 20
52.414399205226339
 30
0.0
 11
184.01764973081029
 21
52.414399205226339
 31
0.0
  0
LINE
  5
57AE
  8
0
 10
185.17235026918959
 20
52.414399205226339
 30
0.0
 11
188.47369234184501
 21
52.414399205226339
 31
0.0
  0
LINE
  5
57AF
  8
0
 10
188.47369234184501
 20
52.414399205226339
 30
0.0
 11
188.94
 21
51.781165673957503
 31
0.0
  0
LINE
  5
57B0
  8
0
 10
171.56
 20
48.218834326042639
 30
0.0
 11
172.02630765815499
 21
48.73196367928557
 31
0.0
  0
LINE
  5
57B1
  8
0
 10
188.47369234184501
 20
48.73196367928557
 30
0.0
 11
188.94
 21
48.218834326042639
 31
0.0
  0
LINE
  5
57B2
  8
0
 10
171.56
 20
48.218834326042639
 30
0.0
 11
188.94
 21
48.218834326042639
 31
0.0
  0
LINE
  5
57B3
  8
0
 10
172.02630765815499
 20
51.2680363207146
 30
0.0
 11
171.56
 21
51.781165673957531
 31
0.0
  0
LINE
  5
57B4
  8
0
 10
171.56
 20
51.781165673957531
 30
0.0
 11
188.94
 21
51.781165673957531
 31
0.0
  0
LINE
  5
57B5
  8
0
 10
188.94
 20
51.781165673957531
 30
0.0
 11
188.47369234184501
 21
51.2680363207146
 31
0.0
  0
LINE
  5
57B6
  8
0
 10
176.4823502691896
 20
51.2680363207146
 30
0.0
 11
179.67264973081029
 21
51.2680363207146
 31
0.0
  0
LINE
  5
57B7
  8
0
 10
176.4823502691896
 20
48.73196367928557
 30
0.0
 11
179.67264973081029
 21
48.73196367928557
 31
0.0
  0
LINE
  5
57B8
  8
0
 10
172.02630765815499
 20
48.73196367928557
 30
0.0
 11
175.32764973081041
 21
48.73196367928557
 31
0.0
  0
LINE
  5
57B9
  8
0
 10
172.0263076581526
 20
48.73196367928557
 30
0.0
 11
172.0263076581526
 21
51.2680363207146
 31
0.0
  0
LINE
  5
57BA
  8
0
 10
172.02630765815499
 20
51.2680363207146
 30
0.0
 11
175.32764973081041
 21
51.2680363207146
 31
0.0
  0
LINE
  5
57BB
  8
0
 10
180.82735026918959
 20
51.2680363207146
 30
0.0
 11
184.01764973081029
 21
51.2680363207146
 31
0.0
  0
LINE
  5
57BC
  8
0
 10
180.82735026918959
 20
48.73196367928557
 30
0.0
 11
184.01764973081029
 21
48.73196367928557
 31
0.0
  0
LINE
  5
57BD
  8
0
 10
185.17235026918959
 20
51.2680363207146
 30
0.0
 11
188.47369234184501
 21
51.2680363207146
 31
0.0
  0
LINE
  5
57BE
  8
0
 10
188.4736923418474
 20
51.2680363207146
 30
0.0
 11
188.4736923418474
 21
48.73196367928557
 31
0.0
  0
LINE
  5
57BF
  8
0
 10
185.17235026918959
 20
48.73196367928557
 30
0.0
 11
188.47369234184501
 21
48.73196367928557
 31
0.0
  0
LINE
  5
57C0
  8
0
 10
185.17235026919121
 20
19.526370680712429
 30
0.0
 11
185.17235026919121
 21
19.50000000000006
 31
0.0
  0
LINE
  5
57C1
  8
0
 10
184.595
 20
20.553821150412229
 30
0.0
 11
185.17235026918959
 21
19.526370680712429
 31
0.0
  0
LINE
  5
57C2
  8
0
 10
185.17235026918871
 20
19.901402637310671
 30
0.0
 11
185.17235026918871
 21
19.595712860226541
 31
0.0
  0
LINE
  5
57C3
  8
0
 10
185.17235026918959
 20
19.595712860226541
 30
0.0
 11
184.595
 21
20.553821150412201
 31
0.0
  0
LINE
  5
57C4
  8
0
 10
184.595
 20
20.983212745059351
 30
0.0
 11
185.17235026918959
 21
19.901402637310671
 31
0.0
  0
LINE
  5
57C5
  8
0
 10
185.17235026918931
 20
20.715339919595628
 30
0.0
 11
185.17235026918931
 21
20.108418010730531
 31
0.0
  0
LINE
  5
57C6
  8
0
 10
185.17235026918959
 20
20.108418010730531
 30
0.0
 11
184.595
 21
20.983212745059351
 31
0.0
  0
LINE
  5
57C7
  8
0
 10
184.595
 20
21.835734437997989
 30
0.0
 11
185.17235026918959
 21
20.715339919595628
 31
0.0
  0
LINE
  5
57C8
  8
0
 10
185.17235026918689
 20
21.95631348916444
 30
0.0
 11
185.17235026918689
 21
21.05700973661882
 31
0.0
  0
LINE
  5
57C9
  8
0
 10
185.17235026918959
 20
21.05700973661882
 30
0.0
 11
184.595
 21
21.835734437997989
 31
0.0
  0
LINE
  5
57CA
  8
0
 10
184.595
 20
23.098954543233418
 30
0.0
 11
185.17235026918959
 21
21.95631348916444
 31
0.0
  0
LINE
  5
57CB
  8
0
 10
185.17235026918749
 20
23.60622715694365
 30
0.0
 11
185.17235026918749
 21
22.427655434485359
 31
0.0
  0
LINE
  5
57CC
  8
0
 10
185.17235026918959
 20
22.427655434485359
 30
0.0
 11
184.595
 21
23.09895454323345
 31
0.0
  0
LINE
  5
57CD
  8
0
 10
184.595
 20
24.75445246710737
 30
0.0
 11
185.17235026918959
 21
23.60622715694365
 31
0.0
  0
LINE
  5
57CE
  8
0
 10
185.1723502691907
 20
25.64102146637504
 30
0.0
 11
185.1723502691907
 21
24.20036800362988
 31
0.0
  0
LINE
  5
57CF
  8
0
 10
185.17235026918959
 20
24.200368003629851
 30
0.0
 11
184.595
 21
24.75445246710737
 31
0.0
  0
LINE
  5
57D0
  8
0
 10
184.595
 20
26.778087322033119
 30
0.0
 11
185.17235026918959
 21
25.64102146637504
 31
0.0
  0
LINE
  5
57D1
  8
0
 10
185.1723502691882
 20
28.03102453446937
 30
0.0
 11
185.1723502691882
 21
26.349297302993168
 31
0.0
  0
LINE
  5
57D2
  8
0
 10
185.17235026918959
 20
26.349297302993168
 30
0.0
 11
184.595
 21
26.778087322033119
 31
0.0
  0
LINE
  5
57D3
  8
0
 10
184.595
 20
29.140349954996939
 30
0.0
 11
185.17235026918959
 21
28.03102453446937
 31
0.0
  0
LINE
  5
57D4
  8
0
 10
185.17235026918999
 20
30.74138473467556
 30
0.0
 11
185.17235026918999
 21
28.84310710442324
 31
0.0
  0
LINE
  5
57D5
  8
0
 10
185.17235026918959
 20
28.84310710442324
 30
0.0
 11
184.595
 21
29.140349954996939
 31
0.0
  0
LINE
  5
57D6
  8
0
 10
184.595
 20
31.80679325745805
 30
0.0
 11
185.17235026918959
 21
30.74138473467556
 31
0.0
  0
LINE
  5
57D7
  8
0
 10
185.1723502691886
 20
33.732578912075013
 30
0.0
 11
185.1723502691886
 21
31.645432045444611
 31
0.0
  0
LINE
  5
57D8
  8
0
 10
185.17235026918959
 20
31.645432045444611
 30
0.0
 11
184.595
 21
31.80679325745805
 31
0.0
  0
LINE
  5
57D9
  8
0
 10
184.595
 20
34.738534481759217
 30
0.0
 11
185.17235026918959
 21
33.732578912075013
 31
0.0
  0
LINE
  5
57DA
  8
0
 10
185.17235026919269
 20
36.960988719978531
 30
0.0
 11
185.17235026919269
 21
34.715407918130921
 31
0.0
  0
LINE
  5
57DB
  8
0
 10
185.17235026918959
 20
34.715407918130921
 30
0.0
 11
184.595
 21
34.738534481759217
 31
0.0
  0
LINE
  5
57DC
  8
0
 10
184.595
 20
37.892822239143747
 30
0.0
 11
185.17235026918959
 21
36.960988719978531
 31
0.0
  0
LINE
  5
57DD
  8
0
 10
185.17235026919181
 20
40.379536673641091
 30
0.0
 11
185.17235026919181
 21
38.00826756127487
 31
0.0
  0
LINE
  5
57DE
  8
0
 10
185.17235026918959
 20
38.00826756127487
 30
0.0
 11
184.595
 21
37.892822239143747
 31
0.0
  0
LINE
  5
57DF
  8
0
 10
184.595
 20
41.223659911271596
 30
0.0
 11
185.17235026918959
 21
40.379536673641091
 31
0.0
  0
LINE
  5
57E0
  8
0
 10
185.17235026918851
 20
43.938372645998747
 30
0.0
 11
185.17235026918851
 21
41.475993666405138
 31
0.0
  0
LINE
  5
57E1
  8
0
 10
185.17235026918959
 20
41.475993666405138
 30
0.0
 11
184.595
 21
41.223659911271596
 31
0.0
  0
LINE
  5
57E2
  8
0
 10
184.595
 20
44.682476384489853
 30
0.0
 11
185.17235026918959
 21
43.938372645998747
 31
0.0
  0
LINE
  5
57E3
  8
0
 10
185.17235026919121
 20
47.585600794773832
 30
0.0
 11
185.17235026919121
 21
45.068018978269912
 31
0.0
  0
LINE
  5
57E4
  8
0
 10
185.17235026918959
 20
45.068018978269912
 30
0.0
 11
184.595
 21
44.682476384489853
 31
0.0
  0
LINE
  5
57E5
  8
0
 10
184.595
 20
48.218834326042639
 30
0.0
 11
185.17235026918959
 21
47.585600794773832
 31
0.0
  0
LINE
  5
57E6
  8
0
 10
185.17235026918661
 20
51.2680363207146
 30
0.0
 11
185.17235026918661
 21
48.73196367928557
 31
0.0
  0
LINE
  5
57E7
  8
0
 10
185.17235026918959
 20
48.73196367928557
 30
0.0
 11
184.595
 21
48.218834326042639
 31
0.0
  0
LINE
  5
57E8
  8
0
 10
184.595
 20
51.781165673957531
 30
0.0
 11
185.17235026918959
 21
51.2680363207146
 31
0.0
  0
LINE
  5
57E9
  8
0
 10
184.595
 20
55.317523615510311
 30
0.0
 11
185.17235026918959
 21
54.931981021730252
 31
0.0
  0
LINE
  5
57EA
  8
0
 10
185.172350269188
 20
54.931981021730252
 30
0.0
 11
185.172350269188
 21
52.414399205226339
 31
0.0
  0
LINE
  5
57EB
  8
0
 10
185.17235026918959
 20
52.414399205226339
 30
0.0
 11
184.595
 21
51.781165673957503
 31
0.0
  0
LINE
  5
57EC
  8
0
 10
184.595
 20
58.776340088728567
 30
0.0
 11
185.17235026918959
 21
58.524006333594997
 31
0.0
  0
LINE
  5
57ED
  8
0
 10
185.17235026918831
 20
58.524006333594997
 30
0.0
 11
185.17235026918831
 21
56.061627354001409
 31
0.0
  0
LINE
  5
57EE
  8
0
 10
185.17235026918959
 20
56.061627354001409
 30
0.0
 11
184.595
 21
55.317523615510311
 31
0.0
  0
LINE
  5
57EF
  8
0
 10
184.595
 20
62.107177760856409
 30
0.0
 11
185.17235026918959
 21
61.991732438725307
 31
0.0
  0
LINE
  5
57F0
  8
0
 10
185.172350269189
 20
61.991732438725307
 30
0.0
 11
185.172350269189
 21
59.620463326359072
 31
0.0
  0
LINE
  5
57F1
  8
0
 10
185.17235026918959
 20
59.620463326359072
 30
0.0
 11
184.595
 21
58.776340088728567
 31
0.0
  0
LINE
  5
57F2
  8
0
 10
184.595
 20
65.261465518240954
 30
0.0
 11
185.17235026918959
 21
65.284592081869249
 31
0.0
  0
LINE
  5
57F3
  8
0
 10
185.17235026918939
 20
65.284592081869249
 30
0.0
 11
185.17235026918939
 21
63.03901128002164
 31
0.0
  0
LINE
  5
57F4
  8
0
 10
185.17235026918959
 20
63.03901128002164
 30
0.0
 11
184.595
 21
62.107177760856409
 31
0.0
  0
LINE
  5
57F5
  8
0
 10
184.595
 20
68.193206742542117
 30
0.0
 11
185.17235026918959
 21
68.354567954555563
 31
0.0
  0
LINE
  5
57F6
  8
0
 10
185.17235026919019
 20
68.354567954555563
 30
0.0
 11
185.17235026919019
 21
66.267421087925186
 31
0.0
  0
LINE
  5
57F7
  8
0
 10
185.17235026918959
 20
66.267421087925186
 30
0.0
 11
184.595
 21
65.261465518240954
 31
0.0
  0
LINE
  5
57F8
  8
0
 10
184.595
 20
70.859650045003235
 30
0.0
 11
185.17235026918959
 21
71.156892895576902
 31
0.0
  0
LINE
  5
57F9
  8
0
 10
185.1723502691847
 20
71.156892895576902
 30
0.0
 11
185.1723502691847
 21
69.258615265324565
 31
0.0
  0
LINE
  5
57FA
  8
0
 10
185.17235026918959
 20
69.258615265324565
 30
0.0
 11
184.595
 21
68.193206742542117
 31
0.0
  0
LINE
  5
57FB
  8
0
 10
184.595
 20
73.221912677967055
 30
0.0
 11
185.17235026918959
 21
73.650702697006977
 31
0.0
  0
LINE
  5
57FC
  8
0
 10
185.17235026918959
 20
73.650702697006977
 30
0.0
 11
185.17235026918959
 21
71.968975465530832
 31
0.0
  0
LINE
  5
57FD
  8
0
 10
185.17235026918959
 20
71.968975465530832
 30
0.0
 11
184.595
 21
70.859650045003207
 31
0.0
  0
LINE
  5
57FE
  8
0
 10
184.595
 20
75.2455475328928
 30
0.0
 11
185.17235026918959
 21
75.799631996370323
 31
0.0
  0
LINE
  5
57FF
  8
0
 10
185.17235026918939
 20
75.799631996370323
 30
0.0
 11
185.17235026918939
 21
74.358978533625105
 31
0.0
  0
LINE
  5
5800
  8
0
 10
185.17235026918959
 20
74.358978533625105
 30
0.0
 11
184.595
 21
73.221912677967055
 31
0.0
  0
LINE
  5
5801
  8
0
 10
184.595
 20
76.901045456766752
 30
0.0
 11
185.17235026918959
 21
77.57234456551484
 31
0.0
  0
LINE
  5
5802
  8
0
 10
185.17235026919181
 20
77.57234456551484
 30
0.0
 11
185.17235026919181
 21
76.393772843056524
 31
0.0
  0
LINE
  5
5803
  8
0
 10
185.17235026918959
 20
76.393772843056524
 30
0.0
 11
184.595
 21
75.245547532892772
 31
0.0
  0
LINE
  5
5804
  8
0
 10
184.595
 20
78.164265562002214
 30
0.0
 11
185.17235026918959
 21
78.942990263381347
 31
0.0
  0
LINE
  5
5805
  8
0
 10
185.172350269189
 20
78.942990263381347
 30
0.0
 11
185.172350269189
 21
78.043686510835727
 31
0.0
  0
LINE
  5
5806
  8
0
 10
185.17235026918959
 20
78.043686510835727
 30
0.0
 11
184.595
 21
76.901045456766752
 31
0.0
  0
LINE
  5
5807
  8
0
 10
184.595
 20
79.016787254940795
 30
0.0
 11
185.17235026918959
 21
79.891581989269611
 31
0.0
  0
LINE
  5
5808
  8
0
 10
185.17235026919059
 20
79.891581989269611
 30
0.0
 11
185.17235026919059
 21
79.284660080404507
 31
0.0
  0
LINE
  5
5809
  8
0
 10
185.17235026918959
 20
79.284660080404507
 30
0.0
 11
184.595
 21
78.164265562002214
 31
0.0
  0
LINE
  5
580A
  8
0
 10
184.595
 20
79.446178849587938
 30
0.0
 11
185.17235026918959
 21
80.404287139773686
 31
0.0
  0
LINE
  5
580B
  8
0
 10
185.1723502691886
 20
80.404287139773686
 30
0.0
 11
185.1723502691886
 21
80.098597362689446
 31
0.0
  0
LINE
  5
580C
  8
0
 10
185.17235026918959
 20
80.098597362689446
 30
0.0
 11
184.595
 21
79.016787254940795
 31
0.0
  0
LINE
  5
580D
  8
0
 10
185.172350269188
 20
80.500000000000085
 30
0.0
 11
185.172350269188
 21
80.473629319287767
 31
0.0
  0
LINE
  5
580E
  8
0
 10
185.17235026918959
 20
80.473629319287767
 30
0.0
 11
184.595
 21
79.446178849587938
 31
0.0
  0
LINE
  5
580F
  8
0
 10
184.017649730812
 20
80.473629319287767
 30
0.0
 11
184.017649730812
 21
80.500000000000085
 31
0.0
  0
LINE
  5
5810
  8
0
 10
184.595
 20
79.446178849587938
 30
0.0
 11
184.01764973081029
 21
80.473629319287767
 31
0.0
  0
LINE
  5
5811
  8
0
 10
184.0176497308114
 20
80.098597362689446
 30
0.0
 11
184.0176497308114
 21
80.404287139773686
 31
0.0
  0
LINE
  5
5812
  8
0
 10
184.01764973081029
 20
80.404287139773686
 30
0.0
 11
184.595
 21
79.446178849587938
 31
0.0
  0
LINE
  5
5813
  8
0
 10
184.595
 20
79.016787254940795
 30
0.0
 11
184.01764973081029
 21
80.098597362689446
 31
0.0
  0
LINE
  5
5814
  8
0
 10
184.0176497308093
 20
79.284660080404507
 30
0.0
 11
184.0176497308093
 21
79.891581989269611
 31
0.0
  0
LINE
  5
5815
  8
0
 10
184.01764973081029
 20
79.891581989269611
 30
0.0
 11
184.595
 21
79.016787254940795
 31
0.0
  0
LINE
  5
5816
  8
0
 10
184.595
 20
78.164265562002157
 30
0.0
 11
184.01764973081029
 21
79.284660080404507
 31
0.0
  0
LINE
  5
5817
  8
0
 10
184.017649730811
 20
78.043686510835727
 30
0.0
 11
184.017649730811
 21
78.942990263381347
 31
0.0
  0
LINE
  5
5818
  8
0
 10
184.01764973081029
 20
78.942990263381347
 30
0.0
 11
184.595
 21
78.164265562002157
 31
0.0
  0
LINE
  5
5819
  8
0
 10
184.595
 20
76.901045456766752
 30
0.0
 11
184.01764973081029
 21
78.043686510835727
 31
0.0
  0
LINE
  5
581A
  8
0
 10
184.01764973080819
 20
76.393772843056524
 30
0.0
 11
184.01764973080819
 21
77.57234456551484
 31
0.0
  0
LINE
  5
581B
  8
0
 10
184.01764973081029
 20
77.57234456551484
 30
0.0
 11
184.595
 21
76.901045456766752
 31
0.0
  0
LINE
  5
581C
  8
0
 10
184.595
 20
75.245547532892772
 30
0.0
 11
184.01764973081029
 21
76.393772843056524
 31
0.0
  0
LINE
  5
581D
  8
0
 10
184.01764973081049
 20
74.358978533625105
 30
0.0
 11
184.01764973081049
 21
75.799631996370323
 31
0.0
  0
LINE
  5
581E
  8
0
 10
184.01764973081029
 20
75.799631996370323
 30
0.0
 11
184.595
 21
75.2455475328928
 31
0.0
  0
LINE
  5
581F
  8
0
 10
184.595
 20
73.221912677967055
 30
0.0
 11
184.01764973081029
 21
74.358978533625105
 31
0.0
  0
LINE
  5
5820
  8
0
 10
184.01764973081029
 20
71.968975465530832
 30
0.0
 11
184.01764973081029
 21
73.650702697006977
 31
0.0
  0
LINE
  5
5821
  8
0
 10
184.01764973081029
 20
73.650702697006977
 30
0.0
 11
184.595
 21
73.221912677967055
 31
0.0
  0
LINE
  5
5822
  8
0
 10
184.595
 20
70.859650045003207
 30
0.0
 11
184.01764973081029
 21
71.968975465530832
 31
0.0
  0
LINE
  5
5823
  8
0
 10
184.01764973081529
 20
69.258615265324565
 30
0.0
 11
184.01764973081529
 21
71.156892895576902
 31
0.0
  0
LINE
  5
5824
  8
0
 10
184.01764973081029
 20
71.156892895576902
 30
0.0
 11
184.595
 21
70.859650045003235
 31
0.0
  0
LINE
  5
5825
  8
0
 10
184.595
 20
68.193206742542117
 30
0.0
 11
184.01764973081029
 21
69.258615265324565
 31
0.0
  0
LINE
  5
5826
  8
0
 10
184.01764973080969
 20
66.267421087925186
 30
0.0
 11
184.01764973080969
 21
68.354567954555563
 31
0.0
  0
LINE
  5
5827
  8
0
 10
184.01764973081029
 20
68.354567954555563
 30
0.0
 11
184.595
 21
68.193206742542117
 31
0.0
  0
LINE
  5
5828
  8
0
 10
184.595
 20
65.261465518240925
 30
0.0
 11
184.01764973081029
 21
66.267421087925186
 31
0.0
  0
LINE
  5
5829
  8
0
 10
184.0176497308106
 20
63.03901128002164
 30
0.0
 11
184.0176497308106
 21
65.284592081869249
 31
0.0
  0
LINE
  5
582A
  8
0
 10
184.01764973081029
 20
65.284592081869249
 30
0.0
 11
184.595
 21
65.261465518240954
 31
0.0
  0
LINE
  5
582B
  8
0
 10
184.595
 20
62.107177760856409
 30
0.0
 11
184.01764973081029
 21
63.03901128002164
 31
0.0
  0
LINE
  5
582C
  8
0
 10
184.017649730811
 20
59.620463326359072
 30
0.0
 11
184.017649730811
 21
61.991732438725307
 31
0.0
  0
LINE
  5
582D
  8
0
 10
184.01764973081029
 20
61.991732438725307
 30
0.0
 11
184.595
 21
62.107177760856409
 31
0.0
  0
LINE
  5
582E
  8
0
 10
184.595
 20
58.776340088728539
 30
0.0
 11
184.01764973081029
 21
59.620463326359072
 31
0.0
  0
LINE
  5
582F
  8
0
 10
184.01764973081171
 20
56.061627354001409
 30
0.0
 11
184.01764973081171
 21
58.524006333594997
 31
0.0
  0
LINE
  5
5830
  8
0
 10
184.01764973081029
 20
58.524006333594997
 30
0.0
 11
184.595
 21
58.776340088728567
 31
0.0
  0
LINE
  5
5831
  8
0
 10
184.595
 20
55.317523615510311
 30
0.0
 11
184.01764973081029
 21
56.061627354001409
 31
0.0
  0
LINE
  5
5832
  8
0
 10
184.01764973081191
 20
52.414399205226339
 30
0.0
 11
184.01764973081191
 21
54.931981021730252
 31
0.0
  0
LINE
  5
5833
  8
0
 10
184.01764973081029
 20
54.931981021730252
 30
0.0
 11
184.595
 21
55.317523615510311
 31
0.0
  0
LINE
  5
5834
  8
0
 10
184.595
 20
20.500000000000089
 30
0.0
 11
184.595
 21
79.500000000000085
 31
0.0
  0
LINE
  5
5835
  8
0
 10
184.595
 20
51.781165673957503
 30
0.0
 11
184.01764973081029
 21
52.414399205226339
 31
0.0
  0
LINE
  5
5836
  8
0
 10
184.595
 20
48.218834326042639
 30
0.0
 11
184.01764973081029
 21
48.73196367928557
 31
0.0
  0
LINE
  5
5837
  8
0
 10
184.0176497308133
 20
48.73196367928557
 30
0.0
 11
184.0176497308133
 21
51.2680363207146
 31
0.0
  0
LINE
  5
5838
  8
0
 10
184.01764973081029
 20
51.2680363207146
 30
0.0
 11
184.595
 21
51.781165673957531
 31
0.0
  0
LINE
  5
5839
  8
0
 10
184.595
 20
44.682476384489853
 30
0.0
 11
184.01764973081029
 21
45.068018978269912
 31
0.0
  0
LINE
  5
583A
  8
0
 10
184.0176497308087
 20
45.068018978269912
 30
0.0
 11
184.0176497308087
 21
47.585600794773832
 31
0.0
  0
LINE
  5
583B
  8
0
 10
184.01764973081029
 20
47.585600794773832
 30
0.0
 11
184.595
 21
48.218834326042639
 31
0.0
  0
LINE
  5
583C
  8
0
 10
184.595
 20
41.223659911271596
 30
0.0
 11
184.01764973081029
 21
41.475993666405138
 31
0.0
  0
LINE
  5
583D
  8
0
 10
184.01764973081151
 20
41.475993666405138
 30
0.0
 11
184.01764973081151
 21
43.938372645998747
 31
0.0
  0
LINE
  5
583E
  8
0
 10
184.01764973081029
 20
43.938372645998747
 30
0.0
 11
184.595
 21
44.682476384489853
 31
0.0
  0
LINE
  5
583F
  8
0
 10
184.595
 20
37.892822239143747
 30
0.0
 11
184.01764973081029
 21
38.00826756127487
 31
0.0
  0
LINE
  5
5840
  8
0
 10
184.01764973080819
 20
38.00826756127487
 30
0.0
 11
184.01764973080819
 21
40.379536673641091
 31
0.0
  0
LINE
  5
5841
  8
0
 10
184.01764973081029
 20
40.379536673641091
 30
0.0
 11
184.595
 21
41.223659911271596
 31
0.0
  0
LINE
  5
5842
  8
0
 10
184.595
 20
34.738534481759217
 30
0.0
 11
184.01764973081029
 21
34.715407918130921
 31
0.0
  0
LINE
  5
5843
  8
0
 10
184.01764973080719
 20
34.715407918130921
 30
0.0
 11
184.01764973080719
 21
36.960988719978531
 31
0.0
  0
LINE
  5
5844
  8
0
 10
184.01764973081029
 20
36.960988719978531
 30
0.0
 11
184.595
 21
37.892822239143747
 31
0.0
  0
LINE
  5
5845
  8
0
 10
184.595
 20
31.80679325745805
 30
0.0
 11
184.01764973081029
 21
31.645432045444611
 31
0.0
  0
LINE
  5
5846
  8
0
 10
184.01764973081131
 20
31.645432045444611
 30
0.0
 11
184.01764973081131
 21
33.732578912075013
 31
0.0
  0
LINE
  5
5847
  8
0
 10
184.01764973081029
 20
33.732578912075013
 30
0.0
 11
184.595
 21
34.738534481759217
 31
0.0
  0
LINE
  5
5848
  8
0
 10
184.595
 20
29.140349954996939
 30
0.0
 11
184.01764973081029
 21
28.84310710442324
 31
0.0
  0
LINE
  5
5849
  8
0
 10
184.01764973080989
 20
28.84310710442324
 30
0.0
 11
184.01764973080989
 21
30.74138473467556
 31
0.0
  0
LINE
  5
584A
  8
0
 10
184.01764973081029
 20
30.74138473467556
 30
0.0
 11
184.595
 21
31.80679325745805
 31
0.0
  0
LINE
  5
584B
  8
0
 10
184.595
 20
26.778087322033119
 30
0.0
 11
184.01764973081029
 21
26.349297302993168
 31
0.0
  0
LINE
  5
584C
  8
0
 10
184.01764973081171
 20
26.349297302993168
 30
0.0
 11
184.01764973081171
 21
28.03102453446937
 31
0.0
  0
LINE
  5
584D
  8
0
 10
184.01764973081029
 20
28.03102453446937
 30
0.0
 11
184.595
 21
29.140349954996939
 31
0.0
  0
LINE
  5
584E
  8
0
 10
184.595
 20
24.754452467107399
 30
0.0
 11
184.01764973081029
 21
24.20036800362988
 31
0.0
  0
LINE
  5
584F
  8
0
 10
184.01764973080921
 20
24.20036800362988
 30
0.0
 11
184.01764973080921
 21
25.64102146637504
 31
0.0
  0
LINE
  5
5850
  8
0
 10
184.01764973081029
 20
25.64102146637504
 30
0.0
 11
184.595
 21
26.778087322033119
 31
0.0
  0
LINE
  5
5851
  8
0
 10
184.595
 20
23.09895454323345
 30
0.0
 11
184.01764973081029
 21
22.427655434485359
 31
0.0
  0
LINE
  5
5852
  8
0
 10
184.01764973081239
 20
22.427655434485359
 30
0.0
 11
184.01764973081239
 21
23.60622715694365
 31
0.0
  0
LINE
  5
5853
  8
0
 10
184.01764973081029
 20
23.60622715694365
 30
0.0
 11
184.595
 21
24.75445246710737
 31
0.0
  0
LINE
  5
5854
  8
0
 10
184.595
 20
21.835734437997989
 30
0.0
 11
184.01764973081029
 21
21.05700973661882
 31
0.0
  0
LINE
  5
5855
  8
0
 10
184.0176497308131
 20
21.05700973661882
 30
0.0
 11
184.0176497308131
 21
21.95631348916444
 31
0.0
  0
LINE
  5
5856
  8
0
 10
184.01764973081029
 20
21.95631348916444
 30
0.0
 11
184.595
 21
23.09895454323345
 31
0.0
  0
LINE
  5
5857
  8
0
 10
184.595
 20
20.983212745059351
 30
0.0
 11
184.01764973081029
 21
20.108418010730531
 31
0.0
  0
LINE
  5
5858
  8
0
 10
184.0176497308106
 20
20.108418010730531
 30
0.0
 11
184.0176497308106
 21
20.715339919595628
 31
0.0
  0
LINE
  5
5859
  8
0
 10
184.01764973081029
 20
20.715339919595628
 30
0.0
 11
184.595
 21
21.835734437997989
 31
0.0
  0
LINE
  5
585A
  8
0
 10
184.595
 20
20.553821150412229
 30
0.0
 11
184.01764973081029
 21
19.595712860226541
 31
0.0
  0
LINE
  5
585B
  8
0
 10
184.01764973081131
 20
19.595712860226541
 30
0.0
 11
184.01764973081131
 21
19.901402637310671
 31
0.0
  0
LINE
  5
585C
  8
0
 10
184.01764973081029
 20
19.901402637310671
 30
0.0
 11
184.595
 21
20.983212745059351
 31
0.0
  0
LINE
  5
585D
  8
0
 10
184.0176497308087
 20
19.50000000000006
 30
0.0
 11
184.0176497308087
 21
19.526370680712429
 31
0.0
  0
LINE
  5
585E
  8
0
 10
184.01764973081029
 20
19.526370680712429
 30
0.0
 11
184.595
 21
20.553821150412229
 31
0.0
  0
LINE
  5
585F
  8
0
 10
180.82735026919119
 20
19.526370680712429
 30
0.0
 11
180.82735026919119
 21
19.50000000000006
 31
0.0
  0
LINE
  5
5860
  8
0
 10
180.25
 20
20.553821150412201
 30
0.0
 11
180.82735026918959
 21
19.5263706807124
 31
0.0
  0
LINE
  5
5861
  8
0
 10
180.82735026918871
 20
19.901402637310671
 30
0.0
 11
180.82735026918871
 21
19.595712860226541
 31
0.0
  0
LINE
  5
5862
  8
0
 10
180.82735026918959
 20
19.595712860226541
 30
0.0
 11
180.25
 21
20.553821150412229
 31
0.0
  0
LINE
  5
5863
  8
0
 10
180.25
 20
20.983212745059351
 30
0.0
 11
180.82735026918959
 21
19.901402637310671
 31
0.0
  0
LINE
  5
5864
  8
0
 10
180.82735026918931
 20
20.715339919595628
 30
0.0
 11
180.82735026918931
 21
20.108418010730531
 31
0.0
  0
LINE
  5
5865
  8
0
 10
180.82735026918959
 20
20.108418010730531
 30
0.0
 11
180.25
 21
20.983212745059351
 31
0.0
  0
LINE
  5
5866
  8
0
 10
180.25
 20
21.835734437997989
 30
0.0
 11
180.82735026918959
 21
20.715339919595628
 31
0.0
  0
LINE
  5
5867
  8
0
 10
180.82735026918681
 20
21.95631348916444
 30
0.0
 11
180.82735026918681
 21
21.05700973661882
 31
0.0
  0
LINE
  5
5868
  8
0
 10
180.82735026918959
 20
21.05700973661882
 30
0.0
 11
180.25
 21
21.835734437997989
 31
0.0
  0
LINE
  5
5869
  8
0
 10
180.25
 20
23.098954543233418
 30
0.0
 11
180.82735026918959
 21
21.95631348916444
 31
0.0
  0
LINE
  5
586A
  8
0
 10
180.82735026918749
 20
23.60622715694365
 30
0.0
 11
180.82735026918749
 21
22.427655434485359
 31
0.0
  0
LINE
  5
586B
  8
0
 10
180.82735026918959
 20
22.427655434485359
 30
0.0
 11
180.25
 21
23.09895454323345
 31
0.0
  0
LINE
  5
586C
  8
0
 10
180.25
 20
24.75445246710737
 30
0.0
 11
180.82735026918959
 21
23.60622715694365
 31
0.0
  0
LINE
  5
586D
  8
0
 10
180.8273502691907
 20
25.64102146637504
 30
0.0
 11
180.8273502691907
 21
24.20036800362988
 31
0.0
  0
LINE
  5
586E
  8
0
 10
180.82735026918959
 20
24.200368003629851
 30
0.0
 11
180.25
 21
24.754452467107399
 31
0.0
  0
LINE
  5
586F
  8
0
 10
180.25
 20
26.778087322033091
 30
0.0
 11
180.82735026918959
 21
25.64102146637504
 31
0.0
  0
LINE
  5
5870
  8
0
 10
180.8273502691882
 20
28.03102453446937
 30
0.0
 11
180.8273502691882
 21
26.349297302993168
 31
0.0
  0
LINE
  5
5871
  8
0
 10
180.82735026918959
 20
26.349297302993168
 30
0.0
 11
180.25
 21
26.778087322033119
 31
0.0
  0
LINE
  5
5872
  8
0
 10
180.25
 20
29.140349954996939
 30
0.0
 11
180.82735026918959
 21
28.03102453446937
 31
0.0
  0
LINE
  5
5873
  8
0
 10
180.82735026918999
 20
30.74138473467556
 30
0.0
 11
180.82735026918999
 21
28.84310710442324
 31
0.0
  0
LINE
  5
5874
  8
0
 10
180.82735026918959
 20
28.84310710442324
 30
0.0
 11
180.25
 21
29.140349954996939
 31
0.0
  0
LINE
  5
5875
  8
0
 10
180.25
 20
31.80679325745805
 30
0.0
 11
180.82735026918959
 21
30.74138473467556
 31
0.0
  0
LINE
  5
5876
  8
0
 10
180.8273502691886
 20
33.732578912075013
 30
0.0
 11
180.8273502691886
 21
31.645432045444611
 31
0.0
  0
LINE
  5
5877
  8
0
 10
180.82735026918959
 20
31.645432045444611
 30
0.0
 11
180.25
 21
31.80679325745805
 31
0.0
  0
LINE
  5
5878
  8
0
 10
180.25
 20
34.738534481759217
 30
0.0
 11
180.82735026918959
 21
33.732578912075013
 31
0.0
  0
LINE
  5
5879
  8
0
 10
180.82735026919269
 20
36.960988719978531
 30
0.0
 11
180.82735026919269
 21
34.715407918130921
 31
0.0
  0
LINE
  5
587A
  8
0
 10
180.82735026918959
 20
34.715407918130921
 30
0.0
 11
180.25
 21
34.738534481759217
 31
0.0
  0
LINE
  5
587B
  8
0
 10
180.25
 20
37.892822239143747
 30
0.0
 11
180.82735026918959
 21
36.960988719978531
 31
0.0
  0
LINE
  5
587C
  8
0
 10
180.82735026919181
 20
40.379536673641091
 30
0.0
 11
180.82735026919181
 21
38.00826756127487
 31
0.0
  0
LINE
  5
587D
  8
0
 10
180.82735026918959
 20
38.00826756127487
 30
0.0
 11
180.25
 21
37.89282223914379
 31
0.0
  0
LINE
  5
587E
  8
0
 10
180.25
 20
41.223659911271596
 30
0.0
 11
180.82735026918959
 21
40.379536673641091
 31
0.0
  0
LINE
  5
587F
  8
0
 10
180.8273502691884
 20
43.938372645998747
 30
0.0
 11
180.8273502691884
 21
41.475993666405138
 31
0.0
  0
LINE
  5
5880
  8
0
 10
180.82735026918959
 20
41.475993666405138
 30
0.0
 11
180.25
 21
41.223659911271596
 31
0.0
  0
LINE
  5
5881
  8
0
 10
180.25
 20
44.682476384489853
 30
0.0
 11
180.82735026918959
 21
43.938372645998747
 31
0.0
  0
LINE
  5
5882
  8
0
 10
180.82735026919119
 20
47.585600794773832
 30
0.0
 11
180.82735026919119
 21
45.068018978269912
 31
0.0
  0
LINE
  5
5883
  8
0
 10
180.82735026918959
 20
45.068018978269912
 30
0.0
 11
180.25
 21
44.682476384489853
 31
0.0
  0
LINE
  5
5884
  8
0
 10
180.25
 20
48.218834326042639
 30
0.0
 11
180.82735026918959
 21
47.585600794773832
 31
0.0
  0
LINE
  5
5885
  8
0
 10
180.82735026918661
 20
51.2680363207146
 30
0.0
 11
180.82735026918661
 21
48.73196367928557
 31
0.0
  0
LINE
  5
5886
  8
0
 10
180.82735026918959
 20
48.73196367928557
 30
0.0
 11
180.25
 21
48.218834326042639
 31
0.0
  0
LINE
  5
5887
  8
0
 10
180.25
 20
51.781165673957531
 30
0.0
 11
180.82735026918959
 21
51.2680363207146
 31
0.0
  0
LINE
  5
5888
  8
0
 10
180.25
 20
55.317523615510311
 30
0.0
 11
180.82735026918959
 21
54.931981021730252
 31
0.0
  0
LINE
  5
5889
  8
0
 10
180.827350269188
 20
54.931981021730252
 30
0.0
 11
180.827350269188
 21
52.414399205226339
 31
0.0
  0
LINE
  5
588A
  8
0
 10
180.82735026918959
 20
52.414399205226339
 30
0.0
 11
180.25
 21
51.781165673957503
 31
0.0
  0
LINE
  5
588B
  8
0
 10
180.25
 20
58.776340088728567
 30
0.0
 11
180.82735026918959
 21
58.524006333594997
 31
0.0
  0
LINE
  5
588C
  8
0
 10
180.8273502691882
 20
58.524006333594997
 30
0.0
 11
180.8273502691882
 21
56.061627354001409
 31
0.0
  0
LINE
  5
588D
  8
0
 10
180.82735026918959
 20
56.061627354001409
 30
0.0
 11
180.25
 21
55.317523615510311
 31
0.0
  0
LINE
  5
588E
  8
0
 10
180.25
 20
62.107177760856409
 30
0.0
 11
180.82735026918959
 21
61.991732438725307
 31
0.0
  0
LINE
  5
588F
  8
0
 10
180.827350269189
 20
61.991732438725307
 30
0.0
 11
180.827350269189
 21
59.620463326359072
 31
0.0
  0
LINE
  5
5890
  8
0
 10
180.82735026918959
 20
59.620463326359072
 30
0.0
 11
180.25
 21
58.776340088728567
 31
0.0
  0
LINE
  5
5891
  8
0
 10
180.25
 20
65.261465518240954
 30
0.0
 11
180.82735026918959
 21
65.284592081869249
 31
0.0
  0
LINE
  5
5892
  8
0
 10
180.82735026918931
 20
65.284592081869249
 30
0.0
 11
180.82735026918931
 21
63.03901128002164
 31
0.0
  0
LINE
  5
5893
  8
0
 10
180.82735026918959
 20
63.03901128002164
 30
0.0
 11
180.25
 21
62.107177760856409
 31
0.0
  0
LINE
  5
5894
  8
0
 10
180.25
 20
68.193206742542117
 30
0.0
 11
180.82735026918959
 21
68.354567954555563
 31
0.0
  0
LINE
  5
5895
  8
0
 10
180.82735026919019
 20
68.354567954555563
 30
0.0
 11
180.82735026919019
 21
66.267421087925186
 31
0.0
  0
LINE
  5
5896
  8
0
 10
180.82735026918959
 20
66.267421087925186
 30
0.0
 11
180.25
 21
65.261465518240925
 31
0.0
  0
LINE
  5
5897
  8
0
 10
180.25
 20
70.859650045003235
 30
0.0
 11
180.82735026918959
 21
71.156892895576902
 31
0.0
  0
LINE
  5
5898
  8
0
 10
180.82735026918459
 20
71.156892895576902
 30
0.0
 11
180.82735026918459
 21
69.258615265324565
 31
0.0
  0
LINE
  5
5899
  8
0
 10
180.82735026918959
 20
69.258615265324565
 30
0.0
 11
180.25
 21
68.193206742542117
 31
0.0
  0
LINE
  5
589A
  8
0
 10
180.25
 20
73.221912677967083
 30
0.0
 11
180.82735026918959
 21
73.650702697006977
 31
0.0
  0
LINE
  5
589B
  8
0
 10
180.82735026918971
 20
73.650702697006977
 30
0.0
 11
180.82735026918971
 21
71.968975465530832
 31
0.0
  0
LINE
  5
589C
  8
0
 10
180.82735026918959
 20
71.968975465530832
 30
0.0
 11
180.25
 21
70.859650045003207
 31
0.0
  0
LINE
  5
589D
  8
0
 10
180.25
 20
75.2455475328928
 30
0.0
 11
180.82735026918959
 21
75.799631996370323
 31
0.0
  0
LINE
  5
589E
  8
0
 10
180.8273502691894
 20
75.799631996370323
 30
0.0
 11
180.8273502691894
 21
74.358978533625105
 31
0.0
  0
LINE
  5
589F
  8
0
 10
180.82735026918959
 20
74.358978533625105
 30
0.0
 11
180.25
 21
73.221912677967055
 31
0.0
  0
LINE
  5
58A0
  8
0
 10
180.25
 20
76.901045456766752
 30
0.0
 11
180.82735026918959
 21
77.57234456551484
 31
0.0
  0
LINE
  5
58A1
  8
0
 10
180.8273502691917
 20
77.57234456551484
 30
0.0
 11
180.8273502691917
 21
76.393772843056524
 31
0.0
  0
LINE
  5
58A2
  8
0
 10
180.82735026918959
 20
76.393772843056524
 30
0.0
 11
180.25
 21
75.245547532892772
 31
0.0
  0
LINE
  5
58A3
  8
0
 10
180.25
 20
78.164265562002214
 30
0.0
 11
180.82735026918959
 21
78.942990263381347
 31
0.0
  0
LINE
  5
58A4
  8
0
 10
180.827350269189
 20
78.942990263381347
 30
0.0
 11
180.827350269189
 21
78.043686510835727
 31
0.0
  0
LINE
  5
58A5
  8
0
 10
180.82735026918959
 20
78.043686510835727
 30
0.0
 11
180.25
 21
76.901045456766752
 31
0.0
  0
LINE
  5
58A6
  8
0
 10
180.25
 20
79.016787254940795
 30
0.0
 11
180.82735026918959
 21
79.891581989269611
 31
0.0
  0
LINE
  5
58A7
  8
0
 10
180.8273502691907
 20
79.891581989269611
 30
0.0
 11
180.8273502691907
 21
79.284660080404507
 31
0.0
  0
LINE
  5
58A8
  8
0
 10
180.82735026918959
 20
79.284660080404507
 30
0.0
 11
180.25
 21
78.164265562002214
 31
0.0
  0
LINE
  5
58A9
  8
0
 10
180.25
 20
79.446178849587938
 30
0.0
 11
180.82735026918959
 21
80.404287139773686
 31
0.0
  0
LINE
  5
58AA
  8
0
 10
180.82735026918851
 20
80.404287139773686
 30
0.0
 11
180.82735026918851
 21
80.098597362689446
 31
0.0
  0
LINE
  5
58AB
  8
0
 10
180.82735026918959
 20
80.098597362689446
 30
0.0
 11
180.25
 21
79.016787254940795
 31
0.0
  0
LINE
  5
58AC
  8
0
 10
180.827350269188
 20
80.500000000000085
 30
0.0
 11
180.827350269188
 21
80.473629319287767
 31
0.0
  0
LINE
  5
58AD
  8
0
 10
180.82735026918959
 20
80.473629319287767
 30
0.0
 11
180.25
 21
79.446178849587938
 31
0.0
  0
LINE
  5
58AE
  8
0
 10
179.672649730812
 20
80.473629319287767
 30
0.0
 11
179.672649730812
 21
80.500000000000085
 31
0.0
  0
LINE
  5
58AF
  8
0
 10
180.25
 20
20.500000000000089
 30
0.0
 11
180.25
 21
79.500000000000085
 31
0.0
  0
LINE
  5
58B0
  8
0
 10
180.25
 20
79.446178849587938
 30
0.0
 11
179.67264973081029
 21
80.473629319287767
 31
0.0
  0
LINE
  5
58B1
  8
0
 10
179.6726497308114
 20
80.098597362689446
 30
0.0
 11
179.6726497308114
 21
80.404287139773686
 31
0.0
  0
LINE
  5
58B2
  8
0
 10
179.67264973081029
 20
80.404287139773686
 30
0.0
 11
180.25
 21
79.446178849587938
 31
0.0
  0
LINE
  5
58B3
  8
0
 10
180.25
 20
79.016787254940795
 30
0.0
 11
179.67264973081041
 21
80.098597362689446
 31
0.0
  0
LINE
  5
58B4
  8
0
 10
179.6726497308093
 20
79.284660080404507
 30
0.0
 11
179.6726497308093
 21
79.891581989269611
 31
0.0
  0
LINE
  5
58B5
  8
0
 10
179.67264973081029
 20
79.891581989269611
 30
0.0
 11
180.25
 21
79.016787254940795
 31
0.0
  0
LINE
  5
58B6
  8
0
 10
180.25
 20
78.164265562002157
 30
0.0
 11
179.67264973081041
 21
79.284660080404507
 31
0.0
  0
LINE
  5
58B7
  8
0
 10
179.672649730811
 20
78.043686510835727
 30
0.0
 11
179.672649730811
 21
78.942990263381347
 31
0.0
  0
LINE
  5
58B8
  8
0
 10
179.67264973081029
 20
78.942990263381347
 30
0.0
 11
180.25
 21
78.164265562002157
 31
0.0
  0
LINE
  5
58B9
  8
0
 10
180.25
 20
76.901045456766752
 30
0.0
 11
179.67264973081029
 21
78.043686510835727
 31
0.0
  0
LINE
  5
58BA
  8
0
 10
179.67264973080819
 20
76.393772843056524
 30
0.0
 11
179.67264973080819
 21
77.57234456551484
 31
0.0
  0
LINE
  5
58BB
  8
0
 10
179.67264973081029
 20
77.57234456551484
 30
0.0
 11
180.25
 21
76.901045456766752
 31
0.0
  0
LINE
  5
58BC
  8
0
 10
180.25
 20
75.245547532892772
 30
0.0
 11
179.67264973081029
 21
76.393772843056524
 31
0.0
  0
LINE
  5
58BD
  8
0
 10
179.6726497308106
 20
74.358978533625105
 30
0.0
 11
179.6726497308106
 21
75.799631996370323
 31
0.0
  0
LINE
  5
58BE
  8
0
 10
179.67264973081029
 20
75.799631996370323
 30
0.0
 11
180.25
 21
75.2455475328928
 31
0.0
  0
LINE
  5
58BF
  8
0
 10
180.25
 20
73.221912677967055
 30
0.0
 11
179.67264973081029
 21
74.358978533625105
 31
0.0
  0
LINE
  5
58C0
  8
0
 10
179.67264973081029
 20
71.968975465530832
 30
0.0
 11
179.67264973081029
 21
73.650702697006977
 31
0.0
  0
LINE
  5
58C1
  8
0
 10
179.67264973081029
 20
73.650702697006977
 30
0.0
 11
180.25
 21
73.221912677967083
 31
0.0
  0
LINE
  5
58C2
  8
0
 10
180.25
 20
70.859650045003235
 30
0.0
 11
179.67264973081029
 21
71.968975465530832
 31
0.0
  0
LINE
  5
58C3
  8
0
 10
179.67264973081529
 20
69.258615265324565
 30
0.0
 11
179.67264973081529
 21
71.156892895576902
 31
0.0
  0
LINE
  5
58C4
  8
0
 10
179.67264973081029
 20
71.156892895576902
 30
0.0
 11
180.25
 21
70.859650045003235
 31
0.0
  0
LINE
  5
58C5
  8
0
 10
180.25
 20
68.193206742542117
 30
0.0
 11
179.67264973081041
 21
69.258615265324565
 31
0.0
  0
LINE
  5
58C6
  8
0
 10
179.67264973080981
 20
66.267421087925186
 30
0.0
 11
179.67264973080981
 21
68.354567954555563
 31
0.0
  0
LINE
  5
58C7
  8
0
 10
179.67264973081029
 20
68.354567954555563
 30
0.0
 11
180.25
 21
68.193206742542117
 31
0.0
  0
LINE
  5
58C8
  8
0
 10
180.25
 20
65.261465518240954
 30
0.0
 11
179.67264973081029
 21
66.267421087925186
 31
0.0
  0
LINE
  5
58C9
  8
0
 10
179.6726497308106
 20
63.03901128002164
 30
0.0
 11
179.6726497308106
 21
65.284592081869249
 31
0.0
  0
LINE
  5
58CA
  8
0
 10
179.67264973081029
 20
65.284592081869249
 30
0.0
 11
180.25
 21
65.261465518240954
 31
0.0
  0
LINE
  5
58CB
  8
0
 10
180.25
 20
62.107177760856409
 30
0.0
 11
179.67264973081041
 21
63.03901128002164
 31
0.0
  0
LINE
  5
58CC
  8
0
 10
179.672649730811
 20
59.620463326359072
 30
0.0
 11
179.672649730811
 21
61.991732438725307
 31
0.0
  0
LINE
  5
58CD
  8
0
 10
179.67264973081029
 20
61.991732438725307
 30
0.0
 11
180.25
 21
62.107177760856409
 31
0.0
  0
LINE
  5
58CE
  8
0
 10
180.25
 20
58.776340088728539
 30
0.0
 11
179.67264973081029
 21
59.620463326359072
 31
0.0
  0
LINE
  5
58CF
  8
0
 10
179.67264973081171
 20
56.061627354001409
 30
0.0
 11
179.67264973081171
 21
58.524006333594997
 31
0.0
  0
LINE
  5
58D0
  8
0
 10
179.67264973081029
 20
58.524006333594997
 30
0.0
 11
180.25
 21
58.776340088728567
 31
0.0
  0
LINE
  5
58D1
  8
0
 10
180.25
 20
55.317523615510311
 30
0.0
 11
179.67264973081041
 21
56.061627354001409
 31
0.0
  0
LINE
  5
58D2
  8
0
 10
179.672649730812
 20
52.414399205226339
 30
0.0
 11
179.672649730812
 21
54.931981021730252
 31
0.0
  0
LINE
  5
58D3
  8
0
 10
179.67264973081029
 20
54.931981021730252
 30
0.0
 11
180.25
 21
55.317523615510311
 31
0.0
  0
LINE
  5
58D4
  8
0
 10
180.25
 20
51.781165673957503
 30
0.0
 11
179.67264973081029
 21
52.414399205226339
 31
0.0
  0
LINE
  5
58D5
  8
0
 10
180.25
 20
48.218834326042639
 30
0.0
 11
179.67264973081029
 21
48.73196367928557
 31
0.0
  0
LINE
  5
58D6
  8
0
 10
179.6726497308133
 20
48.73196367928557
 30
0.0
 11
179.6726497308133
 21
51.2680363207146
 31
0.0
  0
LINE
  5
58D7
  8
0
 10
179.67264973081029
 20
51.2680363207146
 30
0.0
 11
180.25
 21
51.781165673957531
 31
0.0
  0
LINE
  5
58D8
  8
0
 10
180.25
 20
44.682476384489853
 30
0.0
 11
179.67264973081029
 21
45.068018978269912
 31
0.0
  0
LINE
  5
58D9
  8
0
 10
179.6726497308087
 20
45.068018978269912
 30
0.0
 11
179.6726497308087
 21
47.585600794773832
 31
0.0
  0
LINE
  5
58DA
  8
0
 10
179.67264973081029
 20
47.585600794773832
 30
0.0
 11
180.25
 21
48.218834326042639
 31
0.0
  0
LINE
  5
58DB
  8
0
 10
180.25
 20
41.223659911271596
 30
0.0
 11
179.67264973081029
 21
41.475993666405138
 31
0.0
  0
LINE
  5
58DC
  8
0
 10
179.67264973081149
 20
41.475993666405138
 30
0.0
 11
179.67264973081149
 21
43.938372645998747
 31
0.0
  0
LINE
  5
58DD
  8
0
 10
179.67264973081029
 20
43.938372645998747
 30
0.0
 11
180.25
 21
44.682476384489853
 31
0.0
  0
LINE
  5
58DE
  8
0
 10
180.25
 20
37.89282223914379
 30
0.0
 11
179.67264973081029
 21
38.00826756127487
 31
0.0
  0
LINE
  5
58DF
  8
0
 10
179.67264973080819
 20
38.00826756127487
 30
0.0
 11
179.67264973080819
 21
40.379536673641091
 31
0.0
  0
LINE
  5
58E0
  8
0
 10
179.67264973081029
 20
40.379536673641091
 30
0.0
 11
180.25
 21
41.223659911271596
 31
0.0
  0
LINE
  5
58E1
  8
0
 10
180.25
 20
34.738534481759217
 30
0.0
 11
179.67264973081029
 21
34.715407918130921
 31
0.0
  0
LINE
  5
58E2
  8
0
 10
179.67264973080719
 20
34.715407918130921
 30
0.0
 11
179.67264973080719
 21
36.960988719978531
 31
0.0
  0
LINE
  5
58E3
  8
0
 10
179.67264973081029
 20
36.960988719978531
 30
0.0
 11
180.25
 21
37.892822239143747
 31
0.0
  0
LINE
  5
58E4
  8
0
 10
180.25
 20
31.80679325745805
 30
0.0
 11
179.67264973081029
 21
31.645432045444611
 31
0.0
  0
LINE
  5
58E5
  8
0
 10
179.67264973081129
 20
31.645432045444611
 30
0.0
 11
179.67264973081129
 21
33.732578912075013
 31
0.0
  0
LINE
  5
58E6
  8
0
 10
179.67264973081029
 20
33.732578912075013
 30
0.0
 11
180.25
 21
34.738534481759217
 31
0.0
  0
LINE
  5
58E7
  8
0
 10
180.25
 20
29.140349954996939
 30
0.0
 11
179.67264973081029
 21
28.84310710442324
 31
0.0
  0
LINE
  5
58E8
  8
0
 10
179.67264973080989
 20
28.84310710442324
 30
0.0
 11
179.67264973080989
 21
30.74138473467556
 31
0.0
  0
LINE
  5
58E9
  8
0
 10
179.67264973081029
 20
30.74138473467556
 30
0.0
 11
180.25
 21
31.80679325745805
 31
0.0
  0
LINE
  5
58EA
  8
0
 10
180.25
 20
26.778087322033119
 30
0.0
 11
179.67264973081029
 21
26.349297302993168
 31
0.0
  0
LINE
  5
58EB
  8
0
 10
179.67264973081171
 20
26.349297302993168
 30
0.0
 11
179.67264973081171
 21
28.03102453446937
 31
0.0
  0
LINE
  5
58EC
  8
0
 10
179.67264973081029
 20
28.03102453446937
 30
0.0
 11
180.25
 21
29.140349954996939
 31
0.0
  0
LINE
  5
58ED
  8
0
 10
180.25
 20
24.75445246710737
 30
0.0
 11
179.67264973081029
 21
24.200368003629851
 31
0.0
  0
LINE
  5
58EE
  8
0
 10
179.67264973080921
 20
24.20036800362988
 30
0.0
 11
179.67264973080921
 21
25.64102146637504
 31
0.0
  0
LINE
  5
58EF
  8
0
 10
179.67264973081029
 20
25.64102146637504
 30
0.0
 11
180.25
 21
26.778087322033119
 31
0.0
  0
LINE
  5
58F0
  8
0
 10
180.25
 20
23.09895454323345
 30
0.0
 11
179.67264973081041
 21
22.427655434485359
 31
0.0
  0
LINE
  5
58F1
  8
0
 10
179.6726497308124
 20
22.427655434485359
 30
0.0
 11
179.6726497308124
 21
23.60622715694365
 31
0.0
  0
LINE
  5
58F2
  8
0
 10
179.67264973081029
 20
23.60622715694365
 30
0.0
 11
180.25
 21
24.75445246710737
 31
0.0
  0
LINE
  5
58F3
  8
0
 10
180.25
 20
21.835734437997989
 30
0.0
 11
179.67264973081029
 21
21.05700973661882
 31
0.0
  0
LINE
  5
58F4
  8
0
 10
179.67264973081311
 20
21.05700973661882
 30
0.0
 11
179.67264973081311
 21
21.95631348916444
 31
0.0
  0
LINE
  5
58F5
  8
0
 10
179.67264973081029
 20
21.95631348916444
 30
0.0
 11
180.25
 21
23.09895454323345
 31
0.0
  0
LINE
  5
58F6
  8
0
 10
180.25
 20
20.983212745059351
 30
0.0
 11
179.67264973081029
 21
20.108418010730531
 31
0.0
  0
LINE
  5
58F7
  8
0
 10
179.67264973081069
 20
20.108418010730531
 30
0.0
 11
179.67264973081069
 21
20.715339919595628
 31
0.0
  0
LINE
  5
58F8
  8
0
 10
179.67264973081029
 20
20.715339919595628
 30
0.0
 11
180.25
 21
21.835734437997989
 31
0.0
  0
LINE
  5
58F9
  8
0
 10
180.25
 20
20.553821150412229
 30
0.0
 11
179.67264973081041
 21
19.595712860226541
 31
0.0
  0
LINE
  5
58FA
  8
0
 10
179.67264973081129
 20
19.595712860226541
 30
0.0
 11
179.67264973081129
 21
19.901402637310671
 31
0.0
  0
LINE
  5
58FB
  8
0
 10
179.67264973081029
 20
19.901402637310671
 30
0.0
 11
180.25
 21
20.983212745059351
 31
0.0
  0
LINE
  5
58FC
  8
0
 10
179.67264973080881
 20
19.50000000000006
 30
0.0
 11
179.67264973080881
 21
19.526370680712429
 31
0.0
  0
LINE
  5
58FD
  8
0
 10
179.67264973081029
 20
19.526370680712429
 30
0.0
 11
180.25
 21
20.553821150412229
 31
0.0
  0
LINE
  5
58FE
  8
0
 10
176.4823502691911
 20
19.526370680712429
 30
0.0
 11
176.4823502691911
 21
19.50000000000006
 31
0.0
  0
LINE
  5
58FF
  8
0
 10
175.905
 20
20.553821150412201
 30
0.0
 11
176.4823502691896
 21
19.5263706807124
 31
0.0
  0
LINE
  5
5900
  8
0
 10
176.4823502691886
 20
19.901402637310671
 30
0.0
 11
176.4823502691886
 21
19.595712860226541
 31
0.0
  0
LINE
  5
5901
  8
0
 10
176.48235026918951
 20
19.595712860226541
 30
0.0
 11
175.905
 21
20.553821150412201
 31
0.0
  0
LINE
  5
5902
  8
0
 10
175.905
 20
20.983212745059351
 30
0.0
 11
176.4823502691896
 21
19.901402637310671
 31
0.0
  0
LINE
  5
5903
  8
0
 10
176.48235026918931
 20
20.715339919595628
 30
0.0
 11
176.48235026918931
 21
20.108418010730531
 31
0.0
  0
LINE
  5
5904
  8
0
 10
176.4823502691896
 20
20.108418010730531
 30
0.0
 11
175.905
 21
20.983212745059351
 31
0.0
  0
LINE
  5
5905
  8
0
 10
175.905
 20
21.835734437997989
 30
0.0
 11
176.4823502691896
 21
20.715339919595628
 31
0.0
  0
LINE
  5
5906
  8
0
 10
176.48235026918681
 20
21.95631348916444
 30
0.0
 11
176.48235026918681
 21
21.05700973661882
 31
0.0
  0
LINE
  5
5907
  8
0
 10
176.4823502691896
 20
21.05700973661882
 30
0.0
 11
175.905
 21
21.835734437997989
 31
0.0
  0
LINE
  5
5908
  8
0
 10
175.905
 20
23.098954543233418
 30
0.0
 11
176.4823502691896
 21
21.95631348916444
 31
0.0
  0
LINE
  5
5909
  8
0
 10
176.48235026918749
 20
23.60622715694365
 30
0.0
 11
176.48235026918749
 21
22.427655434485359
 31
0.0
  0
LINE
  5
590A
  8
0
 10
176.48235026918951
 20
22.427655434485359
 30
0.0
 11
175.905
 21
23.098954543233418
 31
0.0
  0
LINE
  5
590B
  8
0
 10
175.905
 20
24.754452467107338
 30
0.0
 11
176.4823502691896
 21
23.60622715694365
 31
0.0
  0
LINE
  5
590C
  8
0
 10
176.4823502691907
 20
25.64102146637504
 30
0.0
 11
176.4823502691907
 21
24.20036800362988
 31
0.0
  0
LINE
  5
590D
  8
0
 10
176.4823502691896
 20
24.200368003629851
 30
0.0
 11
175.905
 21
24.75445246710737
 31
0.0
  0
LINE
  5
590E
  8
0
 10
175.905
 20
26.778087322033091
 30
0.0
 11
176.4823502691896
 21
25.64102146637504
 31
0.0
  0
LINE
  5
590F
  8
0
 10
176.4823502691882
 20
28.03102453446937
 30
0.0
 11
176.4823502691882
 21
26.349297302993168
 31
0.0
  0
LINE
  5
5910
  8
0
 10
176.4823502691896
 20
26.349297302993168
 30
0.0
 11
175.905
 21
26.778087322033091
 31
0.0
  0
LINE
  5
5911
  8
0
 10
175.905
 20
29.14034995499691
 30
0.0
 11
176.4823502691896
 21
28.03102453446937
 31
0.0
  0
LINE
  5
5912
  8
0
 10
176.48235026918999
 20
30.74138473467556
 30
0.0
 11
176.48235026918999
 21
28.843107104423272
 31
0.0
  0
LINE
  5
5913
  8
0
 10
176.4823502691896
 20
28.843107104423272
 30
0.0
 11
175.905
 21
29.140349954996939
 31
0.0
  0
LINE
  5
5914
  8
0
 10
175.905
 20
31.80679325745805
 30
0.0
 11
176.4823502691896
 21
30.74138473467556
 31
0.0
  0
LINE
  5
5915
  8
0
 10
176.4823502691886
 20
33.732578912075013
 30
0.0
 11
176.4823502691886
 21
31.645432045444611
 31
0.0
  0
LINE
  5
5916
  8
0
 10
176.4823502691896
 20
31.645432045444611
 30
0.0
 11
175.905
 21
31.80679325745805
 31
0.0
  0
LINE
  5
5917
  8
0
 10
175.905
 20
34.738534481759189
 30
0.0
 11
176.4823502691896
 21
33.732578912075013
 31
0.0
  0
LINE
  5
5918
  8
0
 10
176.48235026919269
 20
36.960988719978531
 30
0.0
 11
176.48235026919269
 21
34.715407918130921
 31
0.0
  0
LINE
  5
5919
  8
0
 10
176.4823502691896
 20
34.715407918130921
 30
0.0
 11
175.905
 21
34.738534481759217
 31
0.0
  0
LINE
  5
591A
  8
0
 10
175.905
 20
37.892822239143747
 30
0.0
 11
176.4823502691896
 21
36.960988719978531
 31
0.0
  0
LINE
  5
591B
  8
0
 10
176.48235026919181
 20
40.379536673641091
 30
0.0
 11
176.48235026919181
 21
38.00826756127487
 31
0.0
  0
LINE
  5
591C
  8
0
 10
176.4823502691896
 20
38.00826756127487
 30
0.0
 11
175.905
 21
37.892822239143747
 31
0.0
  0
LINE
  5
591D
  8
0
 10
175.905
 20
41.223659911271596
 30
0.0
 11
176.4823502691896
 21
40.379536673641091
 31
0.0
  0
LINE
  5
591E
  8
0
 10
176.4823502691884
 20
43.938372645998747
 30
0.0
 11
176.4823502691884
 21
41.475993666405138
 31
0.0
  0
LINE
  5
591F
  8
0
 10
176.4823502691896
 20
41.475993666405138
 30
0.0
 11
175.905
 21
41.223659911271596
 31
0.0
  0
LINE
  5
5920
  8
0
 10
175.905
 20
44.682476384489853
 30
0.0
 11
176.4823502691896
 21
43.938372645998747
 31
0.0
  0
LINE
  5
5921
  8
0
 10
176.48235026919119
 20
47.585600794773832
 30
0.0
 11
176.48235026919119
 21
45.068018978269912
 31
0.0
  0
LINE
  5
5922
  8
0
 10
176.4823502691896
 20
45.068018978269912
 30
0.0
 11
175.905
 21
44.682476384489853
 31
0.0
  0
LINE
  5
5923
  8
0
 10
175.905
 20
48.218834326042639
 30
0.0
 11
176.4823502691896
 21
47.585600794773832
 31
0.0
  0
LINE
  5
5924
  8
0
 10
176.48235026918661
 20
51.2680363207146
 30
0.0
 11
176.48235026918661
 21
48.73196367928557
 31
0.0
  0
LINE
  5
5925
  8
0
 10
176.4823502691896
 20
48.73196367928557
 30
0.0
 11
175.905
 21
48.218834326042639
 31
0.0
  0
LINE
  5
5926
  8
0
 10
175.905
 20
51.781165673957531
 30
0.0
 11
176.4823502691896
 21
51.2680363207146
 31
0.0
  0
LINE
  5
5927
  8
0
 10
175.905
 20
55.317523615510311
 30
0.0
 11
176.4823502691896
 21
54.931981021730252
 31
0.0
  0
LINE
  5
5928
  8
0
 10
176.48235026918789
 20
54.931981021730252
 30
0.0
 11
176.48235026918789
 21
52.414399205226339
 31
0.0
  0
LINE
  5
5929
  8
0
 10
176.4823502691896
 20
52.414399205226339
 30
0.0
 11
175.905
 21
51.781165673957503
 31
0.0
  0
LINE
  5
592A
  8
0
 10
175.905
 20
58.776340088728567
 30
0.0
 11
176.4823502691896
 21
58.524006333594997
 31
0.0
  0
LINE
  5
592B
  8
0
 10
176.4823502691882
 20
58.524006333594997
 30
0.0
 11
176.4823502691882
 21
56.061627354001409
 31
0.0
  0
LINE
  5
592C
  8
0
 10
176.4823502691896
 20
56.061627354001409
 30
0.0
 11
175.905
 21
55.317523615510311
 31
0.0
  0
LINE
  5
592D
  8
0
 10
175.905
 20
62.107177760856409
 30
0.0
 11
176.4823502691896
 21
61.991732438725307
 31
0.0
  0
LINE
  5
592E
  8
0
 10
176.482350269189
 20
61.991732438725307
 30
0.0
 11
176.482350269189
 21
59.620463326359072
 31
0.0
  0
LINE
  5
592F
  8
0
 10
176.4823502691896
 20
59.620463326359072
 30
0.0
 11
175.905
 21
58.776340088728567
 31
0.0
  0
LINE
  5
5930
  8
0
 10
175.905
 20
65.261465518240954
 30
0.0
 11
176.4823502691896
 21
65.284592081869249
 31
0.0
  0
LINE
  5
5931
  8
0
 10
176.48235026918931
 20
65.284592081869249
 30
0.0
 11
176.48235026918931
 21
63.03901128002164
 31
0.0
  0
LINE
  5
5932
  8
0
 10
176.4823502691896
 20
63.03901128002164
 30
0.0
 11
175.905
 21
62.107177760856437
 31
0.0
  0
LINE
  5
5933
  8
0
 10
175.905
 20
68.193206742542117
 30
0.0
 11
176.4823502691896
 21
68.354567954555563
 31
0.0
  0
LINE
  5
5934
  8
0
 10
176.48235026919019
 20
68.354567954555563
 30
0.0
 11
176.48235026919019
 21
66.267421087925186
 31
0.0
  0
LINE
  5
5935
  8
0
 10
176.4823502691896
 20
66.267421087925186
 30
0.0
 11
175.905
 21
65.261465518240954
 31
0.0
  0
LINE
  5
5936
  8
0
 10
175.905
 20
70.859650045003235
 30
0.0
 11
176.4823502691896
 21
71.156892895576902
 31
0.0
  0
LINE
  5
5937
  8
0
 10
176.48235026918459
 20
71.156892895576902
 30
0.0
 11
176.48235026918459
 21
69.258615265324565
 31
0.0
  0
LINE
  5
5938
  8
0
 10
176.48235026918951
 20
69.258615265324565
 30
0.0
 11
175.905
 21
68.193206742542117
 31
0.0
  0
LINE
  5
5939
  8
0
 10
175.905
 20
73.221912677967083
 30
0.0
 11
176.4823502691896
 21
73.650702697006977
 31
0.0
  0
LINE
  5
593A
  8
0
 10
176.4823502691896
 20
73.650702697006977
 30
0.0
 11
176.4823502691896
 21
71.968975465530832
 31
0.0
  0
LINE
  5
593B
  8
0
 10
176.4823502691896
 20
71.968975465530832
 30
0.0
 11
175.905
 21
70.859650045003235
 31
0.0
  0
LINE
  5
593C
  8
0
 10
175.905
 20
75.2455475328928
 30
0.0
 11
176.4823502691896
 21
75.799631996370323
 31
0.0
  0
LINE
  5
593D
  8
0
 10
176.4823502691894
 20
75.799631996370323
 30
0.0
 11
176.4823502691894
 21
74.358978533625105
 31
0.0
  0
LINE
  5
593E
  8
0
 10
176.4823502691896
 20
74.358978533625105
 30
0.0
 11
175.905
 21
73.221912677967083
 31
0.0
  0
LINE
  5
593F
  8
0
 10
175.905
 20
76.901045456766752
 30
0.0
 11
176.4823502691896
 21
77.57234456551484
 31
0.0
  0
LINE
  5
5940
  8
0
 10
176.48235026919181
 20
77.57234456551484
 30
0.0
 11
176.48235026919181
 21
76.393772843056524
 31
0.0
  0
LINE
  5
5941
  8
0
 10
176.4823502691896
 20
76.393772843056524
 30
0.0
 11
175.905
 21
75.2455475328928
 31
0.0
  0
LINE
  5
5942
  8
0
 10
175.905
 20
78.164265562002214
 30
0.0
 11
176.4823502691896
 21
78.942990263381347
 31
0.0
  0
LINE
  5
5943
  8
0
 10
176.482350269189
 20
78.942990263381347
 30
0.0
 11
176.482350269189
 21
78.043686510835727
 31
0.0
  0
LINE
  5
5944
  8
0
 10
176.4823502691896
 20
78.043686510835727
 30
0.0
 11
175.905
 21
76.901045456766752
 31
0.0
  0
LINE
  5
5945
  8
0
 10
175.905
 20
79.016787254940851
 30
0.0
 11
176.4823502691896
 21
79.891581989269611
 31
0.0
  0
LINE
  5
5946
  8
0
 10
176.48235026919059
 20
79.891581989269611
 30
0.0
 11
176.48235026919059
 21
79.284660080404507
 31
0.0
  0
LINE
  5
5947
  8
0
 10
176.4823502691896
 20
79.284660080404507
 30
0.0
 11
175.905
 21
78.164265562002214
 31
0.0
  0
LINE
  5
5948
  8
0
 10
175.905
 20
79.446178849587994
 30
0.0
 11
176.4823502691896
 21
80.404287139773686
 31
0.0
  0
LINE
  5
5949
  8
0
 10
176.4823502691886
 20
80.404287139773686
 30
0.0
 11
176.4823502691886
 21
80.098597362689446
 31
0.0
  0
LINE
  5
594A
  8
0
 10
176.4823502691896
 20
80.098597362689446
 30
0.0
 11
175.905
 21
79.016787254940851
 31
0.0
  0
LINE
  5
594B
  8
0
 10
176.48235026918789
 20
80.500000000000085
 30
0.0
 11
176.48235026918789
 21
80.473629319287767
 31
0.0
  0
LINE
  5
594C
  8
0
 10
176.4823502691896
 20
80.473629319287767
 30
0.0
 11
175.905
 21
79.446178849587994
 31
0.0
  0
LINE
  5
594D
  8
0
 10
175.327649730812
 20
80.473629319287767
 30
0.0
 11
175.327649730812
 21
80.500000000000085
 31
0.0
  0
LINE
  5
594E
  8
0
 10
175.905
 20
20.500000000000089
 30
0.0
 11
175.905
 21
79.500000000000085
 31
0.0
  0
LINE
  5
594F
  8
0
 10
175.905
 20
79.446178849587994
 30
0.0
 11
175.32764973081041
 21
80.473629319287767
 31
0.0
  0
LINE
  5
5950
  8
0
 10
175.3276497308114
 20
80.098597362689446
 30
0.0
 11
175.3276497308114
 21
80.404287139773686
 31
0.0
  0
LINE
  5
5951
  8
0
 10
175.32764973081041
 20
80.404287139773686
 30
0.0
 11
175.905
 21
79.446178849587994
 31
0.0
  0
LINE
  5
5952
  8
0
 10
175.905
 20
79.016787254940851
 30
0.0
 11
175.32764973081041
 21
80.098597362689446
 31
0.0
  0
LINE
  5
5953
  8
0
 10
175.3276497308093
 20
79.284660080404507
 30
0.0
 11
175.3276497308093
 21
79.891581989269611
 31
0.0
  0
LINE
  5
5954
  8
0
 10
175.32764973081041
 20
79.891581989269611
 30
0.0
 11
175.905
 21
79.016787254940795
 31
0.0
  0
LINE
  5
5955
  8
0
 10
175.905
 20
78.164265562002214
 30
0.0
 11
175.32764973081041
 21
79.284660080404507
 31
0.0
  0
LINE
  5
5956
  8
0
 10
175.327649730811
 20
78.043686510835727
 30
0.0
 11
175.327649730811
 21
78.942990263381347
 31
0.0
  0
LINE
  5
5957
  8
0
 10
175.32764973081041
 20
78.942990263381347
 30
0.0
 11
175.905
 21
78.164265562002214
 31
0.0
  0
LINE
  5
5958
  8
0
 10
175.905
 20
76.901045456766752
 30
0.0
 11
175.32764973081041
 21
78.043686510835727
 31
0.0
  0
LINE
  5
5959
  8
0
 10
175.32764973080819
 20
76.393772843056524
 30
0.0
 11
175.32764973080819
 21
77.57234456551484
 31
0.0
  0
LINE
  5
595A
  8
0
 10
175.32764973081041
 20
77.57234456551484
 30
0.0
 11
175.905
 21
76.901045456766752
 31
0.0
  0
LINE
  5
595B
  8
0
 10
175.905
 20
75.2455475328928
 30
0.0
 11
175.32764973081041
 21
76.393772843056524
 31
0.0
  0
LINE
  5
595C
  8
0
 10
175.32764973081049
 20
74.358978533625105
 30
0.0
 11
175.32764973081049
 21
75.799631996370323
 31
0.0
  0
LINE
  5
595D
  8
0
 10
175.32764973081041
 20
75.799631996370323
 30
0.0
 11
175.905
 21
75.2455475328928
 31
0.0
  0
LINE
  5
595E
  8
0
 10
175.905
 20
73.221912677967083
 30
0.0
 11
175.32764973081041
 21
74.358978533625105
 31
0.0
  0
LINE
  5
595F
  8
0
 10
175.32764973081029
 20
71.968975465530832
 30
0.0
 11
175.32764973081029
 21
73.650702697006977
 31
0.0
  0
LINE
  5
5960
  8
0
 10
175.32764973081041
 20
73.650702697006977
 30
0.0
 11
175.905
 21
73.221912677967083
 31
0.0
  0
LINE
  5
5961
  8
0
 10
175.905
 20
70.859650045003235
 30
0.0
 11
175.32764973081029
 21
71.968975465530832
 31
0.0
  0
LINE
  5
5962
  8
0
 10
175.3276497308153
 20
69.258615265324565
 30
0.0
 11
175.3276497308153
 21
71.156892895576902
 31
0.0
  0
LINE
  5
5963
  8
0
 10
175.32764973081041
 20
71.156892895576902
 30
0.0
 11
175.905
 21
70.859650045003235
 31
0.0
  0
LINE
  5
5964
  8
0
 10
175.905
 20
68.193206742542117
 30
0.0
 11
175.32764973081041
 21
69.258615265324565
 31
0.0
  0
LINE
  5
5965
  8
0
 10
175.3276497308097
 20
66.267421087925186
 30
0.0
 11
175.3276497308097
 21
68.354567954555563
 31
0.0
  0
LINE
  5
5966
  8
0
 10
175.32764973081041
 20
68.354567954555563
 30
0.0
 11
175.905
 21
68.193206742542117
 31
0.0
  0
LINE
  5
5967
  8
0
 10
175.905
 20
65.261465518240954
 30
0.0
 11
175.32764973081029
 21
66.267421087925186
 31
0.0
  0
LINE
  5
5968
  8
0
 10
175.32764973081061
 20
63.03901128002164
 30
0.0
 11
175.32764973081061
 21
65.284592081869249
 31
0.0
  0
LINE
  5
5969
  8
0
 10
175.32764973081041
 20
65.284592081869249
 30
0.0
 11
175.905
 21
65.261465518240954
 31
0.0
  0
LINE
  5
596A
  8
0
 10
175.905
 20
62.107177760856437
 30
0.0
 11
175.32764973081041
 21
63.03901128002164
 31
0.0
  0
LINE
  5
596B
  8
0
 10
175.327649730811
 20
59.620463326359072
 30
0.0
 11
175.327649730811
 21
61.991732438725307
 31
0.0
  0
LINE
  5
596C
  8
0
 10
175.32764973081041
 20
61.991732438725307
 30
0.0
 11
175.905
 21
62.107177760856409
 31
0.0
  0
LINE
  5
596D
  8
0
 10
175.905
 20
58.776340088728567
 30
0.0
 11
175.32764973081041
 21
59.620463326359072
 31
0.0
  0
LINE
  5
596E
  8
0
 10
175.32764973081169
 20
56.061627354001409
 30
0.0
 11
175.32764973081169
 21
58.524006333594997
 31
0.0
  0
LINE
  5
596F
  8
0
 10
175.32764973081041
 20
58.524006333594997
 30
0.0
 11
175.905
 21
58.776340088728567
 31
0.0
  0
LINE
  5
5970
  8
0
 10
175.905
 20
55.317523615510311
 30
0.0
 11
175.32764973081041
 21
56.061627354001409
 31
0.0
  0
LINE
  5
5971
  8
0
 10
175.32764973081191
 20
52.414399205226339
 30
0.0
 11
175.32764973081191
 21
54.931981021730252
 31
0.0
  0
LINE
  5
5972
  8
0
 10
175.32764973081041
 20
54.931981021730252
 30
0.0
 11
175.905
 21
55.317523615510311
 31
0.0
  0
LINE
  5
5973
  8
0
 10
175.905
 20
51.781165673957503
 30
0.0
 11
175.32764973081029
 21
52.414399205226339
 31
0.0
  0
LINE
  5
5974
  8
0
 10
175.905
 20
48.218834326042661
 30
0.0
 11
175.32764973081041
 21
48.73196367928557
 31
0.0
  0
LINE
  5
5975
  8
0
 10
175.32764973081339
 20
48.73196367928557
 30
0.0
 11
175.32764973081339
 21
51.2680363207146
 31
0.0
  0
LINE
  5
5976
  8
0
 10
175.32764973081041
 20
51.2680363207146
 30
0.0
 11
175.905
 21
51.781165673957503
 31
0.0
  0
LINE
  5
5977
  8
0
 10
175.905
 20
44.682476384489853
 30
0.0
 11
175.32764973081041
 21
45.068018978269912
 31
0.0
  0
LINE
  5
5978
  8
0
 10
175.32764973080879
 20
45.068018978269912
 30
0.0
 11
175.32764973080879
 21
47.585600794773832
 31
0.0
  0
LINE
  5
5979
  8
0
 10
175.32764973081041
 20
47.585600794773832
 30
0.0
 11
175.905
 21
48.218834326042639
 31
0.0
  0
LINE
  5
597A
  8
0
 10
175.905
 20
41.223659911271596
 30
0.0
 11
175.32764973081041
 21
41.475993666405138
 31
0.0
  0
LINE
  5
597B
  8
0
 10
175.32764973081149
 20
41.475993666405138
 30
0.0
 11
175.32764973081149
 21
43.938372645998747
 31
0.0
  0
LINE
  5
597C
  8
0
 10
175.32764973081041
 20
43.938372645998747
 30
0.0
 11
175.905
 21
44.682476384489853
 31
0.0
  0
LINE
  5
597D
  8
0
 10
175.905
 20
37.892822239143747
 30
0.0
 11
175.32764973081041
 21
38.00826756127487
 31
0.0
  0
LINE
  5
597E
  8
0
 10
175.32764973080819
 20
38.00826756127487
 30
0.0
 11
175.32764973080819
 21
40.379536673641091
 31
0.0
  0
LINE
  5
597F
  8
0
 10
175.32764973081041
 20
40.379536673641091
 30
0.0
 11
175.905
 21
41.223659911271596
 31
0.0
  0
LINE
  5
5980
  8
0
 10
175.905
 20
34.738534481759217
 30
0.0
 11
175.32764973081041
 21
34.715407918130921
 31
0.0
  0
LINE
  5
5981
  8
0
 10
175.3276497308072
 20
34.715407918130921
 30
0.0
 11
175.3276497308072
 21
36.960988719978531
 31
0.0
  0
LINE
  5
5982
  8
0
 10
175.32764973081041
 20
36.960988719978531
 30
0.0
 11
175.905
 21
37.892822239143733
 31
0.0
  0
LINE
  5
5983
  8
0
 10
175.905
 20
31.80679325745805
 30
0.0
 11
175.32764973081041
 21
31.645432045444611
 31
0.0
  0
LINE
  5
5984
  8
0
 10
175.32764973081129
 20
31.645432045444611
 30
0.0
 11
175.32764973081129
 21
33.732578912075013
 31
0.0
  0
LINE
  5
5985
  8
0
 10
175.32764973081041
 20
33.732578912075013
 30
0.0
 11
175.905
 21
34.738534481759189
 31
0.0
  0
LINE
  5
5986
  8
0
 10
175.905
 20
29.140349954996939
 30
0.0
 11
175.32764973081041
 21
28.843107104423272
 31
0.0
  0
LINE
  5
5987
  8
0
 10
175.32764973081001
 20
28.843107104423272
 30
0.0
 11
175.32764973081001
 21
30.74138473467556
 31
0.0
  0
LINE
  5
5988
  8
0
 10
175.32764973081041
 20
30.74138473467556
 30
0.0
 11
175.905
 21
31.80679325745805
 31
0.0
  0
LINE
  5
5989
  8
0
 10
175.905
 20
26.778087322033091
 30
0.0
 11
175.32764973081041
 21
26.349297302993168
 31
0.0
  0
LINE
  5
598A
  8
0
 10
175.32764973081169
 20
26.349297302993168
 30
0.0
 11
175.32764973081169
 21
28.03102453446937
 31
0.0
  0
LINE
  5
598B
  8
0
 10
175.32764973081041
 20
28.03102453446937
 30
0.0
 11
175.905
 21
29.14034995499691
 31
0.0
  0
LINE
  5
598C
  8
0
 10
175.905
 20
24.75445246710737
 30
0.0
 11
175.32764973081041
 21
24.200368003629851
 31
0.0
  0
LINE
  5
598D
  8
0
 10
175.32764973080921
 20
24.20036800362988
 30
0.0
 11
175.32764973080921
 21
25.64102146637504
 31
0.0
  0
LINE
  5
598E
  8
0
 10
175.32764973081041
 20
25.64102146637504
 30
0.0
 11
175.905
 21
26.778087322033091
 31
0.0
  0
LINE
  5
598F
  8
0
 10
175.905
 20
23.098954543233418
 30
0.0
 11
175.32764973081041
 21
22.427655434485391
 31
0.0
  0
LINE
  5
5990
  8
0
 10
175.3276497308124
 20
22.427655434485359
 30
0.0
 11
175.3276497308124
 21
23.60622715694365
 31
0.0
  0
LINE
  5
5991
  8
0
 10
175.32764973081041
 20
23.60622715694365
 30
0.0
 11
175.905
 21
24.754452467107338
 31
0.0
  0
LINE
  5
5992
  8
0
 10
175.905
 20
21.835734437997989
 30
0.0
 11
175.32764973081041
 21
21.05700973661882
 31
0.0
  0
LINE
  5
5993
  8
0
 10
175.32764973081311
 20
21.05700973661882
 30
0.0
 11
175.32764973081311
 21
21.95631348916444
 31
0.0
  0
LINE
  5
5994
  8
0
 10
175.32764973081041
 20
21.95631348916444
 30
0.0
 11
175.905
 21
23.098954543233418
 31
0.0
  0
LINE
  5
5995
  8
0
 10
175.905
 20
20.983212745059351
 30
0.0
 11
175.32764973081029
 21
20.108418010730531
 31
0.0
  0
LINE
  5
5996
  8
0
 10
175.32764973081069
 20
20.108418010730531
 30
0.0
 11
175.32764973081069
 21
20.715339919595628
 31
0.0
  0
LINE
  5
5997
  8
0
 10
175.32764973081041
 20
20.715339919595628
 30
0.0
 11
175.905
 21
21.835734437997989
 31
0.0
  0
LINE
  5
5998
  8
0
 10
175.905
 20
20.553821150412201
 30
0.0
 11
175.32764973081041
 21
19.595712860226541
 31
0.0
  0
LINE
  5
5999
  8
0
 10
175.32764973081129
 20
19.595712860226541
 30
0.0
 11
175.32764973081129
 21
19.901402637310671
 31
0.0
  0
LINE
  5
599A
  8
0
 10
175.32764973081041
 20
19.901402637310671
 30
0.0
 11
175.905
 21
20.983212745059351
 31
0.0
  0
LINE
  5
599B
  8
0
 10
175.32764973080879
 20
19.50000000000006
 30
0.0
 11
175.32764973080879
 21
19.526370680712429
 31
0.0
  0
LINE
  5
599C
  8
0
 10
175.32764973081041
 20
19.526370680712429
 30
0.0
 11
175.905
 21
20.553821150412201
 31
0.0
  0
LINE
  5
59A8
  8
1
 10
14.500000000000281
 20
50.000000000000171
 30
0.0
 11
85.500000000000341
 21
50.000000000000171
 31
0.0
  0
LINE
  5
59A9
  8
1
 10
49.999999999999773
 20
14.500000000000069
 30
0.0
 11
49.999999999999773
 21
85.500000000000085
 31
0.0
  0
CIRCLE
  5
59AA
  8
0
 10
50.000000000000277
 20
50.000000000000078
 30
0.0
 40
28.5
  0
CIRCLE
  5
59AB
  8
0
 10
50.000000000000277
 20
50.000000000000078
 30
0.0
 40
11.50000000000011
  0
CIRCLE
  5
59AC
  8
0
 10
50.000000000000277
 20
50.000000000000078
 30
0.0
 40
6.66666666666677
  0
ARC
  5
59AD
  8
0
 10
50.000000000005961
 20
50.000000000000249
 30
0.0
 40
30.499999999994341
 50
357.61724342213938
 51
2.3827565778606208
  0
LINE
  5
59AE
  8
0
 10
79.446178849588136
 20
48.218834326042661
 30
0.0
 11
80.473629319287966
 21
48.73196367928557
 31
0.0
  0
LINE
  5
59AF
  8
0
 10
80.473629319287966
 20
51.2680363207146
 30
0.0
 11
79.446178849588136
 21
51.781165673957531
 31
0.0
  0
LINE
  5
59B0
  8
0
 10
80.404287139773814
 20
47.585600794773832
 30
0.0
 11
79.446178849588136
 21
48.218834326042639
 31
0.0
  0
LINE
  5
59B1
  8
0
 10
79.446178849588136
 20
51.78116567395756
 30
0.0
 11
80.404287139773885
 21
52.414399205226367
 31
0.0
  0
ARC
  5
59B2
  8
0
 10
50.000000000001762
 20
49.999999999999368
 30
0.0
 40
30.49999999999843
 50
350.69416649906373
 51
355.45967965478451
  0
LINE
  5
59B3
  8
0
 10
79.016787254940994
 20
44.682476384489881
 30
0.0
 11
80.098597362689688
 21
45.068018978269947
 31
0.0
  0
ARC
  5
59B4
  8
0
 10
49.999999999999197
 20
50.000000000000107
 30
0.0
 40
30.500000000001059
 50
4.540320345215461
 51
9.3058335009378652
  0
LINE
  5
59B5
  8
0
 10
80.098597362689688
 20
54.931981021730252
 30
0.0
 11
79.016787254940994
 21
55.317523615510311
 31
0.0
  0
LINE
  5
59B6
  8
0
 10
79.891581989269866
 20
43.938372645998747
 30
0.0
 11
79.016787254940994
 21
44.682476384489881
 31
0.0
  0
LINE
  5
59B7
  8
0
 10
79.016787254940994
 20
55.317523615510339
 30
0.0
 11
79.89158198926981
 21
56.061627354001409
 31
0.0
  0
ARC
  5
59B8
  8
0
 10
50.000000000003972
 20
49.999999999999709
 30
0.0
 40
30.499999999996341
 50
343.77108957598432
 51
348.53660273170652
  0
LINE
  5
59B9
  8
0
 10
78.164265562002356
 20
41.223659911271618
 30
0.0
 11
79.284660080404706
 21
41.475993666405166
 31
0.0
  0
ARC
  5
59BA
  8
0
 10
50.000000000003183
 20
50.000000000000227
 30
0.0
 40
30.49999999999714
 50
11.46339726829348
 51
16.228910424015741
  0
LINE
  5
59BB
  8
0
 10
79.284660080404706
 20
58.524006333594997
 30
0.0
 11
78.164265562002356
 21
58.776340088728539
 31
0.0
  0
LINE
  5
59BC
  8
0
 10
78.942990263381546
 20
40.379536673641091
 30
0.0
 11
78.164265562002356
 21
41.223659911271596
 31
0.0
  0
LINE
  5
59BD
  8
0
 10
78.164265562002356
 20
58.776340088728602
 30
0.0
 11
78.942990263381546
 21
59.620463326359072
 31
0.0
  0
ARC
  5
59BE
  8
0
 10
49.999999999995282
 20
50.000000000002053
 30
0.0
 40
30.500000000005411
 50
336.84801265290872
 51
341.61352580863002
  0
LINE
  5
59BF
  8
0
 10
76.901045456766951
 20
37.89282223914379
 30
0.0
 11
78.043686510835926
 21
38.00826756127487
 31
0.0
  0
ARC
  5
59C0
  8
0
 10
49.99999999999585
 20
49.999999999998721
 30
0.0
 40
30.500000000004611
 50
18.38647419136997
 51
23.151987347089779
  0
LINE
  5
59C1
  8
0
 10
78.043686510835926
 20
61.991732438725329
 30
0.0
 11
76.901045456766951
 21
62.107177760856409
 31
0.0
  0
LINE
  5
59C2
  8
0
 10
77.572344565515039
 20
36.960988719978531
 30
0.0
 11
76.901045456766951
 21
37.892822239143747
 31
0.0
  0
LINE
  5
59C3
  8
0
 10
76.901045456766951
 20
62.107177760856409
 30
0.0
 11
77.572344565515039
 21
63.039011280021661
 31
0.0
  0
ARC
  5
59C4
  8
0
 10
50.000000000000789
 20
49.999999999999829
 30
0.0
 40
30.4999999999994
 50
329.92493572983051
 51
334.69044888555288
  0
LINE
  5
59C5
  8
0
 10
75.245547532892999
 20
34.738534481759253
 30
0.0
 11
76.393772843056695
 21
34.71540791813095
 31
0.0
  0
ARC
  5
59C6
  8
0
 10
49.999999999998749
 20
49.999999999999233
 30
0.0
 40
30.50000000000178
 50
25.309551114447121
 51
30.075064270168099
  0
LINE
  5
59C7
  8
0
 10
76.393772843056695
 20
65.284592081869249
 30
0.0
 11
75.245547532892999
 21
65.261465518240954
 31
0.0
  0
LINE
  5
59C8
  8
0
 10
75.799631996370465
 20
33.73257891207507
 30
0.0
 11
75.245547532892942
 21
34.738534481759189
 31
0.0
  0
LINE
  5
59C9
  8
0
 10
75.245547532892942
 20
65.261465518240982
 30
0.0
 11
75.799631996370522
 21
66.267421087925186
 31
0.0
  0
ARC
  5
59CA
  8
0
 10
49.999999999999041
 20
49.999999999999851
 30
0.0
 40
30.50000000000086
 50
323.00185880675639
 51
327.76737196247859
  0
LINE
  5
59CB
  8
0
 10
73.221912677967282
 20
31.806793257458089
 30
0.0
 11
74.358978533625304
 21
31.64543204544464
 31
0.0
  0
ARC
  5
59CC
  8
0
 10
50.00000000000437
 20
50.000000000002927
 30
0.0
 40
30.499999999995008
 50
32.232628037523732
 51
36.998141193244287
  0
LINE
  5
59CD
  8
0
 10
74.358978533625304
 20
68.354567954555563
 30
0.0
 11
73.221912677967282
 21
68.193206742542117
 31
0.0
  0
LINE
  5
59CE
  8
0
 10
73.650702697007205
 20
30.74138473467556
 30
0.0
 11
73.221912677967282
 21
31.806793257458089
 31
0.0
  0
LINE
  5
59CF
  8
0
 10
73.221912677967225
 20
68.193206742542117
 30
0.0
 11
73.650702697007148
 21
69.258615265324636
 31
0.0
  0
ARC
  5
59D0
  8
0
 10
50.000000000003752
 20
49.999999999997051
 30
0.0
 40
30.499999999995381
 50
316.07878188367681
 51
320.84429503939913
  0
LINE
  5
59D1
  8
0
 10
70.859650045003434
 20
29.140349954996939
 30
0.0
 11
71.968975465531003
 21
28.843107104423272
 31
0.0
  0
ARC
  5
59D2
  8
0
 10
49.99999999999897
 20
49.999999999999197
 30
0.0
 40
30.500000000001609
 50
39.155704960600872
 51
43.921218116323203
  0
LINE
  5
59D3
  8
0
 10
71.968975465531003
 20
71.156892895576931
 30
0.0
 11
70.859650045003434
 21
70.859650045003235
 31
0.0
  0
LINE
  5
59D4
  8
0
 10
71.15689289557713
 20
28.03102453446937
 30
0.0
 11
70.859650045003434
 21
29.14034995499696
 31
0.0
  0
LINE
  5
59D5
  8
0
 10
70.859650045003434
 20
70.859650045003235
 30
0.0
 11
71.156892895577073
 21
71.968975465530832
 31
0.0
  0
ARC
  5
59D6
  8
0
 10
49.999999999995282
 20
50.000000000005862
 30
0.0
 40
30.500000000007649
 50
309.15570496060087
 51
313.92121811632148
  0
LINE
  5
59D7
  8
0
 10
68.193206742542316
 20
26.778087322033119
 30
0.0
 11
69.258615265324806
 21
26.34929730299319
 31
0.0
  0
ARC
  5
59D8
  8
0
 10
49.999999999997669
 20
49.999999999996483
 30
0.0
 40
30.500000000004441
 50
46.078781883678488
 51
50.84429503939861
  0
LINE
  5
59D9
  8
0
 10
69.25861526532475
 20
73.650702697006935
 30
0.0
 11
68.193206742542316
 21
73.221912677967055
 31
0.0
  0
LINE
  5
59DA
  8
0
 10
68.354567954555705
 20
25.64102146637509
 30
0.0
 11
68.193206742542259
 21
26.778087322033091
 31
0.0
  0
LINE
  5
59DB
  8
0
 10
68.193206742542259
 20
73.221912677967083
 30
0.0
 11
68.354567954555705
 21
74.358978533625134
 31
0.0
  0
ARC
  5
59DC
  8
0
 10
49.999999999998408
 20
50.000000000001648
 30
0.0
 40
30.500000000002309
 50
302.23262803752692
 51
306.9981411932477
  0
LINE
  5
59DD
  8
0
 10
65.261465518241152
 20
24.754452467107399
 30
0.0
 11
66.267421087925356
 21
24.200368003629851
 31
0.0
  0
ARC
  5
59DE
  8
0
 10
49.999999999999318
 20
49.999999999997613
 30
0.0
 40
30.500000000002569
 50
53.001858806756367
 51
57.767371962476723
  0
LINE
  5
59DF
  8
0
 10
66.2674210879253
 20
75.799631996370266
 30
0.0
 11
65.261465518241152
 21
75.245547532892772
 31
0.0
  0
LINE
  5
59E0
  8
0
 10
65.284592081869434
 20
23.606227156943671
 30
0.0
 11
65.261465518241152
 21
24.75445246710737
 31
0.0
  0
LINE
  5
59E1
  8
0
 10
65.261465518241152
 20
75.2455475328928
 30
0.0
 11
65.284592081869391
 21
76.393772843056524
 31
0.0
  0
ARC
  5
59E2
  8
0
 10
49.999999999999773
 20
50.000000000000739
 30
0.0
 40
30.500000000000799
 50
295.30955111444558
 51
300.07506427016881
  0
LINE
  5
59E3
  8
0
 10
62.107177760856644
 20
23.09895454323345
 30
0.0
 11
63.039011280021839
 21
22.427655434485359
 31
0.0
  0
ARC
  5
59E4
  8
0
 10
50.000000000001251
 20
50.00000000000167
 30
0.0
 40
30.499999999998131
 50
59.924935729831212
 51
64.69044888555436
  0
LINE
  5
59E5
  8
0
 10
63.039011280021839
 20
77.57234456551484
 30
0.0
 11
62.10717776085658
 21
76.901045456766752
 31
0.0
  0
LINE
  5
59E6
  8
0
 10
61.991732438725542
 20
21.95631348916444
 30
0.0
 11
62.10717776085658
 21
23.09895454323345
 31
0.0
  0
LINE
  5
59E7
  8
0
 10
62.10717776085658
 20
76.901045456766752
 30
0.0
 11
61.991732438725471
 21
78.043686510835727
 31
0.0
  0
ARC
  5
59E8
  8
0
 10
49.999999999997783
 20
50.000000000007141
 30
0.0
 40
30.50000000000745
 50
288.38647419137021
 51
293.15198734709162
  0
LINE
  5
59E9
  8
0
 10
58.77634008872878
 20
21.835734437997989
 30
0.0
 11
59.620463326359243
 21
21.057009736618848
 31
0.0
  0
ARC
  5
59EA
  8
0
 10
49.999999999999709
 20
49.999999999997101
 30
0.0
 40
30.50000000000297
 50
66.848012652908409
 51
71.613525808629774
  0
LINE
  5
59EB
  8
0
 10
59.620463326359243
 20
78.94299026338129
 30
0.0
 11
58.77634008872878
 21
78.164265562002157
 31
0.0
  0
LINE
  5
59EC
  8
0
 10
58.524006333595189
 20
20.715339919595628
 30
0.0
 11
58.77634008872878
 21
21.835734437997989
 31
0.0
  0
LINE
  5
59ED
  8
0
 10
58.776340088728709
 20
78.164265562002214
 30
0.0
 11
58.524006333595189
 21
79.284660080404564
 31
0.0
  0
ARC
  5
59EE
  8
0
 10
49.999999999999829
 20
50.000000000001528
 30
0.0
 40
30.50000000000151
 50
281.4633972682937
 51
286.22891042401602
  0
LINE
  5
59EF
  8
0
 10
55.317523615510531
 20
20.98321274505938
 30
0.0
 11
56.061627354001651
 21
20.10841801073056
 31
0.0
  0
ARC
  5
59F0
  8
0
 10
49.999999999999893
 20
49.999999999996703
 30
0.0
 40
30.500000000003361
 50
73.771089575987617
 51
78.536602731706367
  0
LINE
  5
59F1
  8
0
 10
56.06162735400158
 20
79.891581989269611
 30
0.0
 11
55.317523615510531
 21
79.016787254940795
 31
0.0
  0
LINE
  5
59F2
  8
0
 10
54.931981021730451
 20
19.901402637310671
 30
0.0
 11
55.317523615510531
 21
20.983212745059351
 31
0.0
  0
LINE
  5
59F3
  8
0
 10
55.317523615510481
 20
79.016787254940795
 30
0.0
 11
54.931981021730387
 21
80.098597362689503
 31
0.0
  0
ARC
  5
59F4
  8
0
 10
50.000000000000171
 20
50.00000000000167
 30
0.0
 40
30.500000000001609
 50
274.54032034521708
 51
279.30583350093792
  0
LINE
  5
59F5
  8
0
 10
51.78116567395773
 20
20.553821150412229
 30
0.0
 11
52.414399205226573
 21
19.595712860226481
 31
0.0
  0
ARC
  5
59F6
  8
0
 10
49.99999999999914
 20
49.999999999988567
 30
0.0
 40
30.500000000011539
 50
80.694166499065474
 51
85.459679654782917
  0
LINE
  5
59F7
  8
0
 10
52.414399205226509
 20
80.404287139773686
 30
0.0
 11
51.78116567395773
 21
79.446178849587938
 31
0.0
  0
LINE
  5
59F8
  8
0
 10
51.26803632071482
 20
19.526370680712368
 30
0.0
 11
51.78116567395773
 21
20.553821150412229
 31
0.0
  0
LINE
  5
59F9
  8
0
 10
51.78116567395773
 20
79.446178849587938
 30
0.0
 11
51.26803632071482
 21
80.473629319287767
 31
0.0
  0
ARC
  5
59FA
  8
0
 10
50.000000000000789
 20
49.999999999998693
 30
0.0
 40
30.499999999998629
 50
267.61724342213938
 51
272.38275657786062
  0
LINE
  5
59FB
  8
0
 10
48.218834326042838
 20
20.553821150412229
 30
0.0
 11
48.731963679285798
 21
19.5263706807124
 31
0.0
  0
ARC
  5
59FC
  8
0
 10
50.000000000000107
 20
50.000000000000881
 30
0.0
 40
30.499999999999218
 50
87.617243422139339
 51
92.382756577860647
  0
LINE
  5
59FD
  8
0
 10
48.731963679285741
 20
80.473629319287767
 30
0.0
 11
48.218834326042838
 21
79.446178849587938
 31
0.0
  0
LINE
  5
59FE
  8
0
 10
47.585600794774052
 20
19.595712860226541
 30
0.0
 11
48.218834326042838
 21
20.553821150412229
 31
0.0
  0
LINE
  5
59FF
  8
0
 10
48.218834326042838
 20
79.446178849587938
 30
0.0
 11
47.585600794773988
 21
80.404287139773686
 31
0.0
  0
ARC
  5
5A00
  8
0
 10
49.999999999999368
 20
49.999999999997982
 30
0.0
 40
30.49999999999779
 50
260.69416649906208
 51
265.45967965478621
  0
LINE
  5
5A01
  8
0
 10
44.682476384490087
 20
20.983212745059351
 30
0.0
 11
45.068018978270118
 21
19.901402637310671
 31
0.0
  0
ARC
  5
5A02
  8
0
 10
50.000000000001819
 20
49.999999999988148
 30
0.0
 40
30.500000000012012
 50
94.540320345217069
 51
99.305833500937851
  0
LINE
  5
5A03
  8
0
 10
45.068018978270118
 20
80.098597362689446
 30
0.0
 11
44.682476384490087
 21
79.016787254940795
 31
0.0
  0
LINE
  5
5A04
  8
0
 10
43.938372645998967
 20
20.108418010730531
 30
0.0
 11
44.682476384490087
 21
20.983212745059351
 31
0.0
  0
LINE
  5
5A05
  8
0
 10
44.682476384490087
 20
79.016787254940795
 30
0.0
 11
43.938372645998967
 21
79.891581989269611
 31
0.0
  0
ARC
  5
5A06
  8
0
 10
50.000000000000853
 20
50.000000000000988
 30
0.0
 40
30.500000000001041
 50
253.77108957598401
 51
258.53660273170641
  0
LINE
  5
5A07
  8
0
 10
41.223659911271788
 20
21.835734437997989
 30
0.0
 11
41.475993666405373
 21
20.715339919595628
 31
0.0
  0
ARC
  5
5A08
  8
0
 10
50.000000000001251
 20
49.999999999997442
 30
0.0
 40
30.500000000002789
 50
101.4633972682936
 51
106.22891042401589
  0
LINE
  5
5A09
  8
0
 10
41.475993666405373
 20
79.284660080404507
 30
0.0
 11
41.223659911271788
 21
78.164265562002157
 31
0.0
  0
LINE
  5
5A0A
  8
0
 10
40.379536673641319
 20
21.05700973661882
 30
0.0
 11
41.223659911271788
 21
21.835734437997989
 31
0.0
  0
LINE
  5
5A0B
  8
0
 10
41.223659911271788
 20
78.164265562002157
 30
0.0
 11
40.379536673641319
 21
78.942990263381347
 31
0.0
  0
ARC
  5
5A0C
  8
0
 10
49.999999999998522
 20
49.999999999995246
 30
0.0
 40
30.499999999994859
 50
246.84801265290841
 51
251.6135258086297
  0
LINE
  5
5A0D
  8
0
 10
37.892822239143982
 20
23.09895454323345
 30
0.0
 11
38.008267561275041
 21
21.95631348916444
 31
0.0
  0
ARC
  5
5A0E
  8
0
 10
49.999999999999943
 20
50.000000000000369
 30
0.0
 40
30.499999999999609
 50
108.3864741913702
 51
113.15198734709161
  0
LINE
  5
5A0F
  8
0
 10
38.008267561275041
 20
78.043686510835727
 30
0.0
 11
37.892822239143932
 21
76.901045456766752
 31
0.0
  0
LINE
  5
5A10
  8
0
 10
36.960988719978729
 20
22.427655434485391
 30
0.0
 11
37.892822239143932
 21
23.09895454323345
 31
0.0
  0
LINE
  5
5A11
  8
0
 10
37.892822239143982
 20
76.901045456766752
 30
0.0
 11
36.960988719978729
 21
77.57234456551484
 31
0.0
  0
ARC
  5
5A12
  8
0
 10
49.999999999999197
 20
49.999999999998948
 30
0.0
 40
30.499999999998469
 50
239.92493572983119
 51
244.69044888555439
  0
LINE
  5
5A13
  8
0
 10
34.738534481759423
 20
24.754452467107399
 30
0.0
 11
34.71540791813112
 21
23.60622715694365
 31
0.0
  0
ARC
  5
5A14
  8
0
 10
50.000000000001933
 20
49.999999999996838
 30
0.0
 40
30.500000000003642
 50
115.3095511144456
 51
120.0750642701688
  0
LINE
  5
5A15
  8
0
 10
34.71540791813112
 20
76.393772843056524
 30
0.0
 11
34.738534481759423
 21
75.245547532892772
 31
0.0
  0
LINE
  5
5A16
  8
0
 10
33.732578912075212
 20
24.200368003629851
 30
0.0
 11
34.738534481759423
 21
24.754452467107399
 31
0.0
  0
LINE
  5
5A17
  8
0
 10
34.738534481759423
 20
75.2455475328928
 30
0.0
 11
33.732578912075212
 21
75.799631996370323
 31
0.0
  0
ARC
  5
5A18
  8
0
 10
50.00000000000523
 20
50.000000000007503
 30
0.0
 40
30.5000000000089
 50
233.00185880675639
 51
237.76737196247669
  0
LINE
  5
5A19
  8
0
 10
31.806793257458249
 20
26.778087322033119
 30
0.0
 11
31.64543204544481
 21
25.64102146637504
 31
0.0
  0
ARC
  5
5A1A
  8
0
 10
49.999999999994706
 20
50.000000000008328
 30
0.0
 40
30.499999999990049
 50
122.2326280375233
 51
126.9981411932477
  0
LINE
  5
5A1B
  8
0
 10
31.64543204544481
 20
74.358978533625105
 30
0.0
 11
31.806793257458249
 21
73.221912677967055
 31
0.0
  0
LINE
  5
5A1C
  8
0
 10
30.741384734675758
 20
26.349297302993168
 30
0.0
 11
31.806793257458249
 21
26.778087322033119
 31
0.0
  0
LINE
  5
5A1D
  8
0
 10
31.80679325745831
 20
73.221912677967055
 30
0.0
 11
30.741384734675758
 21
73.650702697006977
 31
0.0
  0
ARC
  5
5A1E
  8
0
 10
50.000000000000227
 20
50.000000000000028
 30
0.0
 40
30.499999999999929
 50
226.07878188367849
 51
230.84429503939859
  0
LINE
  5
5A1F
  8
0
 10
29.140349954997141
 20
29.140349954996939
 30
0.0
 11
28.843107104423439
 21
28.03102453446937
 31
0.0
  0
ARC
  5
5A20
  8
0
 10
50.000000000001307
 20
49.999999999998117
 30
0.0
 40
30.50000000000216
 50
129.15570496060141
 51
133.92121811632151
  0
LINE
  5
5A21
  8
0
 10
28.843107104423439
 20
71.968975465530832
 30
0.0
 11
29.140349954997141
 21
70.859650045003207
 31
0.0
  0
LINE
  5
5A22
  8
0
 10
28.031024534469569
 20
28.843107104423272
 30
0.0
 11
29.140349954997141
 21
29.140349954996939
 31
0.0
  0
LINE
  5
5A23
  8
0
 10
29.140349954997141
 20
70.859650045003235
 30
0.0
 11
28.031024534469569
 21
71.156892895576902
 31
0.0
  0
ARC
  5
5A24
  8
0
 10
49.999999999998863
 20
49.999999999998643
 30
0.0
 40
30.499999999997989
 50
219.1557049606009
 51
223.92121811632319
  0
LINE
  5
5A25
  8
0
 10
26.77808732203329
 20
31.80679325745805
 30
0.0
 11
26.349297302993371
 21
30.74138473467556
 31
0.0
  0
ARC
  5
5A26
  8
0
 10
49.999999999994202
 20
50.000000000005862
 30
0.0
 40
30.499999999991608
 50
136.07878188367681
 51
140.8442950393997
  0
LINE
  5
5A27
  8
0
 10
26.349297302993421
 20
69.258615265324565
 30
0.0
 11
26.77808732203335
 21
68.193206742542088
 31
0.0
  0
LINE
  5
5A28
  8
0
 10
25.641021466375271
 20
31.645432045444611
 30
0.0
 11
26.77808732203329
 21
31.80679325745805
 31
0.0
  0
LINE
  5
5A29
  8
0
 10
26.77808732203335
 20
68.193206742542117
 30
0.0
 11
25.641021466375271
 21
68.354567954555563
 31
0.0
  0
ARC
  5
5A2A
  8
0
 10
49.999999999995907
 20
49.999999999997222
 30
0.0
 40
30.49999999999477
 50
212.2326280375222
 51
216.99814119324429
  0
LINE
  5
5A2B
  8
0
 10
24.754452467107569
 20
34.738534481759217
 30
0.0
 11
24.20036800363005
 21
33.732578912075013
 31
0.0
  0
ARC
  5
5A2C
  8
0
 10
50.00000000000454
 20
49.999999999996582
 30
0.0
 40
30.500000000005521
 50
143.00185880675571
 51
147.76737196247419
  0
LINE
  5
5A2D
  8
0
 10
24.20036800362999
 20
66.267421087925186
 30
0.0
 11
24.754452467107569
 21
65.261465518240925
 31
0.0
  0
LINE
  5
5A2E
  8
0
 10
23.60622715694387
 20
34.715407918130921
 30
0.0
 11
24.754452467107569
 21
34.738534481759217
 31
0.0
  0
LINE
  5
5A2F
  8
0
 10
24.754452467107569
 20
65.261465518240954
 30
0.0
 11
23.60622715694387
 21
65.284592081869249
 31
0.0
  0
ARC
  5
5A30
  8
0
 10
50.000000000004832
 20
50.000000000002593
 30
0.0
 40
30.500000000005208
 50
205.30955111444709
 51
210.0750642701681
  0
LINE
  5
5A31
  8
0
 10
23.098954543233621
 20
37.892822239143747
 30
0.0
 11
22.42765543448553
 21
36.960988719978531
 31
0.0
  0
ARC
  5
5A32
  8
0
 10
49.999999999996653
 20
50.000000000002132
 30
0.0
 40
30.499999999995818
 50
149.92493572983039
 51
154.6904488855543
  0
LINE
  5
5A33
  8
0
 10
22.42765543448553
 20
63.03901128002164
 30
0.0
 11
23.098954543233621
 21
62.107177760856409
 31
0.0
  0
LINE
  5
5A34
  8
0
 10
21.956313489164639
 20
38.00826756127487
 30
0.0
 11
23.098954543233621
 21
37.892822239143747
 31
0.0
  0
LINE
  5
5A35
  8
0
 10
23.098954543233621
 20
62.107177760856409
 30
0.0
 11
21.956313489164639
 21
61.991732438725307
 31
0.0
  0
ARC
  5
5A36
  8
0
 10
50.00000000000216
 20
50.000000000000853
 30
0.0
 40
30.500000000002039
 50
198.38647419137001
 51
203.15198734709131
  0
LINE
  5
5A37
  8
0
 10
21.835734437998209
 20
41.223659911271596
 30
0.0
 11
21.057009736619019
 21
40.379536673641091
 31
0.0
  0
ARC
  5
5A38
  8
0
 10
49.999999999992951
 20
50.000000000002593
 30
0.0
 40
30.499999999992252
 50
156.8480126529073
 51
161.61352580862999
  0
LINE
  5
5A39
  8
0
 10
21.057009736619019
 20
59.620463326359072
 30
0.0
 11
21.835734437998209
 21
58.776340088728539
 31
0.0
  0
LINE
  5
5A3A
  8
0
 10
20.715339919595859
 20
41.475993666405138
 30
0.0
 11
21.835734437998209
 21
41.223659911271596
 31
0.0
  0
LINE
  5
5A3B
  8
0
 10
21.835734437998209
 20
58.776340088728567
 30
0.0
 11
20.715339919595859
 21
58.524006333594997
 31
0.0
  0
ARC
  5
5A3C
  8
0
 10
49.99999999999573
 20
49.99999999999892
 30
0.0
 40
30.499999999995332
 50
191.46339726829191
 51
196.228910424015
  0
LINE
  5
5A3D
  8
0
 10
20.983212745059571
 20
44.682476384489853
 30
0.0
 11
20.108418010730759
 21
43.938372645998747
 31
0.0
  0
ARC
  5
5A3E
  8
0
 10
49.999999999997101
 20
50.000000000000909
 30
0.0
 40
30.499999999996689
 50
163.771089575985
 51
168.53660273170649
  0
LINE
  5
5A3F
  8
0
 10
20.108418010730759
 20
56.061627354001409
 30
0.0
 11
20.983212745059571
 21
55.317523615510311
 31
0.0
  0
LINE
  5
5A40
  8
0
 10
19.901402637310859
 20
45.068018978269912
 30
0.0
 11
20.983212745059571
 21
44.682476384489853
 31
0.0
  0
LINE
  5
5A41
  8
0
 10
20.983212745059571
 20
55.317523615510311
 30
0.0
 11
19.901402637310859
 21
54.931981021730252
 31
0.0
  0
ARC
  5
5A42
  8
0
 10
49.999999999998472
 20
49.999999999999709
 30
0.0
 40
30.499999999998149
 50
184.54032034521541
 51
189.30583350093781
  0
LINE
  5
5A43
  8
0
 10
20.553821150412428
 20
48.218834326042639
 30
0.0
 11
19.59571286022668
 21
47.585600794773832
 31
0.0
  0
ARC
  5
5A44
  8
0
 10
50.000000000000277
 20
49.999999999999488
 30
0.0
 40
30.50000000000011
 50
170.69416649906049
 51
175.45967965478289
  0
LINE
  5
5A45
  8
0
 10
19.59571286022663
 20
52.414399205226339
 30
0.0
 11
20.553821150412428
 21
51.781165673957503
 31
0.0
  0
LINE
  5
5A46
  8
0
 10
19.526370680712599
 20
48.73196367928557
 30
0.0
 11
20.553821150412428
 21
48.218834326042639
 31
0.0
  0
LINE
  5
5A47
  8
0
 10
20.553821150412428
 20
51.781165673957531
 30
0.0
 11
19.526370680712599
 21
51.2680363207146
 31
0.0
  0
ARC
  5
5A48
  8
0
 10
49.999999999991019
 20
50.000000000000078
 30
0.0
 40
30.499999999990749
 50
177.6172434221393
 51
182.38275657786059
  0
CIRCLE
  5
5A49
  8
0
 10
49.999999999998749
 20
49.999999999999922
 30
0.0
 40
29.49999999999843
  0
CIRCLE
  5
5A57
  8
0
 10
50.000000000000313
 20
50.000000000000171
 30
0.0
 40
5.0000000000000284
  0
CIRCLE
  5
5A58
  8
3
 10
50.000000000000313
 20
50.000000000000171
 30
0.0
 40
4.1880000000000157
  0
LINE
  5
5ED9
  8
0
 10
132.41999999999999
 20
55.000000000000078
 30
0.0
 11
131.5
 21
54.080000000000098
 31
0.0
  0
LINE
  5
5EDA
  8
0
 10
131.5
 20
45.920000000000073
 30
0.0
 11
132.41999999999999
 21
45.000000000000078
 31
0.0
  0
LINE
  5
5EDB
  8
0
 10
151.5
 20
55.000000000000078
 30
0.0
 11
132.41999999999999
 21
55.000000000000078
 31
0.0
  0
LINE
  5
5EDC
  8
0
 10
132.41999999999999
 20
45.000000000000078
 30
0.0
 11
151.5
 21
45.000000000000078
 31
0.0
  0
LINE
  5
6239
  8
0
 10
131.5
 20
45.920000000000073
 30
0.0
 11
131.5
 21
54.080000000000098
 31
0.0
  0
LINE
  5
623A
  8
0
 10
132.41999999999999
 20
45.000000000000078
 30
0.0
 11
132.41999999999999
 21
55.000000000000078
 31
0.0
  0
LINE
  5
623B
  8
3
 10
131.60800000000009
 20
54.18800000000018
 30
0.0
 11
150.5
 21
54.18800000000018
 31
0.0
  0
LINE
  5
623C
  8
3
 10
151.38260869565201
 20
55.000000000000078
 30
0.0
 11
150.5
 21
54.18800000000018
 31
0.0
  0
LINE
  5
623D
  8
0
 10
150.5
 20
55.000000000000078
 30
0.0
 11
150.5
 21
45.000000000000078
 31
0.0
  0
LINE
  5
623E
  8
3
 10
131.608
 20
45.812000000000012
 30
0.0
 11
150.5
 21
45.811999999999983
 31
0.0
  0
LINE
  5
623F
  8
3
 10
151.3826086956521
 20
45.000000000000078
 30
0.0
 11
150.5
 21
45.811999999999983
 31
0.0
  0
TEXT
  5
62BB
  8
0
 62
     3
 10
0.0
 20
0.0
 30
0.0
 40
10.0
  1
GK60X20N-YE
  7
STANDARD1
  0
ENDSEC
  0
EOF
