  0
SECTION
  2
HEADER
  9
$ACADVER
  1
AC1009
  9
$INSBASE
 10
0.0
 20
0.0
 30
0.0
  9
$EXTMIN
 10
0.0
 20
-2.960436562073669
 30
0.0
  9
$EXTMAX
 10
315.49999999999977
 20
85.500000000000085
 30
0.0
  9
$LIMMIN
 10
0.0
 20
0.0
  9
$LIMMAX
 10
187.5
 20
135.0
  9
$ORTHOMODE
 70
     1
  9
$REGENMODE
 70
     1
  9
$FILLMODE
 70
     1
  9
$QTEXTMODE
 70
     0
  9
$MIRRTEXT
 70
     0
  9
$DRAGMODE
 70
     2
  9
$LTSCALE
 40
5.0
  9
$OSMODE
 70
    37
  9
$ATTMODE
 70
     1
  9
$TEXTSIZE
 40
2.5000000000000488
  9
$TRACEWID
 40
0.05
  9
$TEXTSTYLE
  7
STANDARD
  9
$CLAYER
  8
0
  9
$CELTYPE
  6
BYLAYER
  9
$CECOLOR
 62
   256
  9
$DIMSCALE
 40
0.5
  9
$DIMASZ
 40
3.0
  9
$DIMEXO
 40
2.0
  9
$DIMDLI
 40
0.38
  9
$DIMRND
 40
0.0
  9
$DIMDLE
 40
0.0
  9
$DIMEXE
 40
2.0
  9
$DIMTP
 40
0.0
  9
$DIMTM
 40
0.0
  9
$DIMTXT
 40
3.2000000000000002
  9
$DIMCEN
 40
0.0
  9
$DIMTSZ
 40
0.0
  9
$DIMTOL
 70
     0
  9
$DIMLIM
 70
     0
  9
$DIMTIH
 70
     0
  9
$DIMTOH
 70
     0
  9
$DIMSE1
 70
     0
  9
$DIMSE2
 70
     0
  9
$DIMTAD
 70
     1
  9
$DIMZIN
 70
     0
  9
$DIMBLK
  1

  9
$DIMASO
 70
     1
  9
$DIMSHO
 70
     0
  9
$DIMPOST
  1

  9
$DIMAPOST
  1

  9
$DIMALT
 70
     0
  9
$DIMALTD
 70
     2
  9
$DIMALTF
 40
25.399999999999999
  9
$DIMLFAC
 40
1.0
  9
$DIMTOFL
 70
     1
  9
$DIMTVP
 40
1.6000000000000001
  9
$DIMTIX
 70
     1
  9
$DIMSOXD
 70
     0
  9
$DIMSAH
 70
     0
  9
$DIMBLK1
  1

  9
$DIMBLK2
  1

  9
$DIMSTYLE
  2
STANDARD
  9
$DIMCLRD
 70
     0
  9
$DIMCLRE
 70
     0
  9
$DIMCLRT
 70
     0
  9
$DIMTFAC
 40
1.0
  9
$DIMGAP
 40
0.09
  9
$LUNITS
 70
     2
  9
$LUPREC
 70
     1
  9
$SKETCHINC
 40
0.1
  9
$FILLETRAD
 40
0.0
  9
$AUNITS
 70
     0
  9
$AUPREC
 70
     1
  9
$MENU
  1
E:\r13\win\SUPPORT\ACAD
  9
$ELEVATION
 40
0.0
  9
$PELEVATION
 40
0.0
  9
$THICKNESS
 40
0.0
  9
$LIMCHECK
 70
     0
  9
$BLIPMODE
 70
     0
  9
$CHAMFERA
 40
0.0
  9
$CHAMFERB
 40
0.0
  9
$SKPOLY
 70
     0
  9
$TDCREATE
 40
2449839.787418982
  9
$TDUPDATE
 40
2457162.6029145489
  9
$TDINDWG
 40
0.3040403588
  9
$TDUSRTIMER
 40
0.3040403588
  9
$USRTIMER
 70
     1
  9
$ANGBASE
 50
0.0
  9
$ANGDIR
 70
     0
  9
$PDMODE
 70
     0
  9
$PDSIZE
 40
0.0
  9
$PLINEWID
 40
0.0
  9
$COORDS
 70
     1
  9
$SPLFRAME
 70
     0
  9
$SPLINETYPE
 70
     6
  9
$SPLINESEGS
 70
     8
  9
$ATTDIA
 70
     0
  9
$ATTREQ
 70
     1
  9
$HANDLING
 70
     1
  9
$HANDSEED
  5
71DA
  9
$SURFTAB1
 70
     6
  9
$SURFTAB2
 70
     6
  9
$SURFTYPE
 70
     6
  9
$SURFU
 70
     6
  9
$SURFV
 70
     6
  9
$UCSNAME
  2

  9
$UCSORG
 10
0.0
 20
0.0
 30
0.0
  9
$UCSXDIR
 10
1.0
 20
0.0
 30
0.0
  9
$UCSYDIR
 10
0.0
 20
1.0
 30
0.0
  9
$PUCSNAME
  2

  9
$PUCSORG
 10
0.0
 20
0.0
 30
0.0
  9
$PUCSXDIR
 10
1.0
 20
0.0
 30
0.0
  9
$PUCSYDIR
 10
0.0
 20
1.0
 30
0.0
  9
$USERI1
 70
     0
  9
$USERI2
 70
     1
  9
$USERI3
 70
     1
  9
$USERI4
 70
     0
  9
$USERI5
 70
     0
  9
$USERR1
 40
0.0
  9
$USERR2
 40
0.0
  9
$USERR3
 40
0.0
  9
$USERR4
 40
0.0
  9
$USERR5
 40
0.0
  9
$WORLDVIEW
 70
     1
  9
$SHADEDGE
 70
     3
  9
$SHADEDIF
 70
    70
  9
$TILEMODE
 70
     1
  9
$MAXACTVP
 70
    16
  9
$PLIMCHECK
 70
     0
  9
$PEXTMIN
 10
1.0000000000000000E+020
 20
1.0000000000000000E+020
 30
1.0000000000000000E+020
  9
$PEXTMAX
 10
-1.0000000000000000E+020
 20
-1.0000000000000000E+020
 30
-1.0000000000000000E+020
  9
$PLIMMIN
 10
0.0
 20
0.0
  9
$PLIMMAX
 10
12.0
 20
9.0
  9
$UNITMODE
 70
     0
  9
$VISRETAIN
 70
     0
  9
$PLINEGEN
 70
     0
  9
$PSLTSCALE
 70
     0
  0
ENDSEC
  0
SECTION
  2
TABLES
  0
TABLE
  2
VPORT
 70
     1
  0
VPORT
  2
*ACTIVE
 70
     0
 10
0.0
 20
0.0
 11
1.0
 21
1.0
 12
245.19230769230771
 22
135.0
 13
0.0
 23
0.0
 14
5.0
 24
5.0
 15
5.0
 25
5.0
 16
0.0
 26
0.0
 36
1.0
 17
0.0
 27
0.0
 37
0.0
 40
270.0
 41
1.816239316239316
 42
50.0
 43
0.0
 44
0.0
 50
0.0
 51
0.0
 71
     0
 72
   500
 73
     1
 74
     0
 75
     0
 76
     0
 77
     0
 78
     2
  0
ENDTAB
  0
TABLE
  2
LTYPE
 70
     3
  0
LTYPE
  2
CONTINUOUS
 70
     0
  3
Solid Line
 72
    65
 73
     0
 40
0.0
  0
LTYPE
  2
CENTER
 70
     0
  3
____ _ ____ _ ____ _ ____ _ ____ _ ____ _ ____
 72
    65
 73
     4
 40
2.0
 49
1.25
 49
-0.25
 49
0.25
 49
-0.25
  0
LTYPE
  2
PHANTOM2
 70
     0
  3
___ _ _ ___ _ _ ___ _ _ ___ _ _
 72
    65
 73
     6
 40
1.25
 49
0.625
 49
-0.125
 49
0.125
 49
-0.125
 49
0.125
 49
-0.125
  0
ENDTAB
  0
TABLE
  2
LAYER
 70
     3
  0
LAYER
  2
0
 70
     0
 62
     7
  6
CONTINUOUS
  0
LAYER
  2
1
 70
     0
 62
     1
  6
CENTER
  0
LAYER
  2
3
 70
     0
 62
     3
  6
CONTINUOUS
  0
ENDTAB
  0
TABLE
  2
STYLE
 70
     2
  0
STYLE
  2
STANDARD
 70
     0
 40
0.0
 41
1.0
 50
0.0
 71
     0
 42
2.5000000000000488
  3
TXT
  4
BIGFONT
  0
STYLE
  2
STANDARD1
 70
     0
 40
0.0
 41
1.0
 50
0.0
 71
     0
 42
3.0
  3
txt
  4

  0
ENDTAB
  0
TABLE
  2
VIEW
 70
     2
  0
VIEW
  2
ALL
 70
     0
 40
135.0
 10
110.4957983193277
 20
67.5
 41
0.0
 11
0.0
 21
0.0
 31
1.0
 12
0.0
 22
0.0
 32
0.0
 42
0.0
 43
0.0
 44
0.0
 50
0.0
 71
     0
  0
VIEW
  2
OLE1
 70
     0
 40
63.825144965398117
 10
233.6237691698706
 20
4.175601147383162
 41
113.79500935111911
 11
0.0
 21
0.0
 31
1.0
 12
0.0
 22
0.0
 32
0.0
 42
50.0
 43
0.0
 44
0.0
 50
0.0
 71
     0
  0
ENDTAB
  0
TABLE
  2
UCS
 70
     0
  0
ENDTAB
  0
TABLE
  2
APPID
 70
     6
  0
APPID
  2
ACAD
 70
     0
  0
APPID
  2
ACAD_EXEMPT_FROM_CAD_STANDARDS
 70
     0
  0
APPID
  2
ACAD_MLEADERVER
 70
     0
  0
APPID
  2
ACAD_DSTYLE_DIMJAG
 70
     0
  0
APPID
  2
ACAD_DSTYLE_DIMTALN
 70
     0
  0
APPID
  2
ACAD_NAV_VCDISPLAY
 70
     0
  0
ENDTAB
  0
TABLE
  2
DIMSTYLE
 70
     1
  0
DIMSTYLE
  2
STANDARD
 70
     0
  3

  4

  5

  6

  7

 40
1.0
 41
0.18
 42
0.0625
 43
0.38
 44
0.18
 45
0.0
 46
0.0
 47
0.0
 48
0.0
140
0.18
141
0.09
142
0.0
143
25.399999999999999
144
1.0
145
0.0
146
1.0
147
0.09
 71
     0
 72
     0
 73
     1
 74
     1
 75
     0
 76
     0
 77
     0
 78
     0
170
     0
171
     2
172
     0
173
     0
174
     0
175
     0
176
     0
177
     0
178
     0
  0
ENDTAB
  0
ENDSEC
  0
SECTION
  2
BLOCKS
  0
BLOCK
  8
0
  2
$MODEL_SPACE
 70
     0
 10
0.0
 20
0.0
 30
0.0
  3
$MODEL_SPACE
  1

  0
ENDBLK
  5
85E
  8
0
  0
BLOCK
 67
     1
  8
0
  2
$PAPER_SPACE
 70
     0
 10
0.0
 20
0.0
 30
0.0
  3
$PAPER_SPACE
  1

  0
ENDBLK
  5
85C
 67
     1
  8
0
  0
ENDSEC
  0
SECTION
  2
ENTITIES
  0
LINE
  5
633C
  8
1
 10
244.49999999999989
 20
50.000000000000149
 30
0.0
 11
315.49999999999977
 21
50.000000000000149
 31
0.0
  0
LINE
  5
633D
  8
1
 10
279.99999999999989
 20
14.500000000000229
 30
0.0
 11
279.99999999999989
 21
85.500000000000085
 31
0.0
  0
CIRCLE
  5
633E
  8
0
 10
280.0000000000004
 20
50.000000000000071
 30
0.0
 40
28.5
  0
CIRCLE
  5
6340
  8
0
 10
280.0000000000004
 20
50.000000000000071
 30
0.0
 40
13.05454545454546
  0
CIRCLE
  5
6341
  8
0
 10
280.0000000000004
 20
50.000000000000071
 30
0.0
 40
10.45454545454546
  0
ARC
  5
6342
  8
0
 10
280.00000000000608
 20
50.000000000000242
 30
0.0
 40
30.499999999994341
 50
357.61724342213938
 51
2.382756577860615
  0
LINE
  5
6343
  8
0
 10
309.44617884958831
 20
48.218834326042654
 30
0.0
 11
310.47362931928802
 21
48.731963679285563
 31
0.0
  0
LINE
  5
6344
  8
0
 10
310.47362931928802
 20
51.268036320714579
 30
0.0
 11
309.44617884958831
 21
51.78116567395751
 31
0.0
  0
LINE
  5
6345
  8
0
 10
310.404287139774
 20
47.585600794773811
 30
0.0
 11
309.44617884958831
 21
48.218834326042632
 31
0.0
  0
LINE
  5
6346
  8
0
 10
309.44617884958831
 20
51.781165673957538
 30
0.0
 11
310.404287139774
 21
52.41439920522636
 31
0.0
  0
ARC
  5
6347
  8
0
 10
280.00000000000188
 20
49.999999999999361
 30
0.0
 40
30.49999999999843
 50
350.69416649906401
 51
355.45967965478451
  0
LINE
  5
6348
  8
0
 10
309.01678725494111
 20
44.682476384489867
 30
0.0
 11
310.09859736268982
 21
45.068018978269933
 31
0.0
  0
ARC
  5
6349
  8
0
 10
279.99999999999937
 20
50.000000000000099
 30
0.0
 40
30.500000000001059
 50
4.540320345215469
 51
9.3058335009376343
  0
LINE
  5
634A
  8
0
 10
310.09859736268982
 20
54.931981021730238
 30
0.0
 11
309.01678725494111
 21
55.317523615510297
 31
0.0
  0
LINE
  5
634B
  8
0
 10
309.89158198926992
 20
43.93837264599874
 30
0.0
 11
309.01678725494111
 21
44.682476384489867
 31
0.0
  0
LINE
  5
634C
  8
0
 10
309.01678725494111
 20
55.317523615510318
 30
0.0
 11
309.89158198926992
 21
56.061627354001402
 31
0.0
  0
ARC
  5
634D
  8
0
 10
280.00000000000398
 20
49.999999999999702
 30
0.0
 40
30.499999999996341
 50
343.77108957598381
 51
348.53660273170573
  0
LINE
  5
634E
  8
0
 10
308.16426556200253
 20
41.223659911271611
 30
0.0
 11
309.28466008040488
 21
41.475993666405152
 31
0.0
  0
ARC
  5
634F
  8
0
 10
280.00000000000318
 20
50.000000000000213
 30
0.0
 40
30.49999999999714
 50
11.46339726829425
 51
16.22891042401622
  0
LINE
  5
6350
  8
0
 10
309.28466008040482
 20
58.524006333594983
 30
0.0
 11
308.16426556200253
 21
58.776340088728531
 31
0.0
  0
LINE
  5
6351
  8
0
 10
308.94299026338172
 20
40.379536673641077
 30
0.0
 11
308.16426556200253
 21
41.223659911271582
 31
0.0
  0
LINE
  5
6352
  8
0
 10
308.16426556200253
 20
58.776340088728588
 30
0.0
 11
308.94299026338172
 21
59.620463326359058
 31
0.0
  0
ARC
  5
6353
  8
0
 10
279.9999999999954
 20
50.000000000002032
 30
0.0
 40
30.500000000005411
 50
336.84801265290798
 51
341.61352580863002
  0
LINE
  5
6354
  8
0
 10
306.90104545676701
 20
37.892822239143769
 30
0.0
 11
308.0436865108361
 21
38.008267561274849
 31
0.0
  0
ARC
  5
6355
  8
0
 10
279.99999999999602
 20
49.999999999998707
 30
0.0
 40
30.500000000004611
 50
18.38647419136997
 51
23.151987347090511
  0
LINE
  5
6356
  8
0
 10
308.0436865108361
 20
61.991732438725322
 30
0.0
 11
306.90104545676701
 21
62.10717776085643
 31
0.0
  0
LINE
  5
6357
  8
0
 10
307.5723445655151
 20
36.960988719978523
 30
0.0
 11
306.90104545676701
 21
37.89282223914374
 31
0.0
  0
LINE
  5
6358
  8
0
 10
306.90104545676701
 20
62.10717776085643
 30
0.0
 11
307.5723445655151
 21
63.039011280021633
 31
0.0
  0
ARC
  5
6359
  8
0
 10
280.00000000000091
 20
49.999999999999822
 30
0.0
 40
30.4999999999994
 50
329.92493572982971
 51
334.69044888555288
  0
LINE
  5
635A
  8
0
 10
305.24554753289311
 20
34.738534481759231
 30
0.0
 11
306.39377284305692
 21
34.715407918130943
 31
0.0
  0
ARC
  5
635B
  8
0
 10
279.99999999999881
 20
49.999999999999211
 30
0.0
 40
30.50000000000178
 50
25.309551114447071
 51
30.075064270170341
  0
LINE
  5
635C
  8
0
 10
306.39377284305692
 20
65.284592081869235
 30
0.0
 11
305.24554753289311
 21
65.261465518240939
 31
0.0
  0
LINE
  5
635D
  8
0
 10
305.79963199637058
 20
33.732578912075063
 30
0.0
 11
305.24554753289311
 21
34.738534481759181
 31
0.0
  0
LINE
  5
635E
  8
0
 10
305.24554753289311
 20
65.261465518240939
 30
0.0
 11
305.79963199637058
 21
66.267421087925143
 31
0.0
  0
ARC
  5
635F
  8
0
 10
279.99999999999909
 20
49.999999999999837
 30
0.0
 40
30.50000000000086
 50
323.00185880675753
 51
327.76737196247723
  0
LINE
  5
6360
  8
0
 10
303.2219126779674
 20
31.806793257458072
 30
0.0
 11
304.35897853362547
 21
31.645432045444618
 31
0.0
  0
ARC
  5
6361
  8
0
 10
280.00000000000449
 20
50.000000000002913
 30
0.0
 40
30.499999999995008
 50
32.232628037523547
 51
36.998141193247541
  0
LINE
  5
6362
  8
0
 10
304.35897853362547
 20
68.354567954555549
 30
0.0
 11
303.2219126779674
 21
68.193206742542102
 31
0.0
  0
LINE
  5
6363
  8
0
 10
303.65070269700732
 20
30.741384734675549
 30
0.0
 11
303.2219126779674
 21
31.806793257458072
 31
0.0
  0
LINE
  5
6364
  8
0
 10
303.2219126779674
 20
68.193206742542102
 30
0.0
 11
303.65070269700732
 21
69.258615265324593
 31
0.0
  0
ARC
  5
6365
  8
0
 10
280.00000000000392
 20
49.99999999999703
 30
0.0
 40
30.499999999995381
 50
316.07878188368022
 51
320.84429503939901
  0
LINE
  5
6366
  8
0
 10
300.85965004500349
 20
29.140349954996921
 30
0.0
 11
301.96897546553117
 21
28.843107104423261
 31
0.0
  0
ARC
  5
6367
  8
0
 10
279.99999999999898
 20
49.99999999999919
 30
0.0
 40
30.500000000001609
 50
39.155704960600929
 51
43.921218116319842
  0
LINE
  5
6368
  8
0
 10
301.96897546553117
 20
71.156892895576917
 30
0.0
 11
300.85965004500349
 21
70.859650045003221
 31
0.0
  0
LINE
  5
6369
  8
0
 10
301.15689289557719
 20
28.031024534469349
 30
0.0
 11
300.85965004500349
 21
29.14034995499695
 31
0.0
  0
LINE
  5
636A
  8
0
 10
300.85965004500349
 20
70.859650045003221
 30
0.0
 11
301.15689289557719
 21
71.968975465530846
 31
0.0
  0
ARC
  5
636B
  8
0
 10
279.9999999999954
 20
50.000000000005841
 30
0.0
 40
30.500000000007649
 50
309.15570496060178
 51
313.92121811632143
  0
LINE
  5
636C
  8
0
 10
298.19320674254237
 20
26.778087322033102
 30
0.0
 11
299.25861526532498
 21
26.349297302993179
 31
0.0
  0
ARC
  5
636D
  8
0
 10
279.99999999999778
 20
49.999999999996461
 30
0.0
 40
30.500000000004441
 50
46.078781883678623
 51
50.844295039402702
  0
LINE
  5
636E
  8
0
 10
299.25861526532492
 20
73.650702697006935
 30
0.0
 11
298.19320674254237
 21
73.221912677967012
 31
0.0
  0
LINE
  5
636F
  8
0
 10
298.35456795455588
 20
25.641021466375079
 30
0.0
 11
298.19320674254237
 21
26.77808732203307
 31
0.0
  0
LINE
  5
6370
  8
0
 10
298.19320674254237
 20
73.221912677967069
 30
0.0
 11
298.35456795455588
 21
74.358978533625148
 31
0.0
  0
ARC
  5
6371
  8
0
 10
279.99999999999858
 20
50.000000000001627
 30
0.0
 40
30.500000000002309
 50
302.23262803752328
 51
306.99814119324412
  0
LINE
  5
6372
  8
0
 10
295.26146551824132
 20
24.754452467107392
 30
0.0
 11
296.26742108792553
 21
24.20036800362983
 31
0.0
  0
ARC
  5
6373
  8
0
 10
279.99999999999937
 20
49.999999999997598
 30
0.0
 40
30.500000000002569
 50
53.001858806756452
 51
57.767371962476659
  0
LINE
  5
6374
  8
0
 10
296.26742108792553
 20
75.799631996370252
 30
0.0
 11
295.26146551824132
 21
75.245547532892715
 31
0.0
  0
LINE
  5
6375
  8
0
 10
295.2845920818695
 20
23.60622715694366
 30
0.0
 11
295.26146551824132
 21
24.75445246710736
 31
0.0
  0
LINE
  5
6376
  8
0
 10
295.26146551824121
 20
75.245547532892786
 30
0.0
 11
295.2845920818695
 21
76.393772843056539
 31
0.0
  0
ARC
  5
6377
  8
0
 10
279.99999999999989
 20
50.000000000000718
 30
0.0
 40
30.500000000000799
 50
295.30955111444888
 51
300.07506427016568
  0
LINE
  5
6378
  8
0
 10
292.1071777608567
 20
23.098954543233429
 30
0.0
 11
293.0390112800219
 21
22.427655434485342
 31
0.0
  0
ARC
  5
6379
  8
0
 10
280.00000000000142
 20
50.000000000001663
 30
0.0
 40
30.499999999998131
 50
59.92493572983436
 51
64.690448885551064
  0
LINE
  5
637A
  8
0
 10
293.0390112800219
 20
77.572344565514825
 30
0.0
 11
292.1071777608567
 21
76.901045456766738
 31
0.0
  0
LINE
  5
637B
  8
0
 10
291.99173243872559
 20
21.95631348916443
 30
0.0
 11
292.1071777608567
 21
23.098954543233429
 31
0.0
  0
LINE
  5
637C
  8
0
 10
292.1071777608567
 20
76.901045456766738
 30
0.0
 11
291.99173243872559
 21
78.043686510835713
 31
0.0
  0
ARC
  5
637D
  8
0
 10
279.9999999999979
 20
50.00000000000712
 30
0.0
 40
30.50000000000745
 50
288.38647419137021
 51
293.15198734708798
  0
LINE
  5
637E
  8
0
 10
288.77634008872889
 20
21.835734437997971
 30
0.0
 11
289.6204633263593
 21
21.057009736618841
 31
0.0
  0
ARC
  5
637F
  8
0
 10
279.99999999999977
 20
49.99999999999708
 30
0.0
 40
30.50000000000297
 50
66.848012652912033
 51
71.613525808629817
  0
LINE
  5
6380
  8
0
 10
289.6204633263593
 20
78.942990263381276
 30
0.0
 11
288.77634008872889
 21
78.164265562002143
 31
0.0
  0
LINE
  5
6381
  8
0
 10
288.52400633359531
 20
20.715339919595621
 30
0.0
 11
288.77634008872889
 21
21.835734437997971
 31
0.0
  0
LINE
  5
6382
  8
0
 10
288.77634008872889
 20
78.164265562002186
 30
0.0
 11
288.52400633359531
 21
79.284660080404549
 31
0.0
  0
ARC
  5
6383
  8
0
 10
279.99999999999989
 20
50.000000000001521
 30
0.0
 40
30.50000000000151
 50
281.46339726829029
 51
286.2289104240125
  0
LINE
  5
6384
  8
0
 10
285.31752361551059
 20
20.983212745059362
 30
0.0
 11
286.0616273540017
 21
20.108418010730549
 31
0.0
  0
ARC
  5
6385
  8
0
 10
280.00000000000011
 20
49.999999999996689
 30
0.0
 40
30.500000000003361
 50
73.771089575987517
 51
78.536602731709692
  0
LINE
  5
6386
  8
0
 10
286.0616273540017
 20
79.891581989269596
 30
0.0
 11
285.31752361551059
 21
79.01678725494078
 31
0.0
  0
LINE
  5
6387
  8
0
 10
284.93198102173062
 20
19.90140263731065
 30
0.0
 11
285.31752361551059
 21
20.98321274505933
 31
0.0
  0
LINE
  5
6388
  8
0
 10
285.31752361551059
 20
79.01678725494078
 30
0.0
 11
284.93198102173062
 21
80.098597362689475
 31
0.0
  0
ARC
  5
6389
  8
0
 10
280.00000000000028
 20
50.000000000001663
 30
0.0
 40
30.500000000001609
 50
274.54032034521708
 51
279.30583350093463
  0
LINE
  5
638A
  8
0
 10
281.7811656739579
 20
20.553821150412219
 30
0.0
 11
282.41439920522657
 21
19.59571286022647
 31
0.0
  0
ARC
  5
638B
  8
0
 10
279.99999999999932
 20
49.99999999998856
 30
0.0
 40
30.500000000011539
 50
80.694166499065446
 51
85.459679654782946
  0
LINE
  5
638C
  8
0
 10
282.41439920522657
 20
80.404287139773686
 30
0.0
 11
281.7811656739579
 21
79.446178849587923
 31
0.0
  0
LINE
  5
638D
  8
0
 10
281.26803632071488
 20
19.526370680712361
 30
0.0
 11
281.7811656739579
 21
20.553821150412219
 31
0.0
  0
LINE
  5
638E
  8
0
 10
281.7811656739579
 20
79.446178849587923
 30
0.0
 11
281.26803632071488
 21
80.473629319287753
 31
0.0
  0
ARC
  5
638F
  8
0
 10
280.00000000000091
 20
49.999999999998678
 30
0.0
 40
30.499999999998629
 50
267.61724342213608
 51
272.38275657785738
  0
LINE
  5
6390
  8
0
 10
278.21883432604301
 20
20.553821150412219
 30
0.0
 11
278.73196367928591
 21
19.52637068071239
 31
0.0
  0
ARC
  5
6391
  8
0
 10
280.00000000000028
 20
50.000000000000867
 30
0.0
 40
30.499999999999218
 50
87.617243422136085
 51
92.382756577857378
  0
LINE
  5
6392
  8
0
 10
278.73196367928591
 20
80.473629319287753
 30
0.0
 11
278.2188343260429
 21
79.446178849587923
 31
0.0
  0
LINE
  5
6393
  8
0
 10
277.58560079477422
 20
19.595712860226531
 30
0.0
 11
278.2188343260429
 21
20.553821150412219
 31
0.0
  0
LINE
  5
6394
  8
0
 10
278.21883432604301
 20
79.446178849587923
 30
0.0
 11
277.58560079477422
 21
80.404287139773686
 31
0.0
  0
ARC
  5
6395
  8
0
 10
279.99999999999949
 20
49.999999999997968
 30
0.0
 40
30.49999999999779
 50
260.69416649906537
 51
265.45967965478292
  0
LINE
  5
6396
  8
0
 10
274.6824763844902
 20
20.98321274505933
 30
0.0
 11
275.06801897827017
 21
19.90140263731065
 31
0.0
  0
ARC
  5
6397
  8
0
 10
280.00000000000199
 20
49.999999999988127
 30
0.0
 40
30.500000000012012
 50
94.540320345217069
 51
99.305833500934554
  0
LINE
  5
6398
  8
0
 10
275.06801897827017
 20
80.098597362689432
 30
0.0
 11
274.6824763844902
 21
79.01678725494078
 31
0.0
  0
LINE
  5
6399
  8
0
 10
273.9383726459991
 20
20.108418010730521
 30
0.0
 11
274.6824763844902
 21
20.98321274505933
 31
0.0
  0
LINE
  5
639A
  8
0
 10
274.6824763844902
 20
79.01678725494078
 30
0.0
 11
273.9383726459991
 21
79.891581989269596
 31
0.0
  0
ARC
  5
639B
  8
0
 10
280.00000000000091
 20
50.000000000000981
 30
0.0
 40
30.500000000001041
 50
253.7710895759875
 51
258.536602731703
  0
LINE
  5
639C
  8
0
 10
271.22365991127191
 20
21.835734437997971
 30
0.0
 11
271.47599366640549
 21
20.715339919595621
 31
0.0
  0
ARC
  5
639D
  8
0
 10
280.00000000000131
 20
49.999999999997428
 30
0.0
 40
30.500000000002789
 50
101.4633972682969
 51
106.2289104240125
  0
LINE
  5
639E
  8
0
 10
271.47599366640549
 20
79.284660080404493
 30
0.0
 11
271.22365991127191
 21
78.164265562002143
 31
0.0
  0
LINE
  5
639F
  8
0
 10
270.37953667364138
 20
21.057009736618809
 30
0.0
 11
271.22365991127191
 21
21.835734437997971
 31
0.0
  0
LINE
  5
63A0
  8
0
 10
271.22365991127191
 20
78.164265562002143
 30
0.0
 11
270.37953667364138
 21
78.942990263381333
 31
0.0
  0
ARC
  5
63A1
  8
0
 10
279.99999999999858
 20
49.999999999995232
 30
0.0
 40
30.499999999994859
 50
246.84801265290511
 51
251.61352580862979
  0
LINE
  5
63A2
  8
0
 10
267.8928222391441
 20
23.098954543233429
 30
0.0
 11
268.0082675612752
 21
21.95631348916443
 31
0.0
  0
ARC
  5
63A3
  8
0
 10
280.00000000000011
 20
50.000000000000348
 30
0.0
 40
30.499999999999609
 50
108.3864741913702
 51
113.151987347088
  0
LINE
  5
63A4
  8
0
 10
268.0082675612752
 20
78.043686510835713
 30
0.0
 11
267.8928222391441
 21
76.901045456766738
 31
0.0
  0
LINE
  5
63A5
  8
0
 10
266.9609887199789
 20
22.427655434485381
 30
0.0
 11
267.8928222391441
 21
23.098954543233429
 31
0.0
  0
LINE
  5
63A6
  8
0
 10
267.8928222391441
 20
76.901045456766738
 30
0.0
 11
266.9609887199789
 21
77.572344565514825
 31
0.0
  0
ARC
  5
63A7
  8
0
 10
279.99999999999932
 20
49.999999999998927
 30
0.0
 40
30.499999999998469
 50
239.92493572983429
 51
244.69044888555101
  0
LINE
  5
63A8
  8
0
 10
264.73853448175959
 20
24.754452467107392
 30
0.0
 11
264.71540791813118
 21
23.606227156943628
 31
0.0
  0
ARC
  5
63A9
  8
0
 10
280.00000000000199
 20
49.999999999996831
 30
0.0
 40
30.500000000003642
 50
115.30955111444889
 51
120.0750642701656
  0
LINE
  5
63AA
  8
0
 10
264.71540791813118
 20
76.393772843056482
 30
0.0
 11
264.73853448175947
 21
75.245547532892786
 31
0.0
  0
LINE
  5
63AB
  8
0
 10
263.73257891207533
 20
24.20036800362983
 30
0.0
 11
264.73853448175947
 21
24.754452467107392
 31
0.0
  0
LINE
  5
63AC
  8
0
 10
264.73853448175959
 20
75.245547532892786
 30
0.0
 11
263.73257891207533
 21
75.799631996370309
 31
0.0
  0
ARC
  5
63AD
  8
0
 10
280.0000000000054
 20
50.000000000007489
 30
0.0
 40
30.5000000000089
 50
233.00185880675639
 51
237.76737196247669
  0
LINE
  5
63AE
  8
0
 10
261.80679325745842
 20
26.778087322033102
 30
0.0
 11
261.64543204544492
 21
25.641021466375019
 31
0.0
  0
ARC
  5
63AF
  8
0
 10
279.99999999999483
 20
50.000000000008313
 30
0.0
 40
30.499999999990049
 50
122.2326280375233
 51
126.998141193244
  0
LINE
  5
63B0
  8
0
 10
261.64543204544492
 20
74.358978533625091
 30
0.0
 11
261.80679325745842
 21
73.221912677967012
 31
0.0
  0
LINE
  5
63B1
  8
0
 10
260.74138473467588
 20
26.349297302993151
 30
0.0
 11
261.80679325745842
 21
26.778087322033102
 31
0.0
  0
LINE
  5
63B2
  8
0
 10
261.80679325745842
 20
73.221912677967069
 30
0.0
 11
260.74138473467588
 21
73.650702697006992
 31
0.0
  0
ARC
  5
63B3
  8
0
 10
280.0000000000004
 20
50.000000000000007
 30
0.0
 40
30.499999999999929
 50
226.0787818836786
 51
230.8442950394026
  0
LINE
  5
63B4
  8
0
 10
259.1403499549973
 20
29.140349954996921
 30
0.0
 11
258.84310710442361
 21
28.031024534469349
 31
0.0
  0
ARC
  5
63B5
  8
0
 10
280.00000000000142
 20
49.99999999999811
 30
0.0
 40
30.50000000000216
 50
129.15570496059729
 51
133.9212181163214
  0
LINE
  5
63B6
  8
0
 10
258.8431071044235
 20
71.968975465530846
 30
0.0
 11
259.1403499549973
 21
70.859650045003221
 31
0.0
  0
LINE
  5
63B7
  8
0
 10
258.03102453446962
 20
28.843107104423261
 30
0.0
 11
259.1403499549973
 21
29.140349954996921
 31
0.0
  0
LINE
  5
63B8
  8
0
 10
259.1403499549973
 20
70.859650045003221
 30
0.0
 11
258.03102453446968
 21
71.156892895576917
 31
0.0
  0
ARC
  5
63B9
  8
0
 10
279.99999999999898
 20
49.999999999998622
 30
0.0
 40
30.499999999997989
 50
219.1557049606009
 51
223.92121811631981
  0
LINE
  5
63BA
  8
0
 10
256.7780873220334
 20
31.80679325745804
 30
0.0
 11
256.34929730299348
 21
30.741384734675549
 31
0.0
  0
ARC
  5
63BB
  8
0
 10
279.9999999999942
 20
50.000000000005841
 30
0.0
 40
30.499999999991608
 50
136.07878188368011
 51
140.84429503940029
  0
LINE
  5
63BC
  8
0
 10
256.34929730299348
 20
69.258615265324593
 30
0.0
 11
256.7780873220334
 21
68.193206742542102
 31
0.0
  0
LINE
  5
63BD
  8
0
 10
255.64102146637529
 20
31.645432045444601
 30
0.0
 11
256.7780873220334
 21
31.80679325745804
 31
0.0
  0
LINE
  5
63BE
  8
0
 10
256.7780873220334
 20
68.193206742542102
 30
0.0
 11
255.64102146637529
 21
68.354567954555549
 31
0.0
  0
ARC
  5
63BF
  8
0
 10
279.99999999999608
 20
49.9999999999972
 30
0.0
 40
30.49999999999477
 50
212.2326280375236
 51
216.99814119324751
  0
LINE
  5
63C0
  8
0
 10
254.75445246710771
 20
34.738534481759203
 30
0.0
 11
254.20036800363019
 21
33.732578912074999
 31
0.0
  0
ARC
  5
63C1
  8
0
 10
280.00000000000472
 20
49.999999999996582
 30
0.0
 40
30.500000000005521
 50
143.00185880675241
 51
147.76737196247331
  0
LINE
  5
63C2
  8
0
 10
254.2003680036301
 20
66.267421087925143
 30
0.0
 11
254.75445246710771
 21
65.261465518240939
 31
0.0
  0
LINE
  5
63C3
  8
0
 10
253.6062271569439
 20
34.715407918130907
 30
0.0
 11
254.75445246710771
 21
34.738534481759203
 31
0.0
  0
LINE
  5
63C4
  8
0
 10
254.75445246710771
 20
65.261465518240939
 30
0.0
 11
253.6062271569439
 21
65.284592081869235
 31
0.0
  0
ARC
  5
63C5
  8
0
 10
280.000000000005
 20
50.000000000002572
 30
0.0
 40
30.500000000005208
 50
205.30955111444709
 51
210.07506427017029
  0
LINE
  5
63C6
  8
0
 10
253.09895454323379
 20
37.89282223914374
 30
0.0
 11
252.4276554344857
 21
36.960988719978523
 31
0.0
  0
ARC
  5
63C7
  8
0
 10
279.99999999999682
 20
50.000000000002117
 30
0.0
 40
30.499999999995818
 50
149.9249357298296
 51
154.69044888555439
  0
LINE
  5
63C8
  8
0
 10
252.4276554344857
 20
63.039011280021633
 30
0.0
 11
253.09895454323379
 21
62.107177760856374
 31
0.0
  0
LINE
  5
63C9
  8
0
 10
251.9563134891647
 20
38.008267561274849
 30
0.0
 11
253.09895454323379
 21
37.89282223914374
 31
0.0
  0
LINE
  5
63CA
  8
0
 10
253.09895454323379
 20
62.107177760856374
 30
0.0
 11
251.9563134891647
 21
61.991732438725322
 31
0.0
  0
ARC
  5
63CB
  8
0
 10
280.00000000000227
 20
50.000000000000838
 30
0.0
 40
30.500000000002039
 50
198.38647419137001
 51
203.15198734709199
  0
LINE
  5
63CC
  8
0
 10
251.8357344379983
 20
41.223659911271582
 30
0.0
 11
251.05700973661911
 21
40.379536673641077
 31
0.0
  0
ARC
  5
63CD
  8
0
 10
279.99999999999301
 20
50.000000000002572
 30
0.0
 40
30.499999999992252
 50
156.8480126529052
 51
161.61352580862999
  0
LINE
  5
63CE
  8
0
 10
251.05700973661911
 20
59.620463326359058
 30
0.0
 11
251.8357344379983
 21
58.776340088728531
 31
0.0
  0
LINE
  5
63CF
  8
0
 10
250.71533991959589
 20
41.475993666405131
 30
0.0
 11
251.8357344379983
 21
41.223659911271582
 31
0.0
  0
LINE
  5
63D0
  8
0
 10
251.8357344379983
 20
58.77634008872856
 30
0.0
 11
250.71533991959589
 21
58.524006333594983
 31
0.0
  0
ARC
  5
63D1
  8
0
 10
279.99999999999579
 20
49.999999999998899
 30
0.0
 40
30.499999999995332
 50
191.46339726829271
 51
196.2289104240154
  0
LINE
  5
63D2
  8
0
 10
250.98321274505969
 20
44.682476384489853
 30
0.0
 11
250.1084180107309
 21
43.93837264599874
 31
0.0
  0
ARC
  5
63D3
  8
0
 10
279.99999999999721
 20
50.000000000000888
 30
0.0
 40
30.499999999996689
 50
163.77108957598449
 51
168.5366027317057
  0
LINE
  5
63D4
  8
0
 10
250.1084180107309
 20
56.061627354001402
 30
0.0
 11
250.98321274505969
 21
55.317523615510297
 31
0.0
  0
LINE
  5
63D5
  8
0
 10
249.90140263731101
 20
45.068018978269897
 30
0.0
 11
250.98321274505969
 21
44.682476384489853
 31
0.0
  0
LINE
  5
63D6
  8
0
 10
250.98321274505969
 20
55.317523615510297
 30
0.0
 11
249.90140263731101
 21
54.931981021730238
 31
0.0
  0
ARC
  5
63D7
  8
0
 10
279.99999999999858
 20
49.999999999999702
 30
0.0
 40
30.499999999998149
 50
184.54032034521541
 51
189.30583350093761
  0
LINE
  5
63D8
  8
0
 10
250.55382115041249
 20
48.218834326042632
 30
0.0
 11
249.5957128602268
 21
47.585600794773811
 31
0.0
  0
ARC
  5
63D9
  8
0
 10
280.0000000000004
 20
49.999999999999467
 30
0.0
 40
30.50000000000011
 50
170.6941664990602
 51
175.45967965478289
  0
LINE
  5
63DA
  8
0
 10
249.5957128602268
 20
52.414399205226331
 30
0.0
 11
250.55382115041249
 21
51.781165673957489
 31
0.0
  0
LINE
  5
63DB
  8
0
 10
249.5263706807128
 20
48.731963679285563
 30
0.0
 11
250.55382115041249
 21
48.218834326042632
 31
0.0
  0
LINE
  5
63DC
  8
0
 10
250.55382115041249
 20
51.78116567395751
 30
0.0
 11
249.5263706807128
 21
51.268036320714579
 31
0.0
  0
ARC
  5
63DD
  8
0
 10
279.99999999999119
 20
50.000000000000071
 30
0.0
 40
30.499999999990749
 50
177.6172434221393
 51
182.38275657786059
  0
CIRCLE
  5
63DF
  8
0
 10
279.99999999999881
 20
49.999999999999901
 30
0.0
 40
29.49999999999843
  0
LINE
  5
6428
  8
1
 10
126.5
 20
50.000000000000163
 30
0.0
 11
205.5
 21
50.000000000000171
 31
0.0
  0
LINE
  5
6429
  8
0
 10
161.80000000000001
 20
58.000000000000171
 30
0.0
 11
161.5
 21
58.000000000000171
 31
0.0
  0
LINE
  5
642A
  8
0
 10
161.5
 20
42.000000000000171
 30
0.0
 11
161.80000000000001
 21
42.000000000000171
 31
0.0
  0
LINE
  5
642B
  8
0
 10
162.80000000000001
 20
61.500000000000171
 30
0.0
 11
161.80000000000001
 21
60.500000000000171
 31
0.0
  0
LINE
  5
642C
  8
0
 10
161.80000000000001
 20
39.500000000000171
 30
0.0
 11
162.80000000000001
 21
38.500000000000171
 31
0.0
  0
LINE
  5
642D
  8
0
 10
180.0
 20
61.500000000000171
 30
0.0
 11
162.80000000000001
 21
61.500000000000171
 31
0.0
  0
LINE
  5
642E
  8
0
 10
162.80000000000001
 20
38.500000000000171
 30
0.0
 11
180.0
 21
38.500000000000171
 31
0.0
  0
ARC
  5
642F
  8
0
 10
180.5
 20
22.000000000000171
 30
0.0
 40
0.5000000000000036
 50
180.0
 51
270.0
  0
ARC
  5
6430
  8
0
 10
180.5
 20
78.000000000000171
 30
0.0
 40
0.4999999999999964
 50
90.0
 51
180.0
  0
LINE
  5
6431
  8
0
 10
181.56
 20
78.500000000000171
 30
0.0
 11
180.5
 21
78.500000000000171
 31
0.0
  0
LINE
  5
6432
  8
0
 10
180.5
 20
21.500000000000171
 30
0.0
 11
181.56
 21
21.500000000000171
 31
0.0
  0
LINE
  5
6433
  8
0
 10
200.0
 20
78.500000000000171
 30
0.0
 11
198.94
 21
78.500000000000171
 31
0.0
  0
LINE
  5
6434
  8
0
 10
198.94
 20
21.500000000000171
 30
0.0
 11
200.0
 21
21.500000000000171
 31
0.0
  0
ARC
  5
6435
  8
0
 10
200.0
 20
22.000000000000171
 30
0.0
 40
0.4999999999999893
 50
270.0
 51
0.0
  0
ARC
  5
6436
  8
0
 10
200.0
 20
78.000000000000171
 30
0.0
 40
0.4999999999999929
 50
0.0
 51
90.0
  0
LINE
  5
6437
  8
0
 10
181.56
 20
20.500000000000171
 30
0.0
 11
182.02630765815519
 21
19.499999999999659
 31
0.0
  0
LINE
  5
6438
  8
0
 10
182.02630765815479
 20
80.499999999999659
 30
0.0
 11
181.56
 21
79.500000000000171
 31
0.0
  0
LINE
  5
6439
  8
0
 10
198.94
 20
79.500000000000171
 30
0.0
 11
198.47369234184521
 21
80.499999999999659
 31
0.0
  0
LINE
  5
643A
  8
0
 10
198.4736923418447
 20
19.499999999999659
 30
0.0
 11
198.94
 21
20.500000000000171
 31
0.0
  0
LINE
  5
643B
  8
0
 10
189.672649730812
 20
80.500000000000156
 30
0.0
 11
186.482350269188
 21
80.500000000000156
 31
0.0
  0
LINE
  5
643C
  8
0
 10
186.4823502691911
 20
19.500000000000139
 30
0.0
 11
189.67264973080881
 21
19.500000000000139
 31
0.0
  0
LINE
  5
643D
  8
0
 10
182.0263076581563
 20
19.500000000000139
 30
0.0
 11
185.32764973080879
 21
19.500000000000139
 31
0.0
  0
LINE
  5
643E
  8
0
 10
190.82735026919119
 20
19.500000000000139
 30
0.0
 11
194.01764973080881
 21
19.500000000000139
 31
0.0
  0
LINE
  5
643F
  8
0
 10
195.17235026919121
 20
19.500000000000139
 30
0.0
 11
198.4736923418437
 21
19.500000000000139
 31
0.0
  0
LINE
  5
6440
  8
0
 10
185.327649730812
 20
80.500000000000156
 30
0.0
 11
182.02630765815371
 21
80.500000000000156
 31
0.0
  0
LINE
  5
6441
  8
0
 10
194.017649730812
 20
80.500000000000156
 30
0.0
 11
190.827350269188
 21
80.500000000000156
 31
0.0
  0
LINE
  5
6442
  8
0
 10
198.47369234184629
 20
80.500000000000156
 30
0.0
 11
195.172350269188
 21
80.500000000000156
 31
0.0
  0
LINE
  5
6443
  8
0
 10
194.595
 20
20.500000000000171
 30
0.0
 11
195.17235026918999
 21
19.499999999999488
 31
0.0
  0
LINE
  5
6444
  8
0
 10
195.1723502691892
 20
80.499999999999488
 30
0.0
 11
194.595
 21
79.500000000000171
 31
0.0
  0
LINE
  5
6445
  8
0
 10
194.595
 20
79.500000000000171
 30
0.0
 11
194.01764973081069
 21
80.499999999999488
 31
0.0
  0
LINE
  5
6446
  8
0
 10
194.01764973081001
 20
19.499999999999488
 30
0.0
 11
194.595
 21
20.500000000000171
 31
0.0
  0
LINE
  5
6447
  8
0
 10
190.25
 20
20.500000000000171
 30
0.0
 11
190.82735026918999
 21
19.499999999999488
 31
0.0
  0
LINE
  5
6448
  8
0
 10
190.8273502691892
 20
80.499999999999488
 30
0.0
 11
190.25
 21
79.500000000000171
 31
0.0
  0
LINE
  5
6449
  8
0
 10
190.25
 20
79.500000000000171
 30
0.0
 11
189.6726497308108
 21
80.499999999999488
 31
0.0
  0
LINE
  5
644A
  8
0
 10
189.67264973080989
 20
19.499999999999488
 30
0.0
 11
190.25
 21
20.500000000000171
 31
0.0
  0
LINE
  5
644B
  8
0
 10
185.905
 20
20.500000000000171
 30
0.0
 11
186.48235026918999
 21
19.499999999999488
 31
0.0
  0
LINE
  5
644C
  8
0
 10
186.4823502691892
 20
80.499999999999488
 30
0.0
 11
185.905
 21
79.500000000000171
 31
0.0
  0
LINE
  5
644D
  8
0
 10
185.905
 20
79.500000000000171
 30
0.0
 11
185.32764973081069
 21
80.499999999999488
 31
0.0
  0
LINE
  5
644E
  8
0
 10
185.3276497308099
 20
19.499999999999488
 30
0.0
 11
185.905
 21
20.500000000000171
 31
0.0
  0
LINE
  5
644F
  8
0
 10
161.5
 20
42.000000000000171
 30
0.0
 11
161.5
 21
58.000000000000171
 31
0.0
  0
LINE
  5
6450
  8
0
 10
161.80000000000001
 20
39.500000000000171
 30
0.0
 11
161.80000000000001
 21
60.500000000000171
 31
0.0
  0
LINE
  5
6451
  8
0
 10
162.80000000000001
 20
38.500000000000171
 30
0.0
 11
162.80000000000001
 21
61.500000000000171
 31
0.0
  0
LINE
  5
6452
  8
0
 10
180.0
 20
22.000000000000171
 30
0.0
 11
180.0
 21
78.000000000000171
 31
0.0
  0
LINE
  5
6453
  8
0
 10
180.5
 20
21.500000000000171
 30
0.0
 11
180.5
 21
78.500000000000171
 31
0.0
  0
LINE
  5
6454
  8
0
 10
200.0
 20
21.500000000000171
 30
0.0
 11
200.0
 21
78.500000000000171
 31
0.0
  0
LINE
  5
6455
  8
0
 10
200.5
 20
22.000000000000171
 30
0.0
 11
200.5
 21
78.000000000000171
 31
0.0
  0
LINE
  5
6456
  8
0
 10
181.56
 20
20.500052575691601
 30
0.0
 11
181.56
 21
79.499947424308743
 31
0.0
  0
LINE
  5
6457
  8
0
 10
198.94
 20
20.500052575691601
 30
0.0
 11
198.94
 21
79.499947424308743
 31
0.0
  0
LINE
  5
6458
  8
0
 10
182.02630765815499
 20
19.526370680712521
 30
0.0
 11
181.56
 21
20.55382115041229
 31
0.0
  0
LINE
  5
6459
  8
0
 10
182.02630765815499
 20
19.901402637310749
 30
0.0
 11
181.56
 21
20.983212745059429
 31
0.0
  0
LINE
  5
645A
  8
0
 10
182.02630765815499
 20
20.715339919595721
 30
0.0
 11
181.56
 21
21.83573443799807
 31
0.0
  0
LINE
  5
645B
  8
0
 10
182.02630765815499
 20
21.956313489164529
 30
0.0
 11
181.56
 21
23.098954543233528
 31
0.0
  0
LINE
  5
645C
  8
0
 10
182.02630765815499
 20
23.606227156943731
 30
0.0
 11
181.56
 21
24.754452467107459
 31
0.0
  0
LINE
  5
645D
  8
0
 10
182.02630765815499
 20
25.64102146637515
 30
0.0
 11
181.56
 21
26.778087322033201
 31
0.0
  0
LINE
  5
645E
  8
0
 10
182.02630765815499
 20
28.031024534469449
 30
0.0
 11
181.56
 21
29.140349954997021
 31
0.0
  0
LINE
  5
645F
  8
0
 10
182.02630765815499
 20
30.741384734675648
 30
0.0
 11
181.56
 21
31.806793257458139
 31
0.0
  0
LINE
  5
6460
  8
0
 10
182.02630765815499
 20
33.732578912075098
 30
0.0
 11
181.56
 21
34.738534481759302
 31
0.0
  0
LINE
  5
6461
  8
0
 10
182.02630765815499
 20
36.960988719978623
 30
0.0
 11
181.56
 21
37.89282223914384
 31
0.0
  0
LINE
  5
6462
  8
0
 10
182.02630765815499
 20
40.379536673641176
 30
0.0
 11
181.56
 21
41.223659911271682
 31
0.0
  0
LINE
  5
6463
  8
0
 10
182.02630765815499
 20
43.938372645998832
 30
0.0
 11
181.56
 21
44.682476384489938
 31
0.0
  0
LINE
  5
6464
  8
0
 10
182.02630765815499
 20
47.58560079477391
 30
0.0
 11
181.56
 21
48.218834326042717
 31
0.0
  0
LINE
  5
6465
  8
0
 10
186.4823502691896
 20
52.414399205226431
 30
0.0
 11
189.67264973081029
 21
52.414399205226431
 31
0.0
  0
LINE
  5
6466
  8
0
 10
186.4823502691896
 20
54.931981021730337
 30
0.0
 11
189.67264973081029
 21
54.931981021730337
 31
0.0
  0
LINE
  5
6467
  8
0
 10
186.4823502691896
 20
56.061627354001502
 30
0.0
 11
189.67264973081029
 21
56.061627354001502
 31
0.0
  0
LINE
  5
6468
  8
0
 10
186.4823502691896
 20
58.524006333595082
 30
0.0
 11
189.67264973081029
 21
58.524006333595082
 31
0.0
  0
LINE
  5
6469
  8
0
 10
186.4823502691896
 20
59.620463326359157
 30
0.0
 11
189.67264973081029
 21
59.620463326359157
 31
0.0
  0
LINE
  5
646A
  8
0
 10
186.4823502691896
 20
61.991732438725421
 30
0.0
 11
189.67264973081029
 21
61.991732438725421
 31
0.0
  0
LINE
  5
646B
  8
0
 10
186.4823502691896
 20
63.039011280021732
 30
0.0
 11
189.67264973081041
 21
63.039011280021732
 31
0.0
  0
LINE
  5
646C
  8
0
 10
186.4823502691896
 20
65.284592081869334
 30
0.0
 11
189.67264973081029
 21
65.284592081869334
 31
0.0
  0
LINE
  5
646D
  8
0
 10
186.4823502691896
 20
66.267421087925243
 30
0.0
 11
189.67264973081029
 21
66.267421087925243
 31
0.0
  0
LINE
  5
646E
  8
0
 10
186.4823502691896
 20
68.354567954555648
 30
0.0
 11
189.67264973081029
 21
68.354567954555648
 31
0.0
  0
LINE
  5
646F
  8
0
 10
186.4823502691896
 20
69.258615265324693
 30
0.0
 11
189.67264973081041
 21
69.258615265324693
 31
0.0
  0
LINE
  5
6470
  8
0
 10
186.4823502691896
 20
71.156892895577016
 30
0.0
 11
189.67264973081029
 21
71.156892895577016
 31
0.0
  0
LINE
  5
6471
  8
0
 10
186.4823502691896
 20
71.968975465530875
 30
0.0
 11
189.67264973081029
 21
71.968975465530875
 31
0.0
  0
LINE
  5
6472
  8
0
 10
186.4823502691896
 20
73.650702697007091
 30
0.0
 11
189.67264973081029
 21
73.650702697007091
 31
0.0
  0
LINE
  5
6473
  8
0
 10
186.4823502691896
 20
74.358978533625191
 30
0.0
 11
189.67264973081029
 21
74.358978533625191
 31
0.0
  0
LINE
  5
6474
  8
0
 10
186.4823502691896
 20
75.799631996370408
 30
0.0
 11
189.67264973081029
 21
75.799631996370408
 31
0.0
  0
LINE
  5
6475
  8
0
 10
186.4823502691896
 20
76.393772843056581
 30
0.0
 11
189.67264973081029
 21
76.393772843056581
 31
0.0
  0
LINE
  5
6476
  8
0
 10
186.4823502691896
 20
77.572344565514925
 30
0.0
 11
189.67264973081029
 21
77.572344565514925
 31
0.0
  0
LINE
  5
6477
  8
0
 10
186.4823502691896
 20
78.043686510835812
 30
0.0
 11
189.67264973081029
 21
78.043686510835812
 31
0.0
  0
LINE
  5
6478
  8
0
 10
186.4823502691896
 20
78.942990263381432
 30
0.0
 11
189.67264973081029
 21
78.942990263381432
 31
0.0
  0
LINE
  5
6479
  8
0
 10
186.4823502691896
 20
79.284660080404592
 30
0.0
 11
189.67264973081041
 21
79.284660080404592
 31
0.0
  0
LINE
  5
647A
  8
0
 10
186.4823502691896
 20
79.891581989269696
 30
0.0
 11
189.67264973081029
 21
79.891581989269696
 31
0.0
  0
LINE
  5
647B
  8
0
 10
186.4823502691896
 20
80.098597362689532
 30
0.0
 11
189.67264973081041
 21
80.098597362689532
 31
0.0
  0
LINE
  5
647C
  8
0
 10
186.4823502691896
 20
80.404287139773771
 30
0.0
 11
189.67264973081029
 21
80.404287139773771
 31
0.0
  0
LINE
  5
647D
  8
0
 10
186.4823502691896
 20
80.473629319287866
 30
0.0
 11
189.67264973081029
 21
80.473629319287866
 31
0.0
  0
LINE
  5
647E
  8
0
 10
182.0263076581563
 20
19.500000000000139
 30
0.0
 11
182.0263076581563
 21
19.526370680712521
 31
0.0
  0
LINE
  5
647F
  8
0
 10
182.02630765815499
 20
19.526370680712521
 30
0.0
 11
185.32764973081029
 21
19.526370680712521
 31
0.0
  0
LINE
  5
6480
  8
0
 10
198.4736923418437
 20
19.526370680712521
 30
0.0
 11
198.4736923418437
 21
19.500000000000139
 31
0.0
  0
LINE
  5
6481
  8
0
 10
186.4823502691896
 20
19.526370680712521
 30
0.0
 11
189.67264973081029
 21
19.526370680712521
 31
0.0
  0
LINE
  5
6482
  8
0
 10
190.82735026918959
 20
19.526370680712521
 30
0.0
 11
194.01764973081029
 21
19.526370680712521
 31
0.0
  0
LINE
  5
6483
  8
0
 10
198.94
 20
20.553821150412318
 30
0.0
 11
198.4736923418449
 21
19.526370680712489
 31
0.0
  0
LINE
  5
6484
  8
0
 10
195.17235026918959
 20
19.526370680712521
 30
0.0
 11
198.4736923418449
 21
19.526370680712521
 31
0.0
  0
LINE
  5
6485
  8
0
 10
182.02630765815371
 20
80.473629319287866
 30
0.0
 11
182.02630765815371
 21
80.500000000000156
 31
0.0
  0
LINE
  5
6486
  8
0
 10
198.47369234184629
 20
80.500000000000156
 30
0.0
 11
198.47369234184629
 21
80.473629319287866
 31
0.0
  0
LINE
  5
6487
  8
0
 10
181.56
 20
79.446178849588023
 30
0.0
 11
182.02630765815499
 21
80.473629319287866
 31
0.0
  0
LINE
  5
6488
  8
0
 10
182.02630765815499
 20
80.473629319287866
 30
0.0
 11
185.32764973081029
 21
80.473629319287866
 31
0.0
  0
LINE
  5
6489
  8
0
 10
190.82735026918959
 20
80.473629319287866
 30
0.0
 11
194.01764973081029
 21
80.473629319287866
 31
0.0
  0
LINE
  5
648A
  8
0
 10
195.17235026918959
 20
80.473629319287866
 30
0.0
 11
198.4736923418449
 21
80.473629319287866
 31
0.0
  0
LINE
  5
648B
  8
0
 10
198.4736923418449
 20
80.473629319287866
 30
0.0
 11
198.94
 21
79.446178849588023
 31
0.0
  0
LINE
  5
648C
  8
0
 10
181.56
 20
20.553821150412318
 30
0.0
 11
182.02630765815491
 21
19.59571286022663
 31
0.0
  0
LINE
  5
648D
  8
0
 10
198.47369234184501
 20
19.59571286022663
 30
0.0
 11
198.94
 21
20.553821150412318
 31
0.0
  0
LINE
  5
648E
  8
0
 10
182.02630765815499
 20
80.404287139773771
 30
0.0
 11
181.56
 21
79.446178849588023
 31
0.0
  0
LINE
  5
648F
  8
0
 10
198.94
 20
79.446178849588023
 30
0.0
 11
198.4736923418449
 21
80.404287139773771
 31
0.0
  0
LINE
  5
6490
  8
0
 10
186.4823502691896
 20
19.59571286022663
 30
0.0
 11
189.67264973081041
 21
19.59571286022663
 31
0.0
  0
LINE
  5
6491
  8
0
 10
182.02630765815491
 20
19.59571286022663
 30
0.0
 11
185.32764973081029
 21
19.59571286022663
 31
0.0
  0
LINE
  5
6492
  8
0
 10
182.0263076581542
 20
19.59571286022663
 30
0.0
 11
182.0263076581542
 21
19.901402637310749
 31
0.0
  0
LINE
  5
6493
  8
0
 10
182.02630765815499
 20
19.901402637310749
 30
0.0
 11
185.32764973081029
 21
19.901402637310749
 31
0.0
  0
LINE
  5
6494
  8
0
 10
190.82735026918959
 20
19.59571286022663
 30
0.0
 11
194.01764973081029
 21
19.59571286022663
 31
0.0
  0
LINE
  5
6495
  8
0
 10
198.47369234184569
 20
19.901402637310749
 30
0.0
 11
198.47369234184569
 21
19.59571286022663
 31
0.0
  0
LINE
  5
6496
  8
0
 10
195.17235026918959
 20
19.59571286022663
 30
0.0
 11
198.47369234184501
 21
19.59571286022663
 31
0.0
  0
LINE
  5
6497
  8
0
 10
186.4823502691896
 20
19.901402637310749
 30
0.0
 11
189.67264973081029
 21
19.901402637310749
 31
0.0
  0
LINE
  5
6498
  8
0
 10
190.82735026918959
 20
19.901402637310749
 30
0.0
 11
194.01764973081029
 21
19.901402637310749
 31
0.0
  0
LINE
  5
6499
  8
0
 10
198.94
 20
20.983212745059429
 30
0.0
 11
198.4736923418449
 21
19.901402637310749
 31
0.0
  0
LINE
  5
649A
  8
0
 10
195.17235026918959
 20
19.901402637310749
 30
0.0
 11
198.4736923418449
 21
19.901402637310749
 31
0.0
  0
LINE
  5
649B
  8
0
 10
182.02630765815411
 20
80.098597362689532
 30
0.0
 11
182.02630765815411
 21
80.404287139773771
 31
0.0
  0
LINE
  5
649C
  8
0
 10
182.02630765815499
 20
80.404287139773771
 30
0.0
 11
185.32764973081029
 21
80.404287139773771
 31
0.0
  0
LINE
  5
649D
  8
0
 10
190.82735026918959
 20
80.404287139773771
 30
0.0
 11
194.01764973081029
 21
80.404287139773771
 31
0.0
  0
LINE
  5
649E
  8
0
 10
195.17235026918959
 20
80.404287139773771
 30
0.0
 11
198.4736923418449
 21
80.404287139773771
 31
0.0
  0
LINE
  5
649F
  8
0
 10
198.4736923418458
 20
80.404287139773771
 30
0.0
 11
198.4736923418458
 21
80.098597362689532
 31
0.0
  0
LINE
  5
64A0
  8
0
 10
181.56
 20
79.01678725494088
 30
0.0
 11
182.02630765815499
 21
80.098597362689532
 31
0.0
  0
LINE
  5
64A1
  8
0
 10
182.02630765815499
 20
80.098597362689532
 30
0.0
 11
185.32764973081029
 21
80.098597362689532
 31
0.0
  0
LINE
  5
64A2
  8
0
 10
190.82735026918959
 20
80.098597362689532
 30
0.0
 11
194.01764973081029
 21
80.098597362689532
 31
0.0
  0
LINE
  5
64A3
  8
0
 10
195.17235026918959
 20
80.098597362689532
 30
0.0
 11
198.4736923418449
 21
80.098597362689532
 31
0.0
  0
LINE
  5
64A4
  8
0
 10
198.4736923418449
 20
80.098597362689532
 30
0.0
 11
198.94
 21
79.01678725494088
 31
0.0
  0
LINE
  5
64A5
  8
0
 10
181.56
 20
20.983212745059429
 30
0.0
 11
182.02630765815499
 21
20.10841801073062
 31
0.0
  0
LINE
  5
64A6
  8
0
 10
198.4736923418449
 20
20.10841801073062
 30
0.0
 11
198.94
 21
20.983212745059429
 31
0.0
  0
LINE
  5
64A7
  8
0
 10
182.02630765815499
 20
79.891581989269696
 30
0.0
 11
181.56
 21
79.01678725494088
 31
0.0
  0
LINE
  5
64A8
  8
0
 10
198.94
 20
79.01678725494088
 30
0.0
 11
198.4736923418449
 21
79.891581989269696
 31
0.0
  0
LINE
  5
64A9
  8
0
 10
186.4823502691896
 20
20.10841801073062
 30
0.0
 11
189.67264973081029
 21
20.10841801073062
 31
0.0
  0
LINE
  5
64AA
  8
0
 10
182.02630765815499
 20
20.10841801073062
 30
0.0
 11
185.32764973081029
 21
20.10841801073062
 31
0.0
  0
LINE
  5
64AB
  8
0
 10
182.02630765815471
 20
20.10841801073062
 30
0.0
 11
182.02630765815471
 21
20.715339919595721
 31
0.0
  0
LINE
  5
64AC
  8
0
 10
182.02630765815499
 20
20.715339919595721
 30
0.0
 11
185.32764973081029
 21
20.715339919595721
 31
0.0
  0
LINE
  5
64AD
  8
0
 10
190.82735026918959
 20
20.10841801073062
 30
0.0
 11
194.01764973081029
 21
20.10841801073062
 31
0.0
  0
LINE
  5
64AE
  8
0
 10
198.47369234184521
 20
20.715339919595721
 30
0.0
 11
198.47369234184521
 21
20.10841801073062
 31
0.0
  0
LINE
  5
64AF
  8
0
 10
195.17235026918971
 20
20.10841801073062
 30
0.0
 11
198.4736923418449
 21
20.10841801073062
 31
0.0
  0
LINE
  5
64B0
  8
0
 10
186.4823502691896
 20
20.715339919595721
 30
0.0
 11
189.67264973081029
 21
20.715339919595721
 31
0.0
  0
LINE
  5
64B1
  8
0
 10
190.82735026918959
 20
20.715339919595721
 30
0.0
 11
194.01764973081029
 21
20.715339919595721
 31
0.0
  0
LINE
  5
64B2
  8
0
 10
198.94
 20
21.83573443799807
 30
0.0
 11
198.4736923418449
 21
20.715339919595721
 31
0.0
  0
LINE
  5
64B3
  8
0
 10
195.17235026918959
 20
20.715339919595721
 30
0.0
 11
198.4736923418449
 21
20.715339919595721
 31
0.0
  0
LINE
  5
64B4
  8
0
 10
182.02630765815579
 20
79.284660080404592
 30
0.0
 11
182.02630765815579
 21
79.891581989269696
 31
0.0
  0
LINE
  5
64B5
  8
0
 10
182.02630765815499
 20
79.891581989269696
 30
0.0
 11
185.32764973081029
 21
79.891581989269696
 31
0.0
  0
LINE
  5
64B6
  8
0
 10
190.82735026918959
 20
79.891581989269696
 30
0.0
 11
194.01764973081029
 21
79.891581989269696
 31
0.0
  0
LINE
  5
64B7
  8
0
 10
195.17235026918959
 20
79.891581989269696
 30
0.0
 11
198.4736923418449
 21
79.891581989269696
 31
0.0
  0
LINE
  5
64B8
  8
0
 10
198.47369234184421
 20
79.891581989269696
 30
0.0
 11
198.47369234184421
 21
79.284660080404592
 31
0.0
  0
LINE
  5
64B9
  8
0
 10
181.56
 20
78.164265562002299
 30
0.0
 11
182.02630765815491
 21
79.284660080404592
 31
0.0
  0
LINE
  5
64BA
  8
0
 10
182.02630765815491
 20
79.284660080404592
 30
0.0
 11
185.32764973081029
 21
79.284660080404592
 31
0.0
  0
LINE
  5
64BB
  8
0
 10
190.82735026918959
 20
79.284660080404592
 30
0.0
 11
194.01764973081029
 21
79.284660080404592
 31
0.0
  0
LINE
  5
64BC
  8
0
 10
195.17235026918959
 20
79.284660080404592
 30
0.0
 11
198.4736923418449
 21
79.284660080404592
 31
0.0
  0
LINE
  5
64BD
  8
0
 10
198.4736923418449
 20
79.284660080404592
 30
0.0
 11
198.94
 21
78.164265562002242
 31
0.0
  0
LINE
  5
64BE
  8
0
 10
181.56
 20
21.83573443799807
 30
0.0
 11
182.02630765815499
 21
21.057009736618909
 31
0.0
  0
LINE
  5
64BF
  8
0
 10
198.4736923418449
 20
21.057009736618909
 30
0.0
 11
198.94
 21
21.83573443799807
 31
0.0
  0
LINE
  5
64C0
  8
0
 10
182.02630765815499
 20
78.942990263381432
 30
0.0
 11
181.56
 21
78.164265562002242
 31
0.0
  0
LINE
  5
64C1
  8
0
 10
198.94
 20
78.164265562002242
 30
0.0
 11
198.4736923418449
 21
78.942990263381432
 31
0.0
  0
LINE
  5
64C2
  8
0
 10
186.4823502691896
 20
21.057009736618909
 30
0.0
 11
189.67264973081029
 21
21.057009736618909
 31
0.0
  0
LINE
  5
64C3
  8
0
 10
182.02630765815499
 20
21.057009736618909
 30
0.0
 11
185.32764973081029
 21
21.057009736618909
 31
0.0
  0
LINE
  5
64C4
  8
0
 10
182.02630765815269
 20
21.057009736618909
 30
0.0
 11
182.02630765815269
 21
21.956313489164529
 31
0.0
  0
LINE
  5
64C5
  8
0
 10
182.02630765815499
 20
21.956313489164529
 30
0.0
 11
185.32764973081029
 21
21.956313489164529
 31
0.0
  0
LINE
  5
64C6
  8
0
 10
190.82735026918959
 20
21.057009736618909
 30
0.0
 11
194.01764973081029
 21
21.057009736618909
 31
0.0
  0
LINE
  5
64C7
  8
0
 10
198.4736923418472
 20
21.956313489164529
 30
0.0
 11
198.4736923418472
 21
21.057009736618909
 31
0.0
  0
LINE
  5
64C8
  8
0
 10
195.17235026918959
 20
21.057009736618909
 30
0.0
 11
198.4736923418449
 21
21.057009736618909
 31
0.0
  0
LINE
  5
64C9
  8
0
 10
186.4823502691896
 20
21.956313489164529
 30
0.0
 11
189.67264973081029
 21
21.956313489164529
 31
0.0
  0
LINE
  5
64CA
  8
0
 10
190.82735026918959
 20
21.956313489164529
 30
0.0
 11
194.01764973081029
 21
21.956313489164529
 31
0.0
  0
LINE
  5
64CB
  8
0
 10
198.94
 20
23.098954543233528
 30
0.0
 11
198.4736923418449
 21
21.956313489164529
 31
0.0
  0
LINE
  5
64CC
  8
0
 10
195.17235026918959
 20
21.956313489164529
 30
0.0
 11
198.4736923418449
 21
21.956313489164529
 31
0.0
  0
LINE
  5
64CD
  8
0
 10
182.02630765815451
 20
78.043686510835812
 30
0.0
 11
182.02630765815451
 21
78.942990263381432
 31
0.0
  0
LINE
  5
64CE
  8
0
 10
182.02630765815499
 20
78.942990263381432
 30
0.0
 11
185.32764973081029
 21
78.942990263381432
 31
0.0
  0
LINE
  5
64CF
  8
0
 10
190.82735026918959
 20
78.942990263381432
 30
0.0
 11
194.01764973081029
 21
78.942990263381432
 31
0.0
  0
LINE
  5
64D0
  8
0
 10
195.17235026918959
 20
78.942990263381432
 30
0.0
 11
198.4736923418449
 21
78.942990263381432
 31
0.0
  0
LINE
  5
64D1
  8
0
 10
198.47369234184549
 20
78.942990263381432
 30
0.0
 11
198.47369234184549
 21
78.043686510835812
 31
0.0
  0
LINE
  5
64D2
  8
0
 10
181.56
 20
76.901045456766838
 30
0.0
 11
182.02630765815499
 21
78.043686510835812
 31
0.0
  0
LINE
  5
64D3
  8
0
 10
182.02630765815499
 20
78.043686510835812
 30
0.0
 11
185.32764973081029
 21
78.043686510835812
 31
0.0
  0
LINE
  5
64D4
  8
0
 10
190.82735026918959
 20
78.043686510835812
 30
0.0
 11
194.01764973081029
 21
78.043686510835812
 31
0.0
  0
LINE
  5
64D5
  8
0
 10
195.17235026918959
 20
78.043686510835812
 30
0.0
 11
198.4736923418449
 21
78.043686510835812
 31
0.0
  0
LINE
  5
64D6
  8
0
 10
198.4736923418449
 20
78.043686510835812
 30
0.0
 11
198.94
 21
76.901045456766838
 31
0.0
  0
LINE
  5
64D7
  8
0
 10
181.56
 20
23.098954543233528
 30
0.0
 11
182.02630765815491
 21
22.427655434485452
 31
0.0
  0
LINE
  5
64D8
  8
0
 10
198.4736923418449
 20
22.427655434485469
 30
0.0
 11
198.94
 21
23.098954543233528
 31
0.0
  0
LINE
  5
64D9
  8
0
 10
182.02630765815499
 20
77.572344565514925
 30
0.0
 11
181.56
 21
76.901045456766838
 31
0.0
  0
LINE
  5
64DA
  8
0
 10
198.94
 20
76.901045456766838
 30
0.0
 11
198.4736923418449
 21
77.572344565514925
 31
0.0
  0
LINE
  5
64DB
  8
0
 10
186.4823502691896
 20
22.427655434485452
 30
0.0
 11
189.67264973081041
 21
22.427655434485452
 31
0.0
  0
LINE
  5
64DC
  8
0
 10
182.02630765815491
 20
22.427655434485452
 30
0.0
 11
185.32764973081029
 21
22.427655434485452
 31
0.0
  0
LINE
  5
64DD
  8
0
 10
182.02630765815331
 20
22.427655434485452
 30
0.0
 11
182.02630765815331
 21
23.606227156943731
 31
0.0
  0
LINE
  5
64DE
  8
0
 10
182.02630765815499
 20
23.606227156943731
 30
0.0
 11
185.32764973081029
 21
23.606227156943731
 31
0.0
  0
LINE
  5
64DF
  8
0
 10
190.82735026918959
 20
22.427655434485452
 30
0.0
 11
194.01764973081029
 21
22.427655434485452
 31
0.0
  0
LINE
  5
64E0
  8
0
 10
198.4736923418466
 20
23.606227156943731
 30
0.0
 11
198.4736923418466
 21
22.427655434485452
 31
0.0
  0
LINE
  5
64E1
  8
0
 10
195.17235026918959
 20
22.427655434485452
 30
0.0
 11
198.4736923418449
 21
22.427655434485452
 31
0.0
  0
LINE
  5
64E2
  8
0
 10
186.4823502691896
 20
23.606227156943731
 30
0.0
 11
189.67264973081029
 21
23.606227156943731
 31
0.0
  0
LINE
  5
64E3
  8
0
 10
190.82735026918959
 20
23.606227156943731
 30
0.0
 11
194.01764973081029
 21
23.606227156943731
 31
0.0
  0
LINE
  5
64E4
  8
0
 10
198.94
 20
24.75445246710748
 30
0.0
 11
198.4736923418449
 21
23.606227156943731
 31
0.0
  0
LINE
  5
64E5
  8
0
 10
195.17235026918959
 20
23.606227156943731
 30
0.0
 11
198.4736923418449
 21
23.606227156943731
 31
0.0
  0
LINE
  5
64E6
  8
0
 10
182.0263076581567
 20
76.393772843056581
 30
0.0
 11
182.0263076581567
 21
77.572344565514925
 31
0.0
  0
LINE
  5
64E7
  8
0
 10
182.02630765815499
 20
77.572344565514925
 30
0.0
 11
185.32764973081029
 21
77.572344565514925
 31
0.0
  0
LINE
  5
64E8
  8
0
 10
190.82735026918959
 20
77.572344565514925
 30
0.0
 11
194.01764973081029
 21
77.572344565514925
 31
0.0
  0
LINE
  5
64E9
  8
0
 10
195.17235026918959
 20
77.572344565514925
 30
0.0
 11
198.4736923418449
 21
77.572344565514925
 31
0.0
  0
LINE
  5
64EA
  8
0
 10
198.47369234184319
 20
77.572344565514925
 30
0.0
 11
198.47369234184319
 21
76.393772843056581
 31
0.0
  0
LINE
  5
64EB
  8
0
 10
181.56
 20
75.245547532892829
 30
0.0
 11
182.02630765815499
 21
76.393772843056581
 31
0.0
  0
LINE
  5
64EC
  8
0
 10
182.02630765815499
 20
76.393772843056581
 30
0.0
 11
185.32764973081029
 21
76.393772843056581
 31
0.0
  0
LINE
  5
64ED
  8
0
 10
190.82735026918959
 20
76.393772843056581
 30
0.0
 11
194.01764973081029
 21
76.393772843056581
 31
0.0
  0
LINE
  5
64EE
  8
0
 10
195.17235026918959
 20
76.393772843056581
 30
0.0
 11
198.4736923418449
 21
76.393772843056581
 31
0.0
  0
LINE
  5
64EF
  8
0
 10
198.4736923418449
 20
76.393772843056581
 30
0.0
 11
198.94
 21
75.245547532892886
 31
0.0
  0
LINE
  5
64F0
  8
0
 10
181.56
 20
24.75445246710748
 30
0.0
 11
182.02630765815499
 21
24.200368003629929
 31
0.0
  0
LINE
  5
64F1
  8
0
 10
198.4736923418449
 20
24.200368003629929
 30
0.0
 11
198.94
 21
24.75445246710748
 31
0.0
  0
LINE
  5
64F2
  8
0
 10
182.02630765815499
 20
75.799631996370408
 30
0.0
 11
181.56
 21
75.245547532892886
 31
0.0
  0
LINE
  5
64F3
  8
0
 10
198.94
 20
75.245547532892886
 30
0.0
 11
198.4736923418449
 21
75.799631996370408
 31
0.0
  0
LINE
  5
64F4
  8
0
 10
186.4823502691896
 20
24.200368003629929
 30
0.0
 11
189.67264973081029
 21
24.200368003629929
 31
0.0
  0
LINE
  5
64F5
  8
0
 10
182.02630765815499
 20
24.200368003629929
 30
0.0
 11
185.32764973081029
 21
24.200368003629929
 31
0.0
  0
LINE
  5
64F6
  8
0
 10
182.0263076581559
 20
24.200368003629961
 30
0.0
 11
182.0263076581559
 21
25.641021466375118
 31
0.0
  0
LINE
  5
64F7
  8
0
 10
182.02630765815499
 20
25.641021466375118
 30
0.0
 11
185.32764973081029
 21
25.641021466375118
 31
0.0
  0
LINE
  5
64F8
  8
0
 10
190.82735026918959
 20
24.200368003629929
 30
0.0
 11
194.01764973081029
 21
24.200368003629929
 31
0.0
  0
LINE
  5
64F9
  8
0
 10
198.47369234184401
 20
25.641021466375118
 30
0.0
 11
198.47369234184401
 21
24.200368003629961
 31
0.0
  0
LINE
  5
64FA
  8
0
 10
195.17235026918959
 20
24.200368003629929
 30
0.0
 11
198.4736923418449
 21
24.200368003629929
 31
0.0
  0
LINE
  5
64FB
  8
0
 10
186.4823502691896
 20
25.641021466375118
 30
0.0
 11
189.67264973081029
 21
25.641021466375118
 31
0.0
  0
LINE
  5
64FC
  8
0
 10
190.82735026918959
 20
25.641021466375118
 30
0.0
 11
194.01764973081029
 21
25.641021466375118
 31
0.0
  0
LINE
  5
64FD
  8
0
 10
198.94
 20
26.778087322033201
 30
0.0
 11
198.4736923418449
 21
25.641021466375118
 31
0.0
  0
LINE
  5
64FE
  8
0
 10
195.17235026918959
 20
25.641021466375118
 30
0.0
 11
198.4736923418449
 21
25.641021466375118
 31
0.0
  0
LINE
  5
64FF
  8
0
 10
182.02630765815479
 20
74.358978533625191
 30
0.0
 11
182.02630765815479
 21
75.799631996370408
 31
0.0
  0
LINE
  5
6500
  8
0
 10
182.02630765815499
 20
75.799631996370408
 30
0.0
 11
185.32764973081029
 21
75.799631996370408
 31
0.0
  0
LINE
  5
6501
  8
0
 10
190.82735026918959
 20
75.799631996370408
 30
0.0
 11
194.01764973081029
 21
75.799631996370408
 31
0.0
  0
LINE
  5
6502
  8
0
 10
195.17235026918959
 20
75.799631996370408
 30
0.0
 11
198.4736923418449
 21
75.799631996370408
 31
0.0
  0
LINE
  5
6503
  8
0
 10
198.47369234184509
 20
75.799631996370408
 30
0.0
 11
198.47369234184509
 21
74.358978533625191
 31
0.0
  0
LINE
  5
6504
  8
0
 10
181.56
 20
73.221912677967111
 30
0.0
 11
182.02630765815499
 21
74.358978533625191
 31
0.0
  0
LINE
  5
6505
  8
0
 10
182.02630765815499
 20
74.358978533625191
 30
0.0
 11
185.32764973081029
 21
74.358978533625191
 31
0.0
  0
LINE
  5
6506
  8
0
 10
190.82735026918959
 20
74.358978533625191
 30
0.0
 11
194.01764973081029
 21
74.358978533625191
 31
0.0
  0
LINE
  5
6507
  8
0
 10
195.17235026918959
 20
74.358978533625191
 30
0.0
 11
198.4736923418449
 21
74.358978533625191
 31
0.0
  0
LINE
  5
6508
  8
0
 10
198.4736923418449
 20
74.358978533625191
 30
0.0
 11
198.94
 21
73.221912677967111
 31
0.0
  0
LINE
  5
6509
  8
0
 10
181.56
 20
26.778087322033201
 30
0.0
 11
182.02630765815499
 21
26.34929730299325
 31
0.0
  0
LINE
  5
650A
  8
0
 10
198.4736923418449
 20
26.34929730299325
 30
0.0
 11
198.94
 21
26.778087322033201
 31
0.0
  0
LINE
  5
650B
  8
0
 10
182.02630765815499
 20
73.650702697007091
 30
0.0
 11
181.56
 21
73.221912677967168
 31
0.0
  0
LINE
  5
650C
  8
0
 10
198.94
 20
73.221912677967168
 30
0.0
 11
198.4736923418449
 21
73.650702697007091
 31
0.0
  0
LINE
  5
650D
  8
0
 10
186.4823502691896
 20
26.34929730299325
 30
0.0
 11
189.67264973081029
 21
26.34929730299325
 31
0.0
  0
LINE
  5
650E
  8
0
 10
182.02630765815499
 20
26.34929730299325
 30
0.0
 11
185.32764973081029
 21
26.34929730299325
 31
0.0
  0
LINE
  5
650F
  8
0
 10
182.02630765815391
 20
26.34929730299325
 30
0.0
 11
182.02630765815391
 21
28.031024534469449
 31
0.0
  0
LINE
  5
6510
  8
0
 10
182.02630765815499
 20
28.031024534469449
 30
0.0
 11
185.32764973081029
 21
28.031024534469449
 31
0.0
  0
LINE
  5
6511
  8
0
 10
190.82735026918959
 20
26.34929730299325
 30
0.0
 11
194.01764973081029
 21
26.34929730299325
 31
0.0
  0
LINE
  5
6512
  8
0
 10
198.473692341846
 20
28.031024534469449
 30
0.0
 11
198.473692341846
 21
26.34929730299325
 31
0.0
  0
LINE
  5
6513
  8
0
 10
195.17235026918959
 20
26.34929730299325
 30
0.0
 11
198.4736923418449
 21
26.34929730299325
 31
0.0
  0
LINE
  5
6514
  8
0
 10
186.4823502691896
 20
28.031024534469449
 30
0.0
 11
189.67264973081029
 21
28.031024534469449
 31
0.0
  0
LINE
  5
6515
  8
0
 10
190.82735026918959
 20
28.031024534469449
 30
0.0
 11
194.01764973081029
 21
28.031024534469449
 31
0.0
  0
LINE
  5
6516
  8
0
 10
198.94
 20
29.140349954997021
 30
0.0
 11
198.4736923418449
 21
28.031024534469449
 31
0.0
  0
LINE
  5
6517
  8
0
 10
195.17235026918959
 20
28.031024534469449
 30
0.0
 11
198.4736923418449
 21
28.031024534469449
 31
0.0
  0
LINE
  5
6518
  8
0
 10
182.02630765815499
 20
71.968975465530946
 30
0.0
 11
182.02630765815499
 21
73.650702697007091
 31
0.0
  0
LINE
  5
6519
  8
0
 10
182.02630765815499
 20
73.650702697007091
 30
0.0
 11
185.32764973081029
 21
73.650702697007091
 31
0.0
  0
LINE
  5
651A
  8
0
 10
190.82735026918959
 20
73.650702697007091
 30
0.0
 11
194.01764973081029
 21
73.650702697007091
 31
0.0
  0
LINE
  5
651B
  8
0
 10
195.17235026918959
 20
73.650702697007091
 30
0.0
 11
198.4736923418449
 21
73.650702697007091
 31
0.0
  0
LINE
  5
651C
  8
0
 10
198.4736923418449
 20
73.650702697007091
 30
0.0
 11
198.4736923418449
 21
71.968975465530946
 31
0.0
  0
LINE
  5
651D
  8
0
 10
181.56
 20
70.85965004500332
 30
0.0
 11
182.02630765815499
 21
71.968975465530875
 31
0.0
  0
LINE
  5
651E
  8
0
 10
182.02630765815499
 20
71.968975465530875
 30
0.0
 11
185.32764973081029
 21
71.968975465530875
 31
0.0
  0
LINE
  5
651F
  8
0
 10
190.82735026918959
 20
71.968975465530875
 30
0.0
 11
194.01764973081029
 21
71.968975465530875
 31
0.0
  0
LINE
  5
6520
  8
0
 10
195.17235026918971
 20
71.968975465530875
 30
0.0
 11
198.4736923418449
 21
71.968975465530875
 31
0.0
  0
LINE
  5
6521
  8
0
 10
198.4736923418449
 20
71.968975465530946
 30
0.0
 11
198.94
 21
70.85965004500332
 31
0.0
  0
LINE
  5
6522
  8
0
 10
181.56
 20
29.140349954997021
 30
0.0
 11
182.02630765815499
 21
28.843107104423328
 31
0.0
  0
LINE
  5
6523
  8
0
 10
198.4736923418449
 20
28.84310710442335
 30
0.0
 11
198.94
 21
29.140349954997021
 31
0.0
  0
LINE
  5
6524
  8
0
 10
182.02630765815499
 20
71.156892895577016
 30
0.0
 11
181.56
 21
70.85965004500332
 31
0.0
  0
LINE
  5
6525
  8
0
 10
198.94
 20
70.85965004500332
 30
0.0
 11
198.4736923418449
 21
71.156892895577016
 31
0.0
  0
LINE
  5
6526
  8
0
 10
186.4823502691896
 20
28.843107104423328
 30
0.0
 11
189.67264973081029
 21
28.843107104423328
 31
0.0
  0
LINE
  5
6527
  8
0
 10
182.02630765815499
 20
28.843107104423328
 30
0.0
 11
185.32764973081029
 21
28.843107104423328
 31
0.0
  0
LINE
  5
6528
  8
0
 10
182.0263076581553
 20
28.843107104423328
 30
0.0
 11
182.0263076581553
 21
30.741384734675648
 31
0.0
  0
LINE
  5
6529
  8
0
 10
182.02630765815499
 20
30.741384734675648
 30
0.0
 11
185.32764973081029
 21
30.741384734675648
 31
0.0
  0
LINE
  5
652A
  8
0
 10
190.82735026918959
 20
28.843107104423328
 30
0.0
 11
194.01764973081029
 21
28.843107104423328
 31
0.0
  0
LINE
  5
652B
  8
0
 10
198.47369234184461
 20
30.741384734675648
 30
0.0
 11
198.47369234184461
 21
28.84310710442335
 31
0.0
  0
LINE
  5
652C
  8
0
 10
195.17235026918959
 20
28.843107104423328
 30
0.0
 11
198.4736923418449
 21
28.843107104423328
 31
0.0
  0
LINE
  5
652D
  8
0
 10
186.4823502691896
 20
30.741384734675648
 30
0.0
 11
189.67264973081029
 21
30.741384734675648
 31
0.0
  0
LINE
  5
652E
  8
0
 10
190.82735026918959
 20
30.741384734675648
 30
0.0
 11
194.01764973081029
 21
30.741384734675648
 31
0.0
  0
LINE
  5
652F
  8
0
 10
198.94
 20
31.806793257458139
 30
0.0
 11
198.4736923418449
 21
30.741384734675648
 31
0.0
  0
LINE
  5
6530
  8
0
 10
195.17235026918959
 20
30.741384734675648
 30
0.0
 11
198.4736923418449
 21
30.741384734675648
 31
0.0
  0
LINE
  5
6531
  8
0
 10
182.0263076581509
 20
69.258615265324636
 30
0.0
 11
182.0263076581509
 21
71.156892895577016
 31
0.0
  0
LINE
  5
6532
  8
0
 10
182.02630765815499
 20
71.156892895577016
 30
0.0
 11
185.32764973081029
 21
71.156892895577016
 31
0.0
  0
LINE
  5
6533
  8
0
 10
190.82735026918959
 20
71.156892895577016
 30
0.0
 11
194.01764973081029
 21
71.156892895577016
 31
0.0
  0
LINE
  5
6534
  8
0
 10
195.17235026918959
 20
71.156892895577016
 30
0.0
 11
198.4736923418449
 21
71.156892895577016
 31
0.0
  0
LINE
  5
6535
  8
0
 10
198.47369234184899
 20
71.156892895577016
 30
0.0
 11
198.47369234184899
 21
69.258615265324636
 31
0.0
  0
LINE
  5
6536
  8
0
 10
181.56
 20
68.193206742542202
 30
0.0
 11
182.02630765815491
 21
69.258615265324693
 31
0.0
  0
LINE
  5
6537
  8
0
 10
182.02630765815491
 20
69.258615265324693
 30
0.0
 11
185.32764973081029
 21
69.258615265324693
 31
0.0
  0
LINE
  5
6538
  8
0
 10
190.82735026918959
 20
69.258615265324693
 30
0.0
 11
194.01764973081029
 21
69.258615265324693
 31
0.0
  0
LINE
  5
6539
  8
0
 10
195.17235026918959
 20
69.258615265324693
 30
0.0
 11
198.4736923418449
 21
69.258615265324693
 31
0.0
  0
LINE
  5
653A
  8
0
 10
198.4736923418449
 20
69.258615265324693
 30
0.0
 11
198.94
 21
68.193206742542202
 31
0.0
  0
LINE
  5
653B
  8
0
 10
181.56
 20
31.806793257458139
 30
0.0
 11
182.02630765815499
 21
31.645432045444689
 31
0.0
  0
LINE
  5
653C
  8
0
 10
198.4736923418449
 20
31.645432045444689
 30
0.0
 11
198.94
 21
31.806793257458139
 31
0.0
  0
LINE
  5
653D
  8
0
 10
182.02630765815499
 20
68.354567954555648
 30
0.0
 11
181.56
 21
68.193206742542202
 31
0.0
  0
LINE
  5
653E
  8
0
 10
198.94
 20
68.193206742542202
 30
0.0
 11
198.4736923418449
 21
68.354567954555648
 31
0.0
  0
LINE
  5
653F
  8
0
 10
186.4823502691896
 20
31.645432045444689
 30
0.0
 11
189.67264973081029
 21
31.645432045444689
 31
0.0
  0
LINE
  5
6540
  8
0
 10
182.02630765815499
 20
31.645432045444689
 30
0.0
 11
185.32764973081029
 21
31.645432045444689
 31
0.0
  0
LINE
  5
6541
  8
0
 10
182.0263076581542
 20
31.645432045444689
 30
0.0
 11
182.0263076581542
 21
33.732578912075098
 31
0.0
  0
LINE
  5
6542
  8
0
 10
182.02630765815499
 20
33.732578912075098
 30
0.0
 11
185.32764973081029
 21
33.732578912075098
 31
0.0
  0
LINE
  5
6543
  8
0
 10
190.82735026918959
 20
31.645432045444689
 30
0.0
 11
194.01764973081029
 21
31.645432045444689
 31
0.0
  0
LINE
  5
6544
  8
0
 10
198.47369234184569
 20
33.732578912075098
 30
0.0
 11
198.47369234184569
 21
31.645432045444689
 31
0.0
  0
LINE
  5
6545
  8
0
 10
195.17235026918959
 20
31.645432045444689
 30
0.0
 11
198.4736923418449
 21
31.645432045444689
 31
0.0
  0
LINE
  5
6546
  8
0
 10
186.4823502691896
 20
33.732578912075098
 30
0.0
 11
189.67264973081029
 21
33.732578912075098
 31
0.0
  0
LINE
  5
6547
  8
0
 10
190.82735026918959
 20
33.732578912075098
 30
0.0
 11
194.01764973081029
 21
33.732578912075098
 31
0.0
  0
LINE
  5
6548
  8
0
 10
198.94
 20
34.738534481759302
 30
0.0
 11
198.4736923418449
 21
33.732578912075098
 31
0.0
  0
LINE
  5
6549
  8
0
 10
195.17235026918959
 20
33.732578912075098
 30
0.0
 11
198.4736923418449
 21
33.732578912075098
 31
0.0
  0
LINE
  5
654A
  8
0
 10
182.0263076581555
 20
66.267421087925243
 30
0.0
 11
182.0263076581555
 21
68.354567954555648
 31
0.0
  0
LINE
  5
654B
  8
0
 10
182.02630765815499
 20
68.354567954555648
 30
0.0
 11
185.32764973081029
 21
68.354567954555648
 31
0.0
  0
LINE
  5
654C
  8
0
 10
190.82735026918959
 20
68.354567954555648
 30
0.0
 11
194.01764973081029
 21
68.354567954555648
 31
0.0
  0
LINE
  5
654D
  8
0
 10
195.17235026918959
 20
68.354567954555648
 30
0.0
 11
198.4736923418449
 21
68.354567954555648
 31
0.0
  0
LINE
  5
654E
  8
0
 10
198.4736923418445
 20
68.354567954555648
 30
0.0
 11
198.4736923418445
 21
66.267421087925243
 31
0.0
  0
LINE
  5
654F
  8
0
 10
181.56
 20
65.261465518241039
 30
0.0
 11
182.02630765815499
 21
66.267421087925243
 31
0.0
  0
LINE
  5
6550
  8
0
 10
182.02630765815499
 20
66.267421087925243
 30
0.0
 11
185.32764973081029
 21
66.267421087925243
 31
0.0
  0
LINE
  5
6551
  8
0
 10
190.82735026918959
 20
66.267421087925243
 30
0.0
 11
194.01764973081029
 21
66.267421087925243
 31
0.0
  0
LINE
  5
6552
  8
0
 10
195.17235026918971
 20
66.267421087925243
 30
0.0
 11
198.4736923418449
 21
66.267421087925243
 31
0.0
  0
LINE
  5
6553
  8
0
 10
198.4736923418449
 20
66.267421087925243
 30
0.0
 11
198.94
 21
65.261465518241039
 31
0.0
  0
LINE
  5
6554
  8
0
 10
181.56
 20
34.738534481759302
 30
0.0
 11
182.02630765815491
 21
34.715407918131007
 31
0.0
  0
LINE
  5
6555
  8
0
 10
198.4736923418449
 20
34.715407918131007
 30
0.0
 11
198.94
 21
34.738534481759302
 31
0.0
  0
LINE
  5
6556
  8
0
 10
182.02630765815499
 20
65.284592081869334
 30
0.0
 11
181.56
 21
65.261465518241039
 31
0.0
  0
LINE
  5
6557
  8
0
 10
198.94
 20
65.261465518241039
 30
0.0
 11
198.4736923418449
 21
65.284592081869334
 31
0.0
  0
LINE
  5
6558
  8
0
 10
186.4823502691896
 20
34.715407918131007
 30
0.0
 11
189.67264973081029
 21
34.715407918131007
 31
0.0
  0
LINE
  5
6559
  8
0
 10
182.02630765815499
 20
34.715407918131007
 30
0.0
 11
185.32764973081029
 21
34.715407918131007
 31
0.0
  0
LINE
  5
655A
  8
0
 10
182.02630765815749
 20
34.715407918131007
 30
0.0
 11
182.02630765815749
 21
36.960988719978623
 31
0.0
  0
LINE
  5
655B
  8
0
 10
182.02630765815499
 20
36.960988719978623
 30
0.0
 11
185.32764973081029
 21
36.960988719978623
 31
0.0
  0
LINE
  5
655C
  8
0
 10
190.82735026918959
 20
34.715407918131007
 30
0.0
 11
194.01764973081029
 21
34.715407918131007
 31
0.0
  0
LINE
  5
655D
  8
0
 10
198.47369234184251
 20
36.960988719978623
 30
0.0
 11
198.47369234184251
 21
34.715407918131007
 31
0.0
  0
LINE
  5
655E
  8
0
 10
195.17235026918959
 20
34.715407918131007
 30
0.0
 11
198.4736923418449
 21
34.715407918131007
 31
0.0
  0
LINE
  5
655F
  8
0
 10
186.4823502691896
 20
36.960988719978623
 30
0.0
 11
189.67264973081029
 21
36.960988719978623
 31
0.0
  0
LINE
  5
6560
  8
0
 10
190.82735026918959
 20
36.960988719978623
 30
0.0
 11
194.01764973081029
 21
36.960988719978623
 31
0.0
  0
LINE
  5
6561
  8
0
 10
198.94
 20
37.89282223914384
 30
0.0
 11
198.4736923418449
 21
36.960988719978623
 31
0.0
  0
LINE
  5
6562
  8
0
 10
195.17235026918959
 20
36.960988719978623
 30
0.0
 11
198.4736923418449
 21
36.960988719978623
 31
0.0
  0
LINE
  5
6563
  8
0
 10
182.02630765815479
 20
63.039011280021732
 30
0.0
 11
182.02630765815479
 21
65.284592081869334
 31
0.0
  0
LINE
  5
6564
  8
0
 10
182.02630765815499
 20
65.284592081869334
 30
0.0
 11
185.32764973081029
 21
65.284592081869334
 31
0.0
  0
LINE
  5
6565
  8
0
 10
190.82735026918959
 20
65.284592081869334
 30
0.0
 11
194.01764973081029
 21
65.284592081869334
 31
0.0
  0
LINE
  5
6566
  8
0
 10
195.17235026918959
 20
65.284592081869334
 30
0.0
 11
198.4736923418449
 21
65.284592081869334
 31
0.0
  0
LINE
  5
6567
  8
0
 10
198.47369234184521
 20
65.284592081869334
 30
0.0
 11
198.47369234184521
 21
63.039011280021732
 31
0.0
  0
LINE
  5
6568
  8
0
 10
181.56
 20
62.10717776085648
 30
0.0
 11
182.02630765815491
 21
63.039011280021732
 31
0.0
  0
LINE
  5
6569
  8
0
 10
182.02630765815491
 20
63.039011280021732
 30
0.0
 11
185.32764973081029
 21
63.039011280021732
 31
0.0
  0
LINE
  5
656A
  8
0
 10
190.82735026918959
 20
63.039011280021732
 30
0.0
 11
194.01764973081029
 21
63.039011280021732
 31
0.0
  0
LINE
  5
656B
  8
0
 10
195.17235026918959
 20
63.039011280021732
 30
0.0
 11
198.4736923418449
 21
63.039011280021732
 31
0.0
  0
LINE
  5
656C
  8
0
 10
198.4736923418449
 20
63.039011280021732
 30
0.0
 11
198.94
 21
62.10717776085648
 31
0.0
  0
LINE
  5
656D
  8
0
 10
181.56
 20
37.89282223914384
 30
0.0
 11
182.02630765815499
 21
38.008267561274948
 31
0.0
  0
LINE
  5
656E
  8
0
 10
198.4736923418449
 20
38.008267561274948
 30
0.0
 11
198.94
 21
37.89282223914384
 31
0.0
  0
LINE
  5
656F
  8
0
 10
181.56
 20
37.89282223914384
 30
0.0
 11
198.94
 21
37.89282223914384
 31
0.0
  0
LINE
  5
6570
  8
0
 10
182.02630765815499
 20
61.991732438725421
 30
0.0
 11
181.56
 21
62.10717776085648
 31
0.0
  0
LINE
  5
6571
  8
0
 10
181.56
 20
62.10717776085648
 30
0.0
 11
198.94
 21
62.10717776085648
 31
0.0
  0
LINE
  5
6572
  8
0
 10
198.94
 20
62.10717776085648
 30
0.0
 11
198.4736923418449
 21
61.991732438725421
 31
0.0
  0
LINE
  5
6573
  8
0
 10
186.4823502691896
 20
38.008267561274948
 30
0.0
 11
189.67264973081029
 21
38.008267561274948
 31
0.0
  0
LINE
  5
6574
  8
0
 10
182.02630765815499
 20
38.008267561274948
 30
0.0
 11
185.32764973081029
 21
38.008267561274948
 31
0.0
  0
LINE
  5
6575
  8
0
 10
182.02630765815681
 20
38.008267561274948
 30
0.0
 11
182.02630765815681
 21
40.379536673641176
 31
0.0
  0
LINE
  5
6576
  8
0
 10
182.02630765815499
 20
40.379536673641176
 30
0.0
 11
185.32764973081029
 21
40.379536673641176
 31
0.0
  0
LINE
  5
6577
  8
0
 10
190.82735026918959
 20
38.008267561274948
 30
0.0
 11
194.01764973081029
 21
38.008267561274948
 31
0.0
  0
LINE
  5
6578
  8
0
 10
198.47369234184319
 20
40.379536673641176
 30
0.0
 11
198.47369234184319
 21
38.008267561274948
 31
0.0
  0
LINE
  5
6579
  8
0
 10
195.17235026918959
 20
38.008267561274948
 30
0.0
 11
198.4736923418449
 21
38.008267561274948
 31
0.0
  0
LINE
  5
657A
  8
0
 10
186.4823502691896
 20
40.379536673641176
 30
0.0
 11
189.67264973081029
 21
40.379536673641176
 31
0.0
  0
LINE
  5
657B
  8
0
 10
190.82735026918959
 20
40.379536673641176
 30
0.0
 11
194.01764973081029
 21
40.379536673641176
 31
0.0
  0
LINE
  5
657C
  8
0
 10
198.94
 20
41.223659911271682
 30
0.0
 11
198.4736923418449
 21
40.379536673641176
 31
0.0
  0
LINE
  5
657D
  8
0
 10
195.17235026918959
 20
40.379536673641176
 30
0.0
 11
198.4736923418449
 21
40.379536673641176
 31
0.0
  0
LINE
  5
657E
  8
0
 10
182.02630765815451
 20
59.620463326359157
 30
0.0
 11
182.02630765815451
 21
61.991732438725421
 31
0.0
  0
LINE
  5
657F
  8
0
 10
182.02630765815499
 20
61.991732438725421
 30
0.0
 11
185.32764973081029
 21
61.991732438725421
 31
0.0
  0
LINE
  5
6580
  8
0
 10
190.82735026918959
 20
61.991732438725421
 30
0.0
 11
194.01764973081029
 21
61.991732438725421
 31
0.0
  0
LINE
  5
6581
  8
0
 10
195.17235026918959
 20
61.991732438725421
 30
0.0
 11
198.4736923418449
 21
61.991732438725421
 31
0.0
  0
LINE
  5
6582
  8
0
 10
198.47369234184549
 20
61.991732438725421
 30
0.0
 11
198.47369234184549
 21
59.620463326359157
 31
0.0
  0
LINE
  5
6583
  8
0
 10
181.56
 20
58.776340088728631
 30
0.0
 11
182.02630765815499
 21
59.620463326359157
 31
0.0
  0
LINE
  5
6584
  8
0
 10
182.02630765815499
 20
59.620463326359157
 30
0.0
 11
185.32764973081029
 21
59.620463326359157
 31
0.0
  0
LINE
  5
6585
  8
0
 10
190.82735026918959
 20
59.620463326359157
 30
0.0
 11
194.01764973081029
 21
59.620463326359157
 31
0.0
  0
LINE
  5
6586
  8
0
 10
195.17235026918959
 20
59.620463326359157
 30
0.0
 11
198.4736923418449
 21
59.620463326359157
 31
0.0
  0
LINE
  5
6587
  8
0
 10
198.4736923418449
 20
59.620463326359157
 30
0.0
 11
198.94
 21
58.776340088728631
 31
0.0
  0
LINE
  5
6588
  8
0
 10
181.56
 20
41.223659911271682
 30
0.0
 11
182.02630765815499
 21
41.475993666405223
 31
0.0
  0
LINE
  5
6589
  8
0
 10
198.4736923418449
 20
41.475993666405223
 30
0.0
 11
198.94
 21
41.223659911271682
 31
0.0
  0
LINE
  5
658A
  8
0
 10
181.56
 20
41.223659911271682
 30
0.0
 11
198.94
 21
41.223659911271682
 31
0.0
  0
LINE
  5
658B
  8
0
 10
182.02630765815499
 20
58.524006333595082
 30
0.0
 11
181.56
 21
58.776340088728659
 31
0.0
  0
LINE
  5
658C
  8
0
 10
181.56
 20
58.776340088728659
 30
0.0
 11
198.94
 21
58.776340088728659
 31
0.0
  0
LINE
  5
658D
  8
0
 10
198.94
 20
58.776340088728659
 30
0.0
 11
198.4736923418449
 21
58.524006333595082
 31
0.0
  0
LINE
  5
658E
  8
0
 10
186.4823502691896
 20
41.475993666405223
 30
0.0
 11
189.67264973081029
 21
41.475993666405223
 31
0.0
  0
LINE
  5
658F
  8
0
 10
182.02630765815499
 20
41.475993666405223
 30
0.0
 11
185.32764973081029
 21
41.475993666405223
 31
0.0
  0
LINE
  5
6590
  8
0
 10
182.026307658154
 20
41.475993666405223
 30
0.0
 11
182.026307658154
 21
43.938372645998832
 31
0.0
  0
LINE
  5
6591
  8
0
 10
182.02630765815499
 20
43.938372645998832
 30
0.0
 11
185.32764973081029
 21
43.938372645998832
 31
0.0
  0
LINE
  5
6592
  8
0
 10
190.82735026918959
 20
41.475993666405223
 30
0.0
 11
194.01764973081029
 21
41.475993666405223
 31
0.0
  0
LINE
  5
6593
  8
0
 10
198.47369234184589
 20
43.938372645998832
 30
0.0
 11
198.47369234184589
 21
41.475993666405223
 31
0.0
  0
LINE
  5
6594
  8
0
 10
195.17235026918959
 20
41.475993666405223
 30
0.0
 11
198.4736923418449
 21
41.475993666405223
 31
0.0
  0
LINE
  5
6595
  8
0
 10
186.4823502691896
 20
43.938372645998832
 30
0.0
 11
189.67264973081029
 21
43.938372645998832
 31
0.0
  0
LINE
  5
6596
  8
0
 10
190.82735026918959
 20
43.938372645998832
 30
0.0
 11
194.01764973081029
 21
43.938372645998832
 31
0.0
  0
LINE
  5
6597
  8
0
 10
198.94
 20
44.682476384489938
 30
0.0
 11
198.4736923418449
 21
43.938372645998832
 31
0.0
  0
LINE
  5
6598
  8
0
 10
195.17235026918959
 20
43.938372645998832
 30
0.0
 11
198.4736923418449
 21
43.938372645998832
 31
0.0
  0
LINE
  5
6599
  8
0
 10
182.02630765815391
 20
56.061627354001502
 30
0.0
 11
182.02630765815391
 21
58.524006333595082
 31
0.0
  0
LINE
  5
659A
  8
0
 10
182.02630765815499
 20
58.524006333595082
 30
0.0
 11
185.32764973081029
 21
58.524006333595082
 31
0.0
  0
LINE
  5
659B
  8
0
 10
190.82735026918959
 20
58.524006333595082
 30
0.0
 11
194.01764973081029
 21
58.524006333595082
 31
0.0
  0
LINE
  5
659C
  8
0
 10
195.17235026918959
 20
58.524006333595082
 30
0.0
 11
198.4736923418449
 21
58.524006333595082
 31
0.0
  0
LINE
  5
659D
  8
0
 10
198.473692341846
 20
58.524006333595082
 30
0.0
 11
198.473692341846
 21
56.061627354001502
 31
0.0
  0
LINE
  5
659E
  8
0
 10
181.56
 20
55.317523615510389
 30
0.0
 11
182.02630765815499
 21
56.061627354001502
 31
0.0
  0
LINE
  5
659F
  8
0
 10
182.02630765815499
 20
56.061627354001502
 30
0.0
 11
185.32764973081029
 21
56.061627354001502
 31
0.0
  0
LINE
  5
65A0
  8
0
 10
190.82735026918959
 20
56.061627354001502
 30
0.0
 11
194.01764973081029
 21
56.061627354001502
 31
0.0
  0
LINE
  5
65A1
  8
0
 10
195.17235026918959
 20
56.061627354001502
 30
0.0
 11
198.4736923418449
 21
56.061627354001502
 31
0.0
  0
LINE
  5
65A2
  8
0
 10
198.4736923418449
 20
56.061627354001502
 30
0.0
 11
198.94
 21
55.317523615510389
 31
0.0
  0
LINE
  5
65A3
  8
0
 10
181.56
 20
44.682476384489938
 30
0.0
 11
182.02630765815499
 21
45.068018978269997
 31
0.0
  0
LINE
  5
65A4
  8
0
 10
198.4736923418449
 20
45.068018978269997
 30
0.0
 11
198.94
 21
44.682476384489938
 31
0.0
  0
LINE
  5
65A5
  8
0
 10
181.56
 20
44.682476384489938
 30
0.0
 11
198.94
 21
44.682476384489938
 31
0.0
  0
LINE
  5
65A6
  8
0
 10
182.02630765815499
 20
54.931981021730337
 30
0.0
 11
181.56
 21
55.317523615510389
 31
0.0
  0
LINE
  5
65A7
  8
0
 10
181.56
 20
55.317523615510389
 30
0.0
 11
198.94
 21
55.317523615510389
 31
0.0
  0
LINE
  5
65A8
  8
0
 10
198.94
 20
55.317523615510389
 30
0.0
 11
198.4736923418449
 21
54.931981021730337
 31
0.0
  0
LINE
  5
65A9
  8
0
 10
186.4823502691896
 20
45.068018978269997
 30
0.0
 11
189.67264973081029
 21
45.068018978269997
 31
0.0
  0
LINE
  5
65AA
  8
0
 10
182.02630765815499
 20
45.068018978269997
 30
0.0
 11
185.32764973081029
 21
45.068018978269997
 31
0.0
  0
LINE
  5
65AB
  8
0
 10
182.0263076581563
 20
45.068018978269997
 30
0.0
 11
182.0263076581563
 21
47.58560079477391
 31
0.0
  0
LINE
  5
65AC
  8
0
 10
182.02630765815499
 20
47.58560079477391
 30
0.0
 11
185.32764973081029
 21
47.58560079477391
 31
0.0
  0
LINE
  5
65AD
  8
0
 10
190.82735026918959
 20
45.068018978269997
 30
0.0
 11
194.01764973081029
 21
45.068018978269997
 31
0.0
  0
LINE
  5
65AE
  8
0
 10
198.4736923418437
 20
47.58560079477391
 30
0.0
 11
198.4736923418437
 21
45.068018978269997
 31
0.0
  0
LINE
  5
65AF
  8
0
 10
195.17235026918959
 20
45.068018978269997
 30
0.0
 11
198.4736923418449
 21
45.068018978269997
 31
0.0
  0
LINE
  5
65B0
  8
0
 10
186.4823502691896
 20
47.58560079477391
 30
0.0
 11
189.67264973081029
 21
47.58560079477391
 31
0.0
  0
LINE
  5
65B1
  8
0
 10
190.82735026918959
 20
47.58560079477391
 30
0.0
 11
194.01764973081029
 21
47.58560079477391
 31
0.0
  0
LINE
  5
65B2
  8
0
 10
198.94
 20
48.218834326042717
 30
0.0
 11
198.4736923418449
 21
47.58560079477391
 31
0.0
  0
LINE
  5
65B3
  8
0
 10
195.17235026918959
 20
47.58560079477391
 30
0.0
 11
198.4736923418449
 21
47.58560079477391
 31
0.0
  0
LINE
  5
65B4
  8
0
 10
182.02630765815371
 20
52.414399205226431
 30
0.0
 11
182.02630765815371
 21
54.931981021730337
 31
0.0
  0
LINE
  5
65B5
  8
0
 10
182.02630765815499
 20
54.931981021730337
 30
0.0
 11
185.32764973081029
 21
54.931981021730337
 31
0.0
  0
LINE
  5
65B6
  8
0
 10
190.82735026918959
 20
54.931981021730337
 30
0.0
 11
194.01764973081029
 21
54.931981021730337
 31
0.0
  0
LINE
  5
65B7
  8
0
 10
195.17235026918959
 20
54.931981021730337
 30
0.0
 11
198.4736923418449
 21
54.931981021730337
 31
0.0
  0
LINE
  5
65B8
  8
0
 10
198.47369234184629
 20
54.931981021730337
 30
0.0
 11
198.47369234184629
 21
52.414399205226431
 31
0.0
  0
LINE
  5
65B9
  8
0
 10
181.56
 20
51.781165673957581
 30
0.0
 11
182.02630765815499
 21
52.414399205226431
 31
0.0
  0
LINE
  5
65BA
  8
0
 10
182.02630765815499
 20
52.414399205226431
 30
0.0
 11
185.32764973081029
 21
52.414399205226431
 31
0.0
  0
LINE
  5
65BB
  8
0
 10
190.82735026918959
 20
52.414399205226431
 30
0.0
 11
194.01764973081029
 21
52.414399205226431
 31
0.0
  0
LINE
  5
65BC
  8
0
 10
195.17235026918971
 20
52.414399205226431
 30
0.0
 11
198.4736923418449
 21
52.414399205226431
 31
0.0
  0
LINE
  5
65BD
  8
0
 10
198.4736923418449
 20
52.414399205226431
 30
0.0
 11
198.94
 21
51.781165673957581
 31
0.0
  0
LINE
  5
65BE
  8
0
 10
181.56
 20
48.218834326042717
 30
0.0
 11
182.02630765815499
 21
48.731963679285649
 31
0.0
  0
LINE
  5
65BF
  8
0
 10
198.4736923418449
 20
48.731963679285649
 30
0.0
 11
198.94
 21
48.218834326042717
 31
0.0
  0
LINE
  5
65C0
  8
0
 10
181.56
 20
48.218834326042717
 30
0.0
 11
198.94
 21
48.218834326042717
 31
0.0
  0
LINE
  5
65C1
  8
0
 10
182.02630765815499
 20
51.268036320714678
 30
0.0
 11
181.56
 21
51.781165673957609
 31
0.0
  0
LINE
  5
65C2
  8
0
 10
181.56
 20
51.781165673957609
 30
0.0
 11
198.94
 21
51.781165673957609
 31
0.0
  0
LINE
  5
65C3
  8
0
 10
198.94
 20
51.781165673957609
 30
0.0
 11
198.4736923418449
 21
51.268036320714678
 31
0.0
  0
LINE
  5
65C4
  8
0
 10
186.4823502691896
 20
51.268036320714678
 30
0.0
 11
189.67264973081029
 21
51.268036320714678
 31
0.0
  0
LINE
  5
65C5
  8
0
 10
186.4823502691896
 20
48.731963679285649
 30
0.0
 11
189.67264973081029
 21
48.731963679285649
 31
0.0
  0
LINE
  5
65C6
  8
0
 10
182.02630765815499
 20
48.731963679285649
 30
0.0
 11
185.32764973081029
 21
48.731963679285649
 31
0.0
  0
LINE
  5
65C7
  8
0
 10
182.02630765815249
 20
48.731963679285649
 30
0.0
 11
182.02630765815249
 21
51.268036320714678
 31
0.0
  0
LINE
  5
65C8
  8
0
 10
182.02630765815499
 20
51.268036320714678
 30
0.0
 11
185.32764973081029
 21
51.268036320714678
 31
0.0
  0
LINE
  5
65C9
  8
0
 10
190.82735026918959
 20
51.268036320714678
 30
0.0
 11
194.01764973081029
 21
51.268036320714678
 31
0.0
  0
LINE
  5
65CA
  8
0
 10
190.82735026918959
 20
48.731963679285649
 30
0.0
 11
194.01764973081029
 21
48.731963679285649
 31
0.0
  0
LINE
  5
65CB
  8
0
 10
195.17235026918959
 20
51.268036320714678
 30
0.0
 11
198.4736923418449
 21
51.268036320714678
 31
0.0
  0
LINE
  5
65CC
  8
0
 10
198.4736923418474
 20
51.268036320714678
 30
0.0
 11
198.4736923418474
 21
48.731963679285649
 31
0.0
  0
LINE
  5
65CD
  8
0
 10
195.17235026918959
 20
48.731963679285649
 30
0.0
 11
198.4736923418449
 21
48.731963679285649
 31
0.0
  0
LINE
  5
65CE
  8
0
 10
195.17235026919121
 20
19.526370680712521
 30
0.0
 11
195.17235026919121
 21
19.500000000000139
 31
0.0
  0
LINE
  5
65CF
  8
0
 10
194.595
 20
20.553821150412318
 30
0.0
 11
195.17235026918959
 21
19.526370680712521
 31
0.0
  0
LINE
  5
65D0
  8
0
 10
195.17235026918871
 20
19.901402637310749
 30
0.0
 11
195.17235026918871
 21
19.59571286022663
 31
0.0
  0
LINE
  5
65D1
  8
0
 10
195.17235026918959
 20
19.59571286022663
 30
0.0
 11
194.595
 21
20.55382115041229
 31
0.0
  0
LINE
  5
65D2
  8
0
 10
194.595
 20
20.983212745059429
 30
0.0
 11
195.17235026918959
 21
19.901402637310749
 31
0.0
  0
LINE
  5
65D3
  8
0
 10
195.17235026918931
 20
20.715339919595721
 30
0.0
 11
195.17235026918931
 21
20.10841801073062
 31
0.0
  0
LINE
  5
65D4
  8
0
 10
195.17235026918971
 20
20.10841801073062
 30
0.0
 11
194.595
 21
20.983212745059429
 31
0.0
  0
LINE
  5
65D5
  8
0
 10
194.595
 20
21.83573443799807
 30
0.0
 11
195.17235026918959
 21
20.715339919595721
 31
0.0
  0
LINE
  5
65D6
  8
0
 10
195.17235026918689
 20
21.956313489164529
 30
0.0
 11
195.17235026918689
 21
21.057009736618909
 31
0.0
  0
LINE
  5
65D7
  8
0
 10
195.17235026918959
 20
21.057009736618909
 30
0.0
 11
194.595
 21
21.83573443799807
 31
0.0
  0
LINE
  5
65D8
  8
0
 10
194.595
 20
23.0989545432335
 30
0.0
 11
195.17235026918959
 21
21.956313489164529
 31
0.0
  0
LINE
  5
65D9
  8
0
 10
195.17235026918749
 20
23.606227156943731
 30
0.0
 11
195.17235026918749
 21
22.427655434485452
 31
0.0
  0
LINE
  5
65DA
  8
0
 10
195.17235026918959
 20
22.427655434485452
 30
0.0
 11
194.595
 21
23.098954543233528
 31
0.0
  0
LINE
  5
65DB
  8
0
 10
194.595
 20
24.754452467107459
 30
0.0
 11
195.17235026918959
 21
23.606227156943731
 31
0.0
  0
LINE
  5
65DC
  8
0
 10
195.1723502691907
 20
25.641021466375118
 30
0.0
 11
195.1723502691907
 21
24.200368003629961
 31
0.0
  0
LINE
  5
65DD
  8
0
 10
195.17235026918959
 20
24.200368003629929
 30
0.0
 11
194.595
 21
24.754452467107459
 31
0.0
  0
LINE
  5
65DE
  8
0
 10
194.595
 20
26.778087322033201
 30
0.0
 11
195.17235026918959
 21
25.641021466375118
 31
0.0
  0
LINE
  5
65DF
  8
0
 10
195.1723502691882
 20
28.031024534469449
 30
0.0
 11
195.1723502691882
 21
26.34929730299325
 31
0.0
  0
LINE
  5
65E0
  8
0
 10
195.17235026918959
 20
26.34929730299325
 30
0.0
 11
194.595
 21
26.778087322033201
 31
0.0
  0
LINE
  5
65E1
  8
0
 10
194.595
 20
29.140349954997021
 30
0.0
 11
195.17235026918959
 21
28.031024534469449
 31
0.0
  0
LINE
  5
65E2
  8
0
 10
195.17235026918999
 20
30.741384734675648
 30
0.0
 11
195.17235026918999
 21
28.843107104423328
 31
0.0
  0
LINE
  5
65E3
  8
0
 10
195.17235026918959
 20
28.843107104423328
 30
0.0
 11
194.595
 21
29.140349954997021
 31
0.0
  0
LINE
  5
65E4
  8
0
 10
194.595
 20
31.806793257458139
 30
0.0
 11
195.17235026918959
 21
30.741384734675648
 31
0.0
  0
LINE
  5
65E5
  8
0
 10
195.1723502691886
 20
33.732578912075098
 30
0.0
 11
195.1723502691886
 21
31.645432045444689
 31
0.0
  0
LINE
  5
65E6
  8
0
 10
195.17235026918959
 20
31.645432045444689
 30
0.0
 11
194.595
 21
31.806793257458139
 31
0.0
  0
LINE
  5
65E7
  8
0
 10
194.595
 20
34.738534481759302
 30
0.0
 11
195.17235026918959
 21
33.732578912075098
 31
0.0
  0
LINE
  5
65E8
  8
0
 10
195.17235026919269
 20
36.960988719978623
 30
0.0
 11
195.17235026919269
 21
34.715407918131007
 31
0.0
  0
LINE
  5
65E9
  8
0
 10
195.17235026918959
 20
34.715407918131007
 30
0.0
 11
194.595
 21
34.738534481759302
 31
0.0
  0
LINE
  5
65EA
  8
0
 10
194.595
 20
37.89282223914384
 30
0.0
 11
195.17235026918959
 21
36.960988719978623
 31
0.0
  0
LINE
  5
65EB
  8
0
 10
195.17235026919181
 20
40.379536673641176
 30
0.0
 11
195.17235026919181
 21
38.008267561274948
 31
0.0
  0
LINE
  5
65EC
  8
0
 10
195.17235026918959
 20
38.008267561274948
 30
0.0
 11
194.595
 21
37.89282223914384
 31
0.0
  0
LINE
  5
65ED
  8
0
 10
194.595
 20
41.223659911271682
 30
0.0
 11
195.17235026918959
 21
40.379536673641176
 31
0.0
  0
LINE
  5
65EE
  8
0
 10
195.17235026918851
 20
43.938372645998832
 30
0.0
 11
195.17235026918851
 21
41.475993666405223
 31
0.0
  0
LINE
  5
65EF
  8
0
 10
195.17235026918959
 20
41.475993666405223
 30
0.0
 11
194.595
 21
41.223659911271682
 31
0.0
  0
LINE
  5
65F0
  8
0
 10
194.595
 20
44.682476384489938
 30
0.0
 11
195.17235026918959
 21
43.938372645998832
 31
0.0
  0
LINE
  5
65F1
  8
0
 10
195.17235026919121
 20
47.58560079477391
 30
0.0
 11
195.17235026919121
 21
45.068018978269997
 31
0.0
  0
LINE
  5
65F2
  8
0
 10
195.17235026918959
 20
45.068018978269997
 30
0.0
 11
194.595
 21
44.682476384489938
 31
0.0
  0
LINE
  5
65F3
  8
0
 10
194.595
 20
48.218834326042717
 30
0.0
 11
195.17235026918959
 21
47.58560079477391
 31
0.0
  0
LINE
  5
65F4
  8
0
 10
195.17235026918661
 20
51.268036320714678
 30
0.0
 11
195.17235026918661
 21
48.731963679285649
 31
0.0
  0
LINE
  5
65F5
  8
0
 10
195.17235026918959
 20
48.731963679285649
 30
0.0
 11
194.595
 21
48.218834326042717
 31
0.0
  0
LINE
  5
65F6
  8
0
 10
194.595
 20
51.781165673957609
 30
0.0
 11
195.17235026918959
 21
51.268036320714678
 31
0.0
  0
LINE
  5
65F7
  8
0
 10
194.595
 20
55.317523615510389
 30
0.0
 11
195.17235026918959
 21
54.931981021730337
 31
0.0
  0
LINE
  5
65F8
  8
0
 10
195.172350269188
 20
54.931981021730337
 30
0.0
 11
195.172350269188
 21
52.414399205226431
 31
0.0
  0
LINE
  5
65F9
  8
0
 10
195.17235026918971
 20
52.414399205226431
 30
0.0
 11
194.595
 21
51.781165673957581
 31
0.0
  0
LINE
  5
65FA
  8
0
 10
194.595
 20
58.776340088728659
 30
0.0
 11
195.17235026918959
 21
58.524006333595082
 31
0.0
  0
LINE
  5
65FB
  8
0
 10
195.17235026918831
 20
58.524006333595082
 30
0.0
 11
195.17235026918831
 21
56.061627354001502
 31
0.0
  0
LINE
  5
65FC
  8
0
 10
195.17235026918959
 20
56.061627354001502
 30
0.0
 11
194.595
 21
55.317523615510389
 31
0.0
  0
LINE
  5
65FD
  8
0
 10
194.595
 20
62.10717776085648
 30
0.0
 11
195.17235026918959
 21
61.991732438725421
 31
0.0
  0
LINE
  5
65FE
  8
0
 10
195.172350269189
 20
61.991732438725421
 30
0.0
 11
195.172350269189
 21
59.620463326359157
 31
0.0
  0
LINE
  5
65FF
  8
0
 10
195.17235026918959
 20
59.620463326359157
 30
0.0
 11
194.595
 21
58.776340088728659
 31
0.0
  0
LINE
  5
6600
  8
0
 10
194.595
 20
65.261465518241039
 30
0.0
 11
195.17235026918959
 21
65.284592081869334
 31
0.0
  0
LINE
  5
6601
  8
0
 10
195.17235026918939
 20
65.284592081869334
 30
0.0
 11
195.17235026918939
 21
63.039011280021732
 31
0.0
  0
LINE
  5
6602
  8
0
 10
195.17235026918959
 20
63.039011280021732
 30
0.0
 11
194.595
 21
62.10717776085648
 31
0.0
  0
LINE
  5
6603
  8
0
 10
194.595
 20
68.193206742542202
 30
0.0
 11
195.17235026918959
 21
68.354567954555648
 31
0.0
  0
LINE
  5
6604
  8
0
 10
195.17235026919019
 20
68.354567954555648
 30
0.0
 11
195.17235026919019
 21
66.267421087925243
 31
0.0
  0
LINE
  5
6605
  8
0
 10
195.17235026918971
 20
66.267421087925243
 30
0.0
 11
194.595
 21
65.261465518241039
 31
0.0
  0
LINE
  5
6606
  8
0
 10
194.595
 20
70.85965004500332
 30
0.0
 11
195.17235026918959
 21
71.156892895577016
 31
0.0
  0
LINE
  5
6607
  8
0
 10
195.1723502691847
 20
71.156892895577016
 30
0.0
 11
195.1723502691847
 21
69.258615265324636
 31
0.0
  0
LINE
  5
6608
  8
0
 10
195.17235026918959
 20
69.258615265324693
 30
0.0
 11
194.595
 21
68.193206742542202
 31
0.0
  0
LINE
  5
6609
  8
0
 10
194.595
 20
73.221912677967168
 30
0.0
 11
195.17235026918959
 21
73.650702697007091
 31
0.0
  0
LINE
  5
660A
  8
0
 10
195.17235026918971
 20
73.650702697007091
 30
0.0
 11
195.17235026918971
 21
71.968975465530946
 31
0.0
  0
LINE
  5
660B
  8
0
 10
195.17235026918971
 20
71.968975465530875
 30
0.0
 11
194.595
 21
70.85965004500332
 31
0.0
  0
LINE
  5
660C
  8
0
 10
194.595
 20
75.245547532892886
 30
0.0
 11
195.17235026918959
 21
75.799631996370408
 31
0.0
  0
LINE
  5
660D
  8
0
 10
195.17235026918939
 20
75.799631996370408
 30
0.0
 11
195.17235026918939
 21
74.358978533625191
 31
0.0
  0
LINE
  5
660E
  8
0
 10
195.17235026918959
 20
74.358978533625191
 30
0.0
 11
194.595
 21
73.221912677967168
 31
0.0
  0
LINE
  5
660F
  8
0
 10
194.595
 20
76.901045456766838
 30
0.0
 11
195.17235026918959
 21
77.572344565514925
 31
0.0
  0
LINE
  5
6610
  8
0
 10
195.17235026919181
 20
77.572344565514925
 30
0.0
 11
195.17235026919181
 21
76.393772843056581
 31
0.0
  0
LINE
  5
6611
  8
0
 10
195.17235026918959
 20
76.393772843056581
 30
0.0
 11
194.595
 21
75.245547532892886
 31
0.0
  0
LINE
  5
6612
  8
0
 10
194.595
 20
78.164265562002299
 30
0.0
 11
195.17235026918959
 21
78.942990263381432
 31
0.0
  0
LINE
  5
6613
  8
0
 10
195.172350269189
 20
78.942990263381432
 30
0.0
 11
195.172350269189
 21
78.043686510835812
 31
0.0
  0
LINE
  5
6614
  8
0
 10
195.17235026918959
 20
78.043686510835812
 30
0.0
 11
194.595
 21
76.901045456766838
 31
0.0
  0
LINE
  5
6615
  8
0
 10
194.595
 20
79.01678725494088
 30
0.0
 11
195.17235026918959
 21
79.891581989269696
 31
0.0
  0
LINE
  5
6616
  8
0
 10
195.17235026919059
 20
79.891581989269696
 30
0.0
 11
195.17235026919059
 21
79.284660080404592
 31
0.0
  0
LINE
  5
6617
  8
0
 10
195.17235026918959
 20
79.284660080404592
 30
0.0
 11
194.595
 21
78.164265562002299
 31
0.0
  0
LINE
  5
6618
  8
0
 10
194.595
 20
79.446178849588023
 30
0.0
 11
195.17235026918959
 21
80.404287139773771
 31
0.0
  0
LINE
  5
6619
  8
0
 10
195.1723502691886
 20
80.404287139773771
 30
0.0
 11
195.1723502691886
 21
80.098597362689532
 31
0.0
  0
LINE
  5
661A
  8
0
 10
195.17235026918959
 20
80.098597362689532
 30
0.0
 11
194.595
 21
79.01678725494088
 31
0.0
  0
LINE
  5
661B
  8
0
 10
195.172350269188
 20
80.500000000000156
 30
0.0
 11
195.172350269188
 21
80.473629319287866
 31
0.0
  0
LINE
  5
661C
  8
0
 10
195.17235026918959
 20
80.473629319287866
 30
0.0
 11
194.595
 21
79.446178849588023
 31
0.0
  0
LINE
  5
661D
  8
0
 10
194.017649730812
 20
80.473629319287866
 30
0.0
 11
194.017649730812
 21
80.500000000000156
 31
0.0
  0
LINE
  5
661E
  8
0
 10
194.595
 20
79.446178849588023
 30
0.0
 11
194.01764973081029
 21
80.473629319287866
 31
0.0
  0
LINE
  5
661F
  8
0
 10
194.0176497308114
 20
80.098597362689532
 30
0.0
 11
194.0176497308114
 21
80.404287139773771
 31
0.0
  0
LINE
  5
6620
  8
0
 10
194.01764973081029
 20
80.404287139773771
 30
0.0
 11
194.595
 21
79.446178849588023
 31
0.0
  0
LINE
  5
6621
  8
0
 10
194.595
 20
79.01678725494088
 30
0.0
 11
194.01764973081029
 21
80.098597362689532
 31
0.0
  0
LINE
  5
6622
  8
0
 10
194.0176497308093
 20
79.284660080404592
 30
0.0
 11
194.0176497308093
 21
79.891581989269696
 31
0.0
  0
LINE
  5
6623
  8
0
 10
194.01764973081029
 20
79.891581989269696
 30
0.0
 11
194.595
 21
79.01678725494088
 31
0.0
  0
LINE
  5
6624
  8
0
 10
194.595
 20
78.164265562002242
 30
0.0
 11
194.01764973081029
 21
79.284660080404592
 31
0.0
  0
LINE
  5
6625
  8
0
 10
194.017649730811
 20
78.043686510835812
 30
0.0
 11
194.017649730811
 21
78.942990263381432
 31
0.0
  0
LINE
  5
6626
  8
0
 10
194.01764973081029
 20
78.942990263381432
 30
0.0
 11
194.595
 21
78.164265562002242
 31
0.0
  0
LINE
  5
6627
  8
0
 10
194.595
 20
76.901045456766838
 30
0.0
 11
194.01764973081029
 21
78.043686510835812
 31
0.0
  0
LINE
  5
6628
  8
0
 10
194.01764973080819
 20
76.393772843056581
 30
0.0
 11
194.01764973080819
 21
77.572344565514925
 31
0.0
  0
LINE
  5
6629
  8
0
 10
194.01764973081029
 20
77.572344565514925
 30
0.0
 11
194.595
 21
76.901045456766838
 31
0.0
  0
LINE
  5
662A
  8
0
 10
194.595
 20
75.245547532892886
 30
0.0
 11
194.01764973081029
 21
76.393772843056581
 31
0.0
  0
LINE
  5
662B
  8
0
 10
194.01764973081049
 20
74.358978533625191
 30
0.0
 11
194.01764973081049
 21
75.799631996370408
 31
0.0
  0
LINE
  5
662C
  8
0
 10
194.01764973081029
 20
75.799631996370408
 30
0.0
 11
194.595
 21
75.245547532892886
 31
0.0
  0
LINE
  5
662D
  8
0
 10
194.595
 20
73.221912677967111
 30
0.0
 11
194.01764973081029
 21
74.358978533625191
 31
0.0
  0
LINE
  5
662E
  8
0
 10
194.01764973081029
 20
71.968975465530946
 30
0.0
 11
194.01764973081029
 21
73.650702697007091
 31
0.0
  0
LINE
  5
662F
  8
0
 10
194.01764973081029
 20
73.650702697007091
 30
0.0
 11
194.595
 21
73.221912677967168
 31
0.0
  0
LINE
  5
6630
  8
0
 10
194.595
 20
70.85965004500332
 30
0.0
 11
194.01764973081029
 21
71.968975465530946
 31
0.0
  0
LINE
  5
6631
  8
0
 10
194.01764973081529
 20
69.258615265324636
 30
0.0
 11
194.01764973081529
 21
71.156892895577016
 31
0.0
  0
LINE
  5
6632
  8
0
 10
194.01764973081029
 20
71.156892895577016
 30
0.0
 11
194.595
 21
70.85965004500332
 31
0.0
  0
LINE
  5
6633
  8
0
 10
194.595
 20
68.193206742542202
 30
0.0
 11
194.01764973081029
 21
69.258615265324693
 31
0.0
  0
LINE
  5
6634
  8
0
 10
194.01764973080969
 20
66.267421087925243
 30
0.0
 11
194.01764973080969
 21
68.354567954555648
 31
0.0
  0
LINE
  5
6635
  8
0
 10
194.01764973081029
 20
68.354567954555648
 30
0.0
 11
194.595
 21
68.193206742542202
 31
0.0
  0
LINE
  5
6636
  8
0
 10
194.595
 20
65.261465518241039
 30
0.0
 11
194.01764973081029
 21
66.267421087925243
 31
0.0
  0
LINE
  5
6637
  8
0
 10
194.0176497308106
 20
63.039011280021732
 30
0.0
 11
194.0176497308106
 21
65.284592081869334
 31
0.0
  0
LINE
  5
6638
  8
0
 10
194.01764973081029
 20
65.284592081869334
 30
0.0
 11
194.595
 21
65.261465518241039
 31
0.0
  0
LINE
  5
6639
  8
0
 10
194.595
 20
62.10717776085648
 30
0.0
 11
194.01764973081029
 21
63.039011280021732
 31
0.0
  0
LINE
  5
663A
  8
0
 10
194.017649730811
 20
59.620463326359157
 30
0.0
 11
194.017649730811
 21
61.991732438725421
 31
0.0
  0
LINE
  5
663B
  8
0
 10
194.01764973081029
 20
61.991732438725421
 30
0.0
 11
194.595
 21
62.10717776085648
 31
0.0
  0
LINE
  5
663C
  8
0
 10
194.595
 20
58.776340088728631
 30
0.0
 11
194.01764973081029
 21
59.620463326359157
 31
0.0
  0
LINE
  5
663D
  8
0
 10
194.01764973081171
 20
56.061627354001502
 30
0.0
 11
194.01764973081171
 21
58.524006333595082
 31
0.0
  0
LINE
  5
663E
  8
0
 10
194.01764973081029
 20
58.524006333595082
 30
0.0
 11
194.595
 21
58.776340088728659
 31
0.0
  0
LINE
  5
663F
  8
0
 10
194.595
 20
55.317523615510389
 30
0.0
 11
194.01764973081029
 21
56.061627354001502
 31
0.0
  0
LINE
  5
6640
  8
0
 10
194.01764973081191
 20
52.414399205226431
 30
0.0
 11
194.01764973081191
 21
54.931981021730337
 31
0.0
  0
LINE
  5
6641
  8
0
 10
194.01764973081029
 20
54.931981021730337
 30
0.0
 11
194.595
 21
55.317523615510389
 31
0.0
  0
LINE
  5
6642
  8
0
 10
194.595
 20
20.500000000000171
 30
0.0
 11
194.595
 21
79.500000000000171
 31
0.0
  0
LINE
  5
6643
  8
0
 10
194.595
 20
51.781165673957581
 30
0.0
 11
194.01764973081029
 21
52.414399205226431
 31
0.0
  0
LINE
  5
6644
  8
0
 10
194.595
 20
48.218834326042717
 30
0.0
 11
194.01764973081029
 21
48.731963679285649
 31
0.0
  0
LINE
  5
6645
  8
0
 10
194.01764973081339
 20
48.731963679285649
 30
0.0
 11
194.01764973081339
 21
51.268036320714678
 31
0.0
  0
LINE
  5
6646
  8
0
 10
194.01764973081029
 20
51.268036320714678
 30
0.0
 11
194.595
 21
51.781165673957609
 31
0.0
  0
LINE
  5
6647
  8
0
 10
194.595
 20
44.682476384489938
 30
0.0
 11
194.01764973081029
 21
45.068018978269997
 31
0.0
  0
LINE
  5
6648
  8
0
 10
194.01764973080881
 20
45.068018978269997
 30
0.0
 11
194.01764973080881
 21
47.58560079477391
 31
0.0
  0
LINE
  5
6649
  8
0
 10
194.01764973081029
 20
47.58560079477391
 30
0.0
 11
194.595
 21
48.218834326042717
 31
0.0
  0
LINE
  5
664A
  8
0
 10
194.595
 20
41.223659911271682
 30
0.0
 11
194.01764973081029
 21
41.475993666405223
 31
0.0
  0
LINE
  5
664B
  8
0
 10
194.01764973081151
 20
41.475993666405223
 30
0.0
 11
194.01764973081151
 21
43.938372645998832
 31
0.0
  0
LINE
  5
664C
  8
0
 10
194.01764973081029
 20
43.938372645998832
 30
0.0
 11
194.595
 21
44.682476384489938
 31
0.0
  0
LINE
  5
664D
  8
0
 10
194.595
 20
37.89282223914384
 30
0.0
 11
194.01764973081029
 21
38.008267561274948
 31
0.0
  0
LINE
  5
664E
  8
0
 10
194.01764973080819
 20
38.008267561274948
 30
0.0
 11
194.01764973080819
 21
40.379536673641176
 31
0.0
  0
LINE
  5
664F
  8
0
 10
194.01764973081029
 20
40.379536673641176
 30
0.0
 11
194.595
 21
41.223659911271682
 31
0.0
  0
LINE
  5
6650
  8
0
 10
194.595
 20
34.738534481759302
 30
0.0
 11
194.01764973081029
 21
34.715407918131007
 31
0.0
  0
LINE
  5
6651
  8
0
 10
194.01764973080719
 20
34.715407918131007
 30
0.0
 11
194.01764973080719
 21
36.960988719978623
 31
0.0
  0
LINE
  5
6652
  8
0
 10
194.01764973081029
 20
36.960988719978623
 30
0.0
 11
194.595
 21
37.89282223914384
 31
0.0
  0
LINE
  5
6653
  8
0
 10
194.595
 20
31.806793257458139
 30
0.0
 11
194.01764973081029
 21
31.645432045444689
 31
0.0
  0
LINE
  5
6654
  8
0
 10
194.01764973081131
 20
31.645432045444689
 30
0.0
 11
194.01764973081131
 21
33.732578912075098
 31
0.0
  0
LINE
  5
6655
  8
0
 10
194.01764973081029
 20
33.732578912075098
 30
0.0
 11
194.595
 21
34.738534481759302
 31
0.0
  0
LINE
  5
6656
  8
0
 10
194.595
 20
29.140349954997021
 30
0.0
 11
194.01764973081029
 21
28.843107104423328
 31
0.0
  0
LINE
  5
6657
  8
0
 10
194.01764973080989
 20
28.843107104423328
 30
0.0
 11
194.01764973080989
 21
30.741384734675648
 31
0.0
  0
LINE
  5
6658
  8
0
 10
194.01764973081029
 20
30.741384734675648
 30
0.0
 11
194.595
 21
31.806793257458139
 31
0.0
  0
LINE
  5
6659
  8
0
 10
194.595
 20
26.778087322033201
 30
0.0
 11
194.01764973081029
 21
26.34929730299325
 31
0.0
  0
LINE
  5
665A
  8
0
 10
194.01764973081171
 20
26.34929730299325
 30
0.0
 11
194.01764973081171
 21
28.031024534469449
 31
0.0
  0
LINE
  5
665B
  8
0
 10
194.01764973081029
 20
28.031024534469449
 30
0.0
 11
194.595
 21
29.140349954997021
 31
0.0
  0
LINE
  5
665C
  8
0
 10
194.595
 20
24.75445246710748
 30
0.0
 11
194.01764973081029
 21
24.200368003629961
 31
0.0
  0
LINE
  5
665D
  8
0
 10
194.01764973080921
 20
24.200368003629961
 30
0.0
 11
194.01764973080921
 21
25.641021466375118
 31
0.0
  0
LINE
  5
665E
  8
0
 10
194.01764973081029
 20
25.641021466375118
 30
0.0
 11
194.595
 21
26.778087322033201
 31
0.0
  0
LINE
  5
665F
  8
0
 10
194.595
 20
23.098954543233528
 30
0.0
 11
194.01764973081029
 21
22.427655434485452
 31
0.0
  0
LINE
  5
6660
  8
0
 10
194.01764973081239
 20
22.427655434485452
 30
0.0
 11
194.01764973081239
 21
23.606227156943731
 31
0.0
  0
LINE
  5
6661
  8
0
 10
194.01764973081029
 20
23.606227156943731
 30
0.0
 11
194.595
 21
24.754452467107459
 31
0.0
  0
LINE
  5
6662
  8
0
 10
194.595
 20
21.83573443799807
 30
0.0
 11
194.01764973081029
 21
21.057009736618909
 31
0.0
  0
LINE
  5
6663
  8
0
 10
194.0176497308131
 20
21.057009736618909
 30
0.0
 11
194.0176497308131
 21
21.956313489164529
 31
0.0
  0
LINE
  5
6664
  8
0
 10
194.01764973081029
 20
21.956313489164529
 30
0.0
 11
194.595
 21
23.098954543233528
 31
0.0
  0
LINE
  5
6665
  8
0
 10
194.595
 20
20.983212745059429
 30
0.0
 11
194.01764973081029
 21
20.10841801073062
 31
0.0
  0
LINE
  5
6666
  8
0
 10
194.0176497308106
 20
20.10841801073062
 30
0.0
 11
194.0176497308106
 21
20.715339919595721
 31
0.0
  0
LINE
  5
6667
  8
0
 10
194.01764973081029
 20
20.715339919595721
 30
0.0
 11
194.595
 21
21.83573443799807
 31
0.0
  0
LINE
  5
6668
  8
0
 10
194.595
 20
20.553821150412318
 30
0.0
 11
194.01764973081029
 21
19.59571286022663
 31
0.0
  0
LINE
  5
6669
  8
0
 10
194.01764973081131
 20
19.59571286022663
 30
0.0
 11
194.01764973081131
 21
19.901402637310749
 31
0.0
  0
LINE
  5
666A
  8
0
 10
194.01764973081029
 20
19.901402637310749
 30
0.0
 11
194.595
 21
20.983212745059429
 31
0.0
  0
LINE
  5
666B
  8
0
 10
194.01764973080881
 20
19.500000000000139
 30
0.0
 11
194.01764973080881
 21
19.526370680712521
 31
0.0
  0
LINE
  5
666C
  8
0
 10
194.01764973081029
 20
19.526370680712521
 30
0.0
 11
194.595
 21
20.553821150412318
 31
0.0
  0
LINE
  5
666D
  8
0
 10
190.82735026919119
 20
19.526370680712521
 30
0.0
 11
190.82735026919119
 21
19.500000000000139
 31
0.0
  0
LINE
  5
666E
  8
0
 10
190.25
 20
20.55382115041229
 30
0.0
 11
190.82735026918959
 21
19.526370680712489
 31
0.0
  0
LINE
  5
666F
  8
0
 10
190.82735026918871
 20
19.901402637310749
 30
0.0
 11
190.82735026918871
 21
19.59571286022663
 31
0.0
  0
LINE
  5
6670
  8
0
 10
190.82735026918959
 20
19.59571286022663
 30
0.0
 11
190.25
 21
20.553821150412318
 31
0.0
  0
LINE
  5
6671
  8
0
 10
190.25
 20
20.983212745059429
 30
0.0
 11
190.82735026918959
 21
19.901402637310749
 31
0.0
  0
LINE
  5
6672
  8
0
 10
190.82735026918931
 20
20.715339919595721
 30
0.0
 11
190.82735026918931
 21
20.10841801073062
 31
0.0
  0
LINE
  5
6673
  8
0
 10
190.82735026918959
 20
20.10841801073062
 30
0.0
 11
190.25
 21
20.983212745059429
 31
0.0
  0
LINE
  5
6674
  8
0
 10
190.25
 20
21.83573443799807
 30
0.0
 11
190.82735026918959
 21
20.715339919595721
 31
0.0
  0
LINE
  5
6675
  8
0
 10
190.82735026918681
 20
21.956313489164529
 30
0.0
 11
190.82735026918681
 21
21.057009736618909
 31
0.0
  0
LINE
  5
6676
  8
0
 10
190.82735026918959
 20
21.057009736618909
 30
0.0
 11
190.25
 21
21.83573443799807
 31
0.0
  0
LINE
  5
6677
  8
0
 10
190.25
 20
23.0989545432335
 30
0.0
 11
190.82735026918959
 21
21.956313489164529
 31
0.0
  0
LINE
  5
6678
  8
0
 10
190.82735026918749
 20
23.606227156943731
 30
0.0
 11
190.82735026918749
 21
22.427655434485452
 31
0.0
  0
LINE
  5
6679
  8
0
 10
190.82735026918959
 20
22.427655434485452
 30
0.0
 11
190.25
 21
23.098954543233528
 31
0.0
  0
LINE
  5
667A
  8
0
 10
190.25
 20
24.754452467107459
 30
0.0
 11
190.82735026918959
 21
23.606227156943731
 31
0.0
  0
LINE
  5
667B
  8
0
 10
190.8273502691907
 20
25.641021466375118
 30
0.0
 11
190.8273502691907
 21
24.200368003629961
 31
0.0
  0
LINE
  5
667C
  8
0
 10
190.82735026918959
 20
24.200368003629929
 30
0.0
 11
190.25
 21
24.75445246710748
 31
0.0
  0
LINE
  5
667D
  8
0
 10
190.25
 20
26.778087322033169
 30
0.0
 11
190.82735026918959
 21
25.641021466375118
 31
0.0
  0
LINE
  5
667E
  8
0
 10
190.82735026918829
 20
28.031024534469449
 30
0.0
 11
190.82735026918829
 21
26.34929730299325
 31
0.0
  0
LINE
  5
667F
  8
0
 10
190.82735026918959
 20
26.34929730299325
 30
0.0
 11
190.25
 21
26.778087322033201
 31
0.0
  0
LINE
  5
6680
  8
0
 10
190.25
 20
29.140349954997021
 30
0.0
 11
190.82735026918959
 21
28.031024534469449
 31
0.0
  0
LINE
  5
6681
  8
0
 10
190.82735026918999
 20
30.741384734675648
 30
0.0
 11
190.82735026918999
 21
28.843107104423328
 31
0.0
  0
LINE
  5
6682
  8
0
 10
190.82735026918959
 20
28.843107104423328
 30
0.0
 11
190.25
 21
29.140349954997021
 31
0.0
  0
LINE
  5
6683
  8
0
 10
190.25
 20
31.806793257458139
 30
0.0
 11
190.82735026918959
 21
30.741384734675648
 31
0.0
  0
LINE
  5
6684
  8
0
 10
190.8273502691886
 20
33.732578912075098
 30
0.0
 11
190.8273502691886
 21
31.645432045444689
 31
0.0
  0
LINE
  5
6685
  8
0
 10
190.82735026918959
 20
31.645432045444689
 30
0.0
 11
190.25
 21
31.806793257458139
 31
0.0
  0
LINE
  5
6686
  8
0
 10
190.25
 20
34.738534481759302
 30
0.0
 11
190.82735026918959
 21
33.732578912075098
 31
0.0
  0
LINE
  5
6687
  8
0
 10
190.82735026919269
 20
36.960988719978623
 30
0.0
 11
190.82735026919269
 21
34.715407918131007
 31
0.0
  0
LINE
  5
6688
  8
0
 10
190.82735026918959
 20
34.715407918131007
 30
0.0
 11
190.25
 21
34.738534481759302
 31
0.0
  0
LINE
  5
6689
  8
0
 10
190.25
 20
37.89282223914384
 30
0.0
 11
190.82735026918959
 21
36.960988719978623
 31
0.0
  0
LINE
  5
668A
  8
0
 10
190.82735026919181
 20
40.379536673641176
 30
0.0
 11
190.82735026919181
 21
38.008267561274948
 31
0.0
  0
LINE
  5
668B
  8
0
 10
190.82735026918959
 20
38.008267561274948
 30
0.0
 11
190.25
 21
37.892822239143868
 31
0.0
  0
LINE
  5
668C
  8
0
 10
190.25
 20
41.223659911271682
 30
0.0
 11
190.82735026918959
 21
40.379536673641176
 31
0.0
  0
LINE
  5
668D
  8
0
 10
190.8273502691884
 20
43.938372645998832
 30
0.0
 11
190.8273502691884
 21
41.475993666405223
 31
0.0
  0
LINE
  5
668E
  8
0
 10
190.82735026918959
 20
41.475993666405223
 30
0.0
 11
190.25
 21
41.223659911271682
 31
0.0
  0
LINE
  5
668F
  8
0
 10
190.25
 20
44.682476384489938
 30
0.0
 11
190.82735026918959
 21
43.938372645998832
 31
0.0
  0
LINE
  5
6690
  8
0
 10
190.82735026919119
 20
47.58560079477391
 30
0.0
 11
190.82735026919119
 21
45.068018978269997
 31
0.0
  0
LINE
  5
6691
  8
0
 10
190.82735026918959
 20
45.068018978269997
 30
0.0
 11
190.25
 21
44.682476384489938
 31
0.0
  0
LINE
  5
6692
  8
0
 10
190.25
 20
48.218834326042717
 30
0.0
 11
190.82735026918959
 21
47.58560079477391
 31
0.0
  0
LINE
  5
6693
  8
0
 10
190.82735026918661
 20
51.268036320714678
 30
0.0
 11
190.82735026918661
 21
48.731963679285649
 31
0.0
  0
LINE
  5
6694
  8
0
 10
190.82735026918959
 20
48.731963679285649
 30
0.0
 11
190.25
 21
48.218834326042717
 31
0.0
  0
LINE
  5
6695
  8
0
 10
190.25
 20
51.781165673957609
 30
0.0
 11
190.82735026918959
 21
51.268036320714678
 31
0.0
  0
LINE
  5
6696
  8
0
 10
190.25
 20
55.317523615510389
 30
0.0
 11
190.82735026918959
 21
54.931981021730337
 31
0.0
  0
LINE
  5
6697
  8
0
 10
190.827350269188
 20
54.931981021730337
 30
0.0
 11
190.827350269188
 21
52.414399205226431
 31
0.0
  0
LINE
  5
6698
  8
0
 10
190.82735026918959
 20
52.414399205226431
 30
0.0
 11
190.25
 21
51.781165673957581
 31
0.0
  0
LINE
  5
6699
  8
0
 10
190.25
 20
58.776340088728659
 30
0.0
 11
190.82735026918959
 21
58.524006333595082
 31
0.0
  0
LINE
  5
669A
  8
0
 10
190.82735026918829
 20
58.524006333595082
 30
0.0
 11
190.82735026918829
 21
56.061627354001502
 31
0.0
  0
LINE
  5
669B
  8
0
 10
190.82735026918959
 20
56.061627354001502
 30
0.0
 11
190.25
 21
55.317523615510389
 31
0.0
  0
LINE
  5
669C
  8
0
 10
190.25
 20
62.10717776085648
 30
0.0
 11
190.82735026918959
 21
61.991732438725421
 31
0.0
  0
LINE
  5
669D
  8
0
 10
190.827350269189
 20
61.991732438725421
 30
0.0
 11
190.827350269189
 21
59.620463326359157
 31
0.0
  0
LINE
  5
669E
  8
0
 10
190.82735026918959
 20
59.620463326359157
 30
0.0
 11
190.25
 21
58.776340088728659
 31
0.0
  0
LINE
  5
669F
  8
0
 10
190.25
 20
65.261465518241039
 30
0.0
 11
190.82735026918959
 21
65.284592081869334
 31
0.0
  0
LINE
  5
66A0
  8
0
 10
190.82735026918931
 20
65.284592081869334
 30
0.0
 11
190.82735026918931
 21
63.039011280021732
 31
0.0
  0
LINE
  5
66A1
  8
0
 10
190.82735026918959
 20
63.039011280021732
 30
0.0
 11
190.25
 21
62.10717776085653
 31
0.0
  0
LINE
  5
66A2
  8
0
 10
190.25
 20
68.193206742542202
 30
0.0
 11
190.82735026918959
 21
68.354567954555648
 31
0.0
  0
LINE
  5
66A3
  8
0
 10
190.82735026919019
 20
68.354567954555648
 30
0.0
 11
190.82735026919019
 21
66.267421087925243
 31
0.0
  0
LINE
  5
66A4
  8
0
 10
190.82735026918959
 20
66.267421087925243
 30
0.0
 11
190.25
 21
65.261465518241039
 31
0.0
  0
LINE
  5
66A5
  8
0
 10
190.25
 20
70.85965004500332
 30
0.0
 11
190.82735026918959
 21
71.156892895577016
 31
0.0
  0
LINE
  5
66A6
  8
0
 10
190.82735026918459
 20
71.156892895577016
 30
0.0
 11
190.82735026918459
 21
69.258615265324636
 31
0.0
  0
LINE
  5
66A7
  8
0
 10
190.82735026918959
 20
69.258615265324636
 30
0.0
 11
190.25
 21
68.193206742542202
 31
0.0
  0
LINE
  5
66A8
  8
0
 10
190.25
 20
73.221912677967168
 30
0.0
 11
190.82735026918959
 21
73.650702697007091
 31
0.0
  0
LINE
  5
66A9
  8
0
 10
190.82735026918971
 20
73.650702697007091
 30
0.0
 11
190.82735026918971
 21
71.968975465530946
 31
0.0
  0
LINE
  5
66AA
  8
0
 10
190.82735026918959
 20
71.968975465530875
 30
0.0
 11
190.25
 21
70.85965004500332
 31
0.0
  0
LINE
  5
66AB
  8
0
 10
190.25
 20
75.245547532892886
 30
0.0
 11
190.82735026918959
 21
75.799631996370408
 31
0.0
  0
LINE
  5
66AC
  8
0
 10
190.8273502691894
 20
75.799631996370408
 30
0.0
 11
190.8273502691894
 21
74.358978533625191
 31
0.0
  0
LINE
  5
66AD
  8
0
 10
190.82735026918959
 20
74.358978533625191
 30
0.0
 11
190.25
 21
73.221912677967168
 31
0.0
  0
LINE
  5
66AE
  8
0
 10
190.25
 20
76.901045456766838
 30
0.0
 11
190.82735026918959
 21
77.572344565514925
 31
0.0
  0
LINE
  5
66AF
  8
0
 10
190.8273502691917
 20
77.572344565514925
 30
0.0
 11
190.8273502691917
 21
76.393772843056581
 31
0.0
  0
LINE
  5
66B0
  8
0
 10
190.82735026918959
 20
76.393772843056581
 30
0.0
 11
190.25
 21
75.245547532892886
 31
0.0
  0
LINE
  5
66B1
  8
0
 10
190.25
 20
78.164265562002299
 30
0.0
 11
190.82735026918959
 21
78.942990263381432
 31
0.0
  0
LINE
  5
66B2
  8
0
 10
190.827350269189
 20
78.942990263381432
 30
0.0
 11
190.827350269189
 21
78.043686510835812
 31
0.0
  0
LINE
  5
66B3
  8
0
 10
190.82735026918959
 20
78.043686510835812
 30
0.0
 11
190.25
 21
76.901045456766838
 31
0.0
  0
LINE
  5
66B4
  8
0
 10
190.25
 20
79.01678725494088
 30
0.0
 11
190.82735026918959
 21
79.891581989269696
 31
0.0
  0
LINE
  5
66B5
  8
0
 10
190.8273502691907
 20
79.891581989269696
 30
0.0
 11
190.8273502691907
 21
79.284660080404592
 31
0.0
  0
LINE
  5
66B6
  8
0
 10
190.82735026918959
 20
79.284660080404592
 30
0.0
 11
190.25
 21
78.164265562002299
 31
0.0
  0
LINE
  5
66B7
  8
0
 10
190.25
 20
79.446178849588023
 30
0.0
 11
190.82735026918959
 21
80.404287139773771
 31
0.0
  0
LINE
  5
66B8
  8
0
 10
190.82735026918851
 20
80.404287139773771
 30
0.0
 11
190.82735026918851
 21
80.098597362689532
 31
0.0
  0
LINE
  5
66B9
  8
0
 10
190.82735026918959
 20
80.098597362689532
 30
0.0
 11
190.25
 21
79.01678725494088
 31
0.0
  0
LINE
  5
66BA
  8
0
 10
190.827350269188
 20
80.500000000000156
 30
0.0
 11
190.827350269188
 21
80.473629319287866
 31
0.0
  0
LINE
  5
66BB
  8
0
 10
190.82735026918959
 20
80.473629319287866
 30
0.0
 11
190.25
 21
79.446178849588023
 31
0.0
  0
LINE
  5
66BC
  8
0
 10
189.672649730812
 20
80.473629319287866
 30
0.0
 11
189.672649730812
 21
80.500000000000156
 31
0.0
  0
LINE
  5
66BD
  8
0
 10
190.25
 20
20.500000000000171
 30
0.0
 11
190.25
 21
79.500000000000171
 31
0.0
  0
LINE
  5
66BE
  8
0
 10
190.25
 20
79.446178849588023
 30
0.0
 11
189.67264973081029
 21
80.473629319287866
 31
0.0
  0
LINE
  5
66BF
  8
0
 10
189.6726497308114
 20
80.098597362689532
 30
0.0
 11
189.6726497308114
 21
80.404287139773771
 31
0.0
  0
LINE
  5
66C0
  8
0
 10
189.67264973081029
 20
80.404287139773771
 30
0.0
 11
190.25
 21
79.446178849588023
 31
0.0
  0
LINE
  5
66C1
  8
0
 10
190.25
 20
79.01678725494088
 30
0.0
 11
189.67264973081041
 21
80.098597362689532
 31
0.0
  0
LINE
  5
66C2
  8
0
 10
189.6726497308093
 20
79.284660080404592
 30
0.0
 11
189.6726497308093
 21
79.891581989269696
 31
0.0
  0
LINE
  5
66C3
  8
0
 10
189.67264973081029
 20
79.891581989269696
 30
0.0
 11
190.25
 21
79.01678725494088
 31
0.0
  0
LINE
  5
66C4
  8
0
 10
190.25
 20
78.164265562002242
 30
0.0
 11
189.67264973081041
 21
79.284660080404592
 31
0.0
  0
LINE
  5
66C5
  8
0
 10
189.672649730811
 20
78.043686510835812
 30
0.0
 11
189.672649730811
 21
78.942990263381432
 31
0.0
  0
LINE
  5
66C6
  8
0
 10
189.67264973081029
 20
78.942990263381432
 30
0.0
 11
190.25
 21
78.164265562002242
 31
0.0
  0
LINE
  5
66C7
  8
0
 10
190.25
 20
76.901045456766838
 30
0.0
 11
189.67264973081029
 21
78.043686510835812
 31
0.0
  0
LINE
  5
66C8
  8
0
 10
189.67264973080819
 20
76.393772843056581
 30
0.0
 11
189.67264973080819
 21
77.572344565514925
 31
0.0
  0
LINE
  5
66C9
  8
0
 10
189.67264973081029
 20
77.572344565514925
 30
0.0
 11
190.25
 21
76.901045456766838
 31
0.0
  0
LINE
  5
66CA
  8
0
 10
190.25
 20
75.245547532892886
 30
0.0
 11
189.67264973081029
 21
76.393772843056581
 31
0.0
  0
LINE
  5
66CB
  8
0
 10
189.67264973081049
 20
74.358978533625191
 30
0.0
 11
189.67264973081049
 21
75.799631996370408
 31
0.0
  0
LINE
  5
66CC
  8
0
 10
189.67264973081029
 20
75.799631996370408
 30
0.0
 11
190.25
 21
75.245547532892886
 31
0.0
  0
LINE
  5
66CD
  8
0
 10
190.25
 20
73.221912677967168
 30
0.0
 11
189.67264973081029
 21
74.358978533625191
 31
0.0
  0
LINE
  5
66CE
  8
0
 10
189.67264973081029
 20
71.968975465530946
 30
0.0
 11
189.67264973081029
 21
73.650702697007091
 31
0.0
  0
LINE
  5
66CF
  8
0
 10
189.67264973081029
 20
73.650702697007091
 30
0.0
 11
190.25
 21
73.221912677967168
 31
0.0
  0
LINE
  5
66D0
  8
0
 10
190.25
 20
70.85965004500332
 30
0.0
 11
189.67264973081029
 21
71.968975465530875
 31
0.0
  0
LINE
  5
66D1
  8
0
 10
189.67264973081529
 20
69.258615265324636
 30
0.0
 11
189.67264973081529
 21
71.156892895577016
 31
0.0
  0
LINE
  5
66D2
  8
0
 10
189.67264973081029
 20
71.156892895577016
 30
0.0
 11
190.25
 21
70.85965004500332
 31
0.0
  0
LINE
  5
66D3
  8
0
 10
190.25
 20
68.193206742542202
 30
0.0
 11
189.67264973081041
 21
69.258615265324636
 31
0.0
  0
LINE
  5
66D4
  8
0
 10
189.67264973080981
 20
66.267421087925243
 30
0.0
 11
189.67264973080981
 21
68.354567954555648
 31
0.0
  0
LINE
  5
66D5
  8
0
 10
189.67264973081029
 20
68.354567954555648
 30
0.0
 11
190.25
 21
68.193206742542202
 31
0.0
  0
LINE
  5
66D6
  8
0
 10
190.25
 20
65.261465518241039
 30
0.0
 11
189.67264973081029
 21
66.267421087925243
 31
0.0
  0
LINE
  5
66D7
  8
0
 10
189.6726497308106
 20
63.039011280021732
 30
0.0
 11
189.6726497308106
 21
65.284592081869334
 31
0.0
  0
LINE
  5
66D8
  8
0
 10
189.67264973081029
 20
65.284592081869334
 30
0.0
 11
190.25
 21
65.261465518241039
 31
0.0
  0
LINE
  5
66D9
  8
0
 10
190.25
 20
62.10717776085648
 30
0.0
 11
189.67264973081041
 21
63.039011280021732
 31
0.0
  0
LINE
  5
66DA
  8
0
 10
189.672649730811
 20
59.620463326359157
 30
0.0
 11
189.672649730811
 21
61.991732438725421
 31
0.0
  0
LINE
  5
66DB
  8
0
 10
189.67264973081029
 20
61.991732438725421
 30
0.0
 11
190.25
 21
62.10717776085648
 31
0.0
  0
LINE
  5
66DC
  8
0
 10
190.25
 20
58.776340088728631
 30
0.0
 11
189.67264973081029
 21
59.620463326359157
 31
0.0
  0
LINE
  5
66DD
  8
0
 10
189.67264973081171
 20
56.061627354001502
 30
0.0
 11
189.67264973081171
 21
58.524006333595082
 31
0.0
  0
LINE
  5
66DE
  8
0
 10
189.67264973081029
 20
58.524006333595082
 30
0.0
 11
190.25
 21
58.776340088728659
 31
0.0
  0
LINE
  5
66DF
  8
0
 10
190.25
 20
55.317523615510389
 30
0.0
 11
189.67264973081041
 21
56.061627354001502
 31
0.0
  0
LINE
  5
66E0
  8
0
 10
189.672649730812
 20
52.414399205226431
 30
0.0
 11
189.672649730812
 21
54.931981021730337
 31
0.0
  0
LINE
  5
66E1
  8
0
 10
189.67264973081029
 20
54.931981021730337
 30
0.0
 11
190.25
 21
55.317523615510389
 31
0.0
  0
LINE
  5
66E2
  8
0
 10
190.25
 20
51.781165673957581
 30
0.0
 11
189.67264973081029
 21
52.414399205226431
 31
0.0
  0
LINE
  5
66E3
  8
0
 10
190.25
 20
48.218834326042717
 30
0.0
 11
189.67264973081029
 21
48.731963679285649
 31
0.0
  0
LINE
  5
66E4
  8
0
 10
189.6726497308133
 20
48.731963679285649
 30
0.0
 11
189.6726497308133
 21
51.268036320714678
 31
0.0
  0
LINE
  5
66E5
  8
0
 10
189.67264973081029
 20
51.268036320714678
 30
0.0
 11
190.25
 21
51.781165673957609
 31
0.0
  0
LINE
  5
66E6
  8
0
 10
190.25
 20
44.682476384489938
 30
0.0
 11
189.67264973081029
 21
45.068018978269997
 31
0.0
  0
LINE
  5
66E7
  8
0
 10
189.6726497308087
 20
45.068018978269997
 30
0.0
 11
189.6726497308087
 21
47.58560079477391
 31
0.0
  0
LINE
  5
66E8
  8
0
 10
189.67264973081029
 20
47.58560079477391
 30
0.0
 11
190.25
 21
48.218834326042717
 31
0.0
  0
LINE
  5
66E9
  8
0
 10
190.25
 20
41.223659911271682
 30
0.0
 11
189.67264973081029
 21
41.475993666405223
 31
0.0
  0
LINE
  5
66EA
  8
0
 10
189.67264973081149
 20
41.475993666405223
 30
0.0
 11
189.67264973081149
 21
43.938372645998832
 31
0.0
  0
LINE
  5
66EB
  8
0
 10
189.67264973081029
 20
43.938372645998832
 30
0.0
 11
190.25
 21
44.682476384489938
 31
0.0
  0
LINE
  5
66EC
  8
0
 10
190.25
 20
37.892822239143868
 30
0.0
 11
189.67264973081029
 21
38.008267561274948
 31
0.0
  0
LINE
  5
66ED
  8
0
 10
189.67264973080819
 20
38.008267561274948
 30
0.0
 11
189.67264973080819
 21
40.379536673641176
 31
0.0
  0
LINE
  5
66EE
  8
0
 10
189.67264973081029
 20
40.379536673641176
 30
0.0
 11
190.25
 21
41.223659911271682
 31
0.0
  0
LINE
  5
66EF
  8
0
 10
190.25
 20
34.738534481759302
 30
0.0
 11
189.67264973081029
 21
34.715407918131007
 31
0.0
  0
LINE
  5
66F0
  8
0
 10
189.67264973080731
 20
34.715407918131007
 30
0.0
 11
189.67264973080731
 21
36.960988719978623
 31
0.0
  0
LINE
  5
66F1
  8
0
 10
189.67264973081029
 20
36.960988719978623
 30
0.0
 11
190.25
 21
37.89282223914384
 31
0.0
  0
LINE
  5
66F2
  8
0
 10
190.25
 20
31.806793257458139
 30
0.0
 11
189.67264973081029
 21
31.645432045444689
 31
0.0
  0
LINE
  5
66F3
  8
0
 10
189.67264973081129
 20
31.645432045444689
 30
0.0
 11
189.67264973081129
 21
33.732578912075098
 31
0.0
  0
LINE
  5
66F4
  8
0
 10
189.67264973081029
 20
33.732578912075098
 30
0.0
 11
190.25
 21
34.738534481759302
 31
0.0
  0
LINE
  5
66F5
  8
0
 10
190.25
 20
29.140349954997021
 30
0.0
 11
189.67264973081029
 21
28.843107104423328
 31
0.0
  0
LINE
  5
66F6
  8
0
 10
189.67264973080989
 20
28.843107104423328
 30
0.0
 11
189.67264973080989
 21
30.741384734675648
 31
0.0
  0
LINE
  5
66F7
  8
0
 10
189.67264973081029
 20
30.741384734675648
 30
0.0
 11
190.25
 21
31.806793257458139
 31
0.0
  0
LINE
  5
66F8
  8
0
 10
190.25
 20
26.778087322033201
 30
0.0
 11
189.67264973081029
 21
26.34929730299325
 31
0.0
  0
LINE
  5
66F9
  8
0
 10
189.67264973081171
 20
26.34929730299325
 30
0.0
 11
189.67264973081171
 21
28.031024534469449
 31
0.0
  0
LINE
  5
66FA
  8
0
 10
189.67264973081029
 20
28.031024534469449
 30
0.0
 11
190.25
 21
29.140349954997021
 31
0.0
  0
LINE
  5
66FB
  8
0
 10
190.25
 20
24.754452467107459
 30
0.0
 11
189.67264973081029
 21
24.200368003629929
 31
0.0
  0
LINE
  5
66FC
  8
0
 10
189.67264973080921
 20
24.200368003629961
 30
0.0
 11
189.67264973080921
 21
25.641021466375118
 31
0.0
  0
LINE
  5
66FD
  8
0
 10
189.67264973081029
 20
25.641021466375118
 30
0.0
 11
190.25
 21
26.778087322033201
 31
0.0
  0
LINE
  5
66FE
  8
0
 10
190.25
 20
23.098954543233528
 30
0.0
 11
189.67264973081041
 21
22.427655434485452
 31
0.0
  0
LINE
  5
66FF
  8
0
 10
189.6726497308124
 20
22.427655434485452
 30
0.0
 11
189.6726497308124
 21
23.606227156943731
 31
0.0
  0
LINE
  5
6700
  8
0
 10
189.67264973081029
 20
23.606227156943731
 30
0.0
 11
190.25
 21
24.754452467107459
 31
0.0
  0
LINE
  5
6701
  8
0
 10
190.25
 20
21.83573443799807
 30
0.0
 11
189.67264973081029
 21
21.057009736618909
 31
0.0
  0
LINE
  5
6702
  8
0
 10
189.67264973081311
 20
21.057009736618909
 30
0.0
 11
189.67264973081311
 21
21.956313489164529
 31
0.0
  0
LINE
  5
6703
  8
0
 10
189.67264973081029
 20
21.956313489164529
 30
0.0
 11
190.25
 21
23.098954543233528
 31
0.0
  0
LINE
  5
6704
  8
0
 10
190.25
 20
20.983212745059429
 30
0.0
 11
189.67264973081029
 21
20.10841801073062
 31
0.0
  0
LINE
  5
6705
  8
0
 10
189.67264973081069
 20
20.10841801073062
 30
0.0
 11
189.67264973081069
 21
20.715339919595721
 31
0.0
  0
LINE
  5
6706
  8
0
 10
189.67264973081029
 20
20.715339919595721
 30
0.0
 11
190.25
 21
21.83573443799807
 31
0.0
  0
LINE
  5
6707
  8
0
 10
190.25
 20
20.553821150412318
 30
0.0
 11
189.67264973081041
 21
19.59571286022663
 31
0.0
  0
LINE
  5
6708
  8
0
 10
189.67264973081129
 20
19.59571286022663
 30
0.0
 11
189.67264973081129
 21
19.901402637310749
 31
0.0
  0
LINE
  5
6709
  8
0
 10
189.67264973081029
 20
19.901402637310749
 30
0.0
 11
190.25
 21
20.983212745059429
 31
0.0
  0
LINE
  5
670A
  8
0
 10
189.67264973080881
 20
19.500000000000139
 30
0.0
 11
189.67264973080881
 21
19.526370680712521
 31
0.0
  0
LINE
  5
670B
  8
0
 10
189.67264973081029
 20
19.526370680712521
 30
0.0
 11
190.25
 21
20.553821150412318
 31
0.0
  0
LINE
  5
670C
  8
0
 10
186.4823502691911
 20
19.526370680712521
 30
0.0
 11
186.4823502691911
 21
19.500000000000139
 31
0.0
  0
LINE
  5
670D
  8
0
 10
185.905
 20
20.55382115041229
 30
0.0
 11
186.4823502691896
 21
19.526370680712489
 31
0.0
  0
LINE
  5
670E
  8
0
 10
186.4823502691886
 20
19.901402637310749
 30
0.0
 11
186.4823502691886
 21
19.59571286022663
 31
0.0
  0
LINE
  5
670F
  8
0
 10
186.4823502691896
 20
19.59571286022663
 30
0.0
 11
185.905
 21
20.55382115041229
 31
0.0
  0
LINE
  5
6710
  8
0
 10
185.905
 20
20.983212745059429
 30
0.0
 11
186.4823502691896
 21
19.901402637310749
 31
0.0
  0
LINE
  5
6711
  8
0
 10
186.48235026918931
 20
20.715339919595721
 30
0.0
 11
186.48235026918931
 21
20.10841801073062
 31
0.0
  0
LINE
  5
6712
  8
0
 10
186.4823502691896
 20
20.10841801073062
 30
0.0
 11
185.905
 21
20.983212745059429
 31
0.0
  0
LINE
  5
6713
  8
0
 10
185.905
 20
21.83573443799807
 30
0.0
 11
186.4823502691896
 21
20.715339919595721
 31
0.0
  0
LINE
  5
6714
  8
0
 10
186.48235026918681
 20
21.956313489164529
 30
0.0
 11
186.48235026918681
 21
21.057009736618909
 31
0.0
  0
LINE
  5
6715
  8
0
 10
186.4823502691896
 20
21.057009736618909
 30
0.0
 11
185.905
 21
21.83573443799807
 31
0.0
  0
LINE
  5
6716
  8
0
 10
185.905
 20
23.0989545432335
 30
0.0
 11
186.4823502691896
 21
21.956313489164529
 31
0.0
  0
LINE
  5
6717
  8
0
 10
186.48235026918761
 20
23.606227156943731
 30
0.0
 11
186.48235026918761
 21
22.427655434485452
 31
0.0
  0
LINE
  5
6718
  8
0
 10
186.4823502691896
 20
22.427655434485452
 30
0.0
 11
185.905
 21
23.0989545432335
 31
0.0
  0
LINE
  5
6719
  8
0
 10
185.905
 20
24.754452467107431
 30
0.0
 11
186.4823502691896
 21
23.606227156943731
 31
0.0
  0
LINE
  5
671A
  8
0
 10
186.4823502691907
 20
25.641021466375118
 30
0.0
 11
186.4823502691907
 21
24.200368003629961
 31
0.0
  0
LINE
  5
671B
  8
0
 10
186.4823502691896
 20
24.200368003629929
 30
0.0
 11
185.905
 21
24.754452467107459
 31
0.0
  0
LINE
  5
671C
  8
0
 10
185.905
 20
26.778087322033169
 30
0.0
 11
186.4823502691896
 21
25.641021466375118
 31
0.0
  0
LINE
  5
671D
  8
0
 10
186.4823502691882
 20
28.031024534469449
 30
0.0
 11
186.4823502691882
 21
26.34929730299325
 31
0.0
  0
LINE
  5
671E
  8
0
 10
186.4823502691896
 20
26.34929730299325
 30
0.0
 11
185.905
 21
26.778087322033169
 31
0.0
  0
LINE
  5
671F
  8
0
 10
185.905
 20
29.140349954996989
 30
0.0
 11
186.4823502691896
 21
28.031024534469449
 31
0.0
  0
LINE
  5
6720
  8
0
 10
186.48235026918999
 20
30.741384734675648
 30
0.0
 11
186.48235026918999
 21
28.84310710442335
 31
0.0
  0
LINE
  5
6721
  8
0
 10
186.4823502691896
 20
28.84310710442335
 30
0.0
 11
185.905
 21
29.140349954997021
 31
0.0
  0
LINE
  5
6722
  8
0
 10
185.905
 20
31.806793257458139
 30
0.0
 11
186.4823502691896
 21
30.741384734675648
 31
0.0
  0
LINE
  5
6723
  8
0
 10
186.4823502691886
 20
33.732578912075098
 30
0.0
 11
186.4823502691886
 21
31.645432045444689
 31
0.0
  0
LINE
  5
6724
  8
0
 10
186.4823502691896
 20
31.645432045444689
 30
0.0
 11
185.905
 21
31.806793257458139
 31
0.0
  0
LINE
  5
6725
  8
0
 10
185.905
 20
34.738534481759281
 30
0.0
 11
186.4823502691896
 21
33.732578912075098
 31
0.0
  0
LINE
  5
6726
  8
0
 10
186.48235026919269
 20
36.960988719978623
 30
0.0
 11
186.48235026919269
 21
34.715407918131007
 31
0.0
  0
LINE
  5
6727
  8
0
 10
186.4823502691896
 20
34.715407918131007
 30
0.0
 11
185.905
 21
34.738534481759302
 31
0.0
  0
LINE
  5
6728
  8
0
 10
185.905
 20
37.89282223914384
 30
0.0
 11
186.4823502691896
 21
36.960988719978623
 31
0.0
  0
LINE
  5
6729
  8
0
 10
186.4823502691917
 20
40.379536673641176
 30
0.0
 11
186.4823502691917
 21
38.008267561274948
 31
0.0
  0
LINE
  5
672A
  8
0
 10
186.4823502691896
 20
38.008267561274948
 30
0.0
 11
185.905
 21
37.89282223914384
 31
0.0
  0
LINE
  5
672B
  8
0
 10
185.905
 20
41.223659911271682
 30
0.0
 11
186.4823502691896
 21
40.379536673641176
 31
0.0
  0
LINE
  5
672C
  8
0
 10
186.4823502691884
 20
43.938372645998832
 30
0.0
 11
186.4823502691884
 21
41.475993666405223
 31
0.0
  0
LINE
  5
672D
  8
0
 10
186.4823502691896
 20
41.475993666405223
 30
0.0
 11
185.905
 21
41.223659911271682
 31
0.0
  0
LINE
  5
672E
  8
0
 10
185.905
 20
44.682476384489938
 30
0.0
 11
186.4823502691896
 21
43.938372645998832
 31
0.0
  0
LINE
  5
672F
  8
0
 10
186.48235026919119
 20
47.58560079477391
 30
0.0
 11
186.48235026919119
 21
45.068018978269997
 31
0.0
  0
LINE
  5
6730
  8
0
 10
186.4823502691896
 20
45.068018978269997
 30
0.0
 11
185.905
 21
44.682476384489938
 31
0.0
  0
LINE
  5
6731
  8
0
 10
185.905
 20
48.218834326042717
 30
0.0
 11
186.4823502691896
 21
47.58560079477391
 31
0.0
  0
LINE
  5
6732
  8
0
 10
186.48235026918661
 20
51.268036320714678
 30
0.0
 11
186.48235026918661
 21
48.731963679285649
 31
0.0
  0
LINE
  5
6733
  8
0
 10
186.4823502691896
 20
48.731963679285649
 30
0.0
 11
185.905
 21
48.218834326042717
 31
0.0
  0
LINE
  5
6734
  8
0
 10
185.905
 20
51.781165673957609
 30
0.0
 11
186.4823502691896
 21
51.268036320714678
 31
0.0
  0
LINE
  5
6735
  8
0
 10
185.905
 20
55.317523615510389
 30
0.0
 11
186.4823502691896
 21
54.931981021730337
 31
0.0
  0
LINE
  5
6736
  8
0
 10
186.482350269188
 20
54.931981021730337
 30
0.0
 11
186.482350269188
 21
52.414399205226431
 31
0.0
  0
LINE
  5
6737
  8
0
 10
186.4823502691896
 20
52.414399205226431
 30
0.0
 11
185.905
 21
51.781165673957581
 31
0.0
  0
LINE
  5
6738
  8
0
 10
185.905
 20
58.776340088728659
 30
0.0
 11
186.4823502691896
 21
58.524006333595082
 31
0.0
  0
LINE
  5
6739
  8
0
 10
186.4823502691882
 20
58.524006333595082
 30
0.0
 11
186.4823502691882
 21
56.061627354001502
 31
0.0
  0
LINE
  5
673A
  8
0
 10
186.4823502691896
 20
56.061627354001502
 30
0.0
 11
185.905
 21
55.317523615510389
 31
0.0
  0
LINE
  5
673B
  8
0
 10
185.905
 20
62.10717776085648
 30
0.0
 11
186.4823502691896
 21
61.991732438725421
 31
0.0
  0
LINE
  5
673C
  8
0
 10
186.482350269189
 20
61.991732438725421
 30
0.0
 11
186.482350269189
 21
59.620463326359157
 31
0.0
  0
LINE
  5
673D
  8
0
 10
186.4823502691896
 20
59.620463326359157
 30
0.0
 11
185.905
 21
58.776340088728659
 31
0.0
  0
LINE
  5
673E
  8
0
 10
185.905
 20
65.261465518241039
 30
0.0
 11
186.4823502691896
 21
65.284592081869334
 31
0.0
  0
LINE
  5
673F
  8
0
 10
186.48235026918931
 20
65.284592081869334
 30
0.0
 11
186.48235026918931
 21
63.039011280021732
 31
0.0
  0
LINE
  5
6740
  8
0
 10
186.4823502691896
 20
63.039011280021732
 30
0.0
 11
185.905
 21
62.10717776085653
 31
0.0
  0
LINE
  5
6741
  8
0
 10
185.905
 20
68.193206742542202
 30
0.0
 11
186.4823502691896
 21
68.354567954555648
 31
0.0
  0
LINE
  5
6742
  8
0
 10
186.48235026919019
 20
68.354567954555648
 30
0.0
 11
186.48235026919019
 21
66.267421087925243
 31
0.0
  0
LINE
  5
6743
  8
0
 10
186.4823502691896
 20
66.267421087925243
 30
0.0
 11
185.905
 21
65.261465518241039
 31
0.0
  0
LINE
  5
6744
  8
0
 10
185.905
 20
70.85965004500332
 30
0.0
 11
186.4823502691896
 21
71.156892895577016
 31
0.0
  0
LINE
  5
6745
  8
0
 10
186.48235026918459
 20
71.156892895577016
 30
0.0
 11
186.48235026918459
 21
69.258615265324636
 31
0.0
  0
LINE
  5
6746
  8
0
 10
186.4823502691896
 20
69.258615265324693
 30
0.0
 11
185.905
 21
68.193206742542202
 31
0.0
  0
LINE
  5
6747
  8
0
 10
185.905
 20
73.221912677967168
 30
0.0
 11
186.4823502691896
 21
73.650702697007091
 31
0.0
  0
LINE
  5
6748
  8
0
 10
186.48235026918971
 20
73.650702697007091
 30
0.0
 11
186.48235026918971
 21
71.968975465530946
 31
0.0
  0
LINE
  5
6749
  8
0
 10
186.4823502691896
 20
71.968975465530875
 30
0.0
 11
185.905
 21
70.85965004500332
 31
0.0
  0
LINE
  5
674A
  8
0
 10
185.905
 20
75.245547532892886
 30
0.0
 11
186.4823502691896
 21
75.799631996370408
 31
0.0
  0
LINE
  5
674B
  8
0
 10
186.4823502691894
 20
75.799631996370408
 30
0.0
 11
186.4823502691894
 21
74.358978533625191
 31
0.0
  0
LINE
  5
674C
  8
0
 10
186.4823502691896
 20
74.358978533625191
 30
0.0
 11
185.905
 21
73.221912677967168
 31
0.0
  0
LINE
  5
674D
  8
0
 10
185.905
 20
76.901045456766838
 30
0.0
 11
186.4823502691896
 21
77.572344565514925
 31
0.0
  0
LINE
  5
674E
  8
0
 10
186.4823502691917
 20
77.572344565514925
 30
0.0
 11
186.4823502691917
 21
76.393772843056581
 31
0.0
  0
LINE
  5
674F
  8
0
 10
186.4823502691896
 20
76.393772843056624
 30
0.0
 11
185.905
 21
75.245547532892886
 31
0.0
  0
LINE
  5
6750
  8
0
 10
185.905
 20
78.164265562002299
 30
0.0
 11
186.4823502691896
 21
78.942990263381432
 31
0.0
  0
LINE
  5
6751
  8
0
 10
186.482350269189
 20
78.942990263381432
 30
0.0
 11
186.482350269189
 21
78.043686510835812
 31
0.0
  0
LINE
  5
6752
  8
0
 10
186.4823502691896
 20
78.043686510835812
 30
0.0
 11
185.905
 21
76.901045456766838
 31
0.0
  0
LINE
  5
6753
  8
0
 10
185.905
 20
79.016787254940937
 30
0.0
 11
186.4823502691896
 21
79.891581989269696
 31
0.0
  0
LINE
  5
6754
  8
0
 10
186.48235026919059
 20
79.891581989269696
 30
0.0
 11
186.48235026919059
 21
79.284660080404592
 31
0.0
  0
LINE
  5
6755
  8
0
 10
186.4823502691896
 20
79.284660080404592
 30
0.0
 11
185.905
 21
78.164265562002299
 31
0.0
  0
LINE
  5
6756
  8
0
 10
185.905
 20
79.44617884958808
 30
0.0
 11
186.4823502691896
 21
80.404287139773771
 31
0.0
  0
LINE
  5
6757
  8
0
 10
186.4823502691886
 20
80.404287139773771
 30
0.0
 11
186.4823502691886
 21
80.098597362689532
 31
0.0
  0
LINE
  5
6758
  8
0
 10
186.4823502691896
 20
80.098597362689532
 30
0.0
 11
185.905
 21
79.016787254940937
 31
0.0
  0
LINE
  5
6759
  8
0
 10
186.482350269188
 20
80.500000000000156
 30
0.0
 11
186.482350269188
 21
80.473629319287866
 31
0.0
  0
LINE
  5
675A
  8
0
 10
186.4823502691896
 20
80.473629319287866
 30
0.0
 11
185.905
 21
79.44617884958808
 31
0.0
  0
LINE
  5
675B
  8
0
 10
185.327649730812
 20
80.473629319287866
 30
0.0
 11
185.327649730812
 21
80.500000000000156
 31
0.0
  0
LINE
  5
675C
  8
0
 10
185.905
 20
20.500000000000171
 30
0.0
 11
185.905
 21
79.500000000000171
 31
0.0
  0
LINE
  5
675D
  8
0
 10
185.905
 20
79.44617884958808
 30
0.0
 11
185.32764973081029
 21
80.473629319287866
 31
0.0
  0
LINE
  5
675E
  8
0
 10
185.3276497308114
 20
80.098597362689532
 30
0.0
 11
185.3276497308114
 21
80.404287139773771
 31
0.0
  0
LINE
  5
675F
  8
0
 10
185.32764973081029
 20
80.404287139773771
 30
0.0
 11
185.905
 21
79.44617884958808
 31
0.0
  0
LINE
  5
6760
  8
0
 10
185.905
 20
79.016787254940937
 30
0.0
 11
185.32764973081029
 21
80.098597362689532
 31
0.0
  0
LINE
  5
6761
  8
0
 10
185.3276497308093
 20
79.284660080404592
 30
0.0
 11
185.3276497308093
 21
79.891581989269696
 31
0.0
  0
LINE
  5
6762
  8
0
 10
185.32764973081029
 20
79.891581989269696
 30
0.0
 11
185.905
 21
79.01678725494088
 31
0.0
  0
LINE
  5
6763
  8
0
 10
185.905
 20
78.164265562002299
 30
0.0
 11
185.32764973081029
 21
79.284660080404592
 31
0.0
  0
LINE
  5
6764
  8
0
 10
185.327649730811
 20
78.043686510835812
 30
0.0
 11
185.327649730811
 21
78.942990263381432
 31
0.0
  0
LINE
  5
6765
  8
0
 10
185.32764973081029
 20
78.942990263381432
 30
0.0
 11
185.905
 21
78.164265562002299
 31
0.0
  0
LINE
  5
6766
  8
0
 10
185.905
 20
76.901045456766838
 30
0.0
 11
185.32764973081029
 21
78.043686510835812
 31
0.0
  0
LINE
  5
6767
  8
0
 10
185.32764973080819
 20
76.393772843056581
 30
0.0
 11
185.32764973080819
 21
77.572344565514925
 31
0.0
  0
LINE
  5
6768
  8
0
 10
185.32764973081029
 20
77.572344565514925
 30
0.0
 11
185.905
 21
76.901045456766838
 31
0.0
  0
LINE
  5
6769
  8
0
 10
185.905
 20
75.245547532892886
 30
0.0
 11
185.32764973081029
 21
76.393772843056581
 31
0.0
  0
LINE
  5
676A
  8
0
 10
185.32764973081049
 20
74.358978533625191
 30
0.0
 11
185.32764973081049
 21
75.799631996370408
 31
0.0
  0
LINE
  5
676B
  8
0
 10
185.32764973081029
 20
75.799631996370408
 30
0.0
 11
185.905
 21
75.245547532892886
 31
0.0
  0
LINE
  5
676C
  8
0
 10
185.905
 20
73.221912677967168
 30
0.0
 11
185.32764973081029
 21
74.358978533625191
 31
0.0
  0
LINE
  5
676D
  8
0
 10
185.32764973081029
 20
71.968975465530946
 30
0.0
 11
185.32764973081029
 21
73.650702697007091
 31
0.0
  0
LINE
  5
676E
  8
0
 10
185.32764973081029
 20
73.650702697007091
 30
0.0
 11
185.905
 21
73.221912677967168
 31
0.0
  0
LINE
  5
676F
  8
0
 10
185.905
 20
70.85965004500332
 30
0.0
 11
185.32764973081029
 21
71.968975465530875
 31
0.0
  0
LINE
  5
6770
  8
0
 10
185.3276497308153
 20
69.258615265324636
 30
0.0
 11
185.3276497308153
 21
71.156892895577016
 31
0.0
  0
LINE
  5
6771
  8
0
 10
185.32764973081029
 20
71.156892895577016
 30
0.0
 11
185.905
 21
70.85965004500332
 31
0.0
  0
LINE
  5
6772
  8
0
 10
185.905
 20
68.193206742542202
 30
0.0
 11
185.32764973081029
 21
69.258615265324693
 31
0.0
  0
LINE
  5
6773
  8
0
 10
185.3276497308097
 20
66.267421087925243
 30
0.0
 11
185.3276497308097
 21
68.354567954555648
 31
0.0
  0
LINE
  5
6774
  8
0
 10
185.32764973081029
 20
68.354567954555648
 30
0.0
 11
185.905
 21
68.193206742542202
 31
0.0
  0
LINE
  5
6775
  8
0
 10
185.905
 20
65.261465518241039
 30
0.0
 11
185.32764973081029
 21
66.267421087925243
 31
0.0
  0
LINE
  5
6776
  8
0
 10
185.32764973081061
 20
63.039011280021732
 30
0.0
 11
185.32764973081061
 21
65.284592081869334
 31
0.0
  0
LINE
  5
6777
  8
0
 10
185.32764973081029
 20
65.284592081869334
 30
0.0
 11
185.905
 21
65.261465518241039
 31
0.0
  0
LINE
  5
6778
  8
0
 10
185.905
 20
62.10717776085653
 30
0.0
 11
185.32764973081029
 21
63.039011280021732
 31
0.0
  0
LINE
  5
6779
  8
0
 10
185.327649730811
 20
59.620463326359157
 30
0.0
 11
185.327649730811
 21
61.991732438725421
 31
0.0
  0
LINE
  5
677A
  8
0
 10
185.32764973081029
 20
61.991732438725421
 30
0.0
 11
185.905
 21
62.10717776085648
 31
0.0
  0
LINE
  5
677B
  8
0
 10
185.905
 20
58.776340088728659
 30
0.0
 11
185.32764973081029
 21
59.620463326359157
 31
0.0
  0
LINE
  5
677C
  8
0
 10
185.32764973081169
 20
56.061627354001502
 30
0.0
 11
185.32764973081169
 21
58.524006333595082
 31
0.0
  0
LINE
  5
677D
  8
0
 10
185.32764973081029
 20
58.524006333595082
 30
0.0
 11
185.905
 21
58.776340088728659
 31
0.0
  0
LINE
  5
677E
  8
0
 10
185.905
 20
55.317523615510389
 30
0.0
 11
185.32764973081029
 21
56.061627354001502
 31
0.0
  0
LINE
  5
677F
  8
0
 10
185.32764973081191
 20
52.414399205226431
 30
0.0
 11
185.32764973081191
 21
54.931981021730337
 31
0.0
  0
LINE
  5
6780
  8
0
 10
185.32764973081029
 20
54.931981021730337
 30
0.0
 11
185.905
 21
55.317523615510389
 31
0.0
  0
LINE
  5
6781
  8
0
 10
185.905
 20
51.781165673957581
 30
0.0
 11
185.32764973081029
 21
52.414399205226431
 31
0.0
  0
LINE
  5
6782
  8
0
 10
185.905
 20
48.218834326042753
 30
0.0
 11
185.32764973081029
 21
48.731963679285649
 31
0.0
  0
LINE
  5
6783
  8
0
 10
185.32764973081339
 20
48.731963679285649
 30
0.0
 11
185.32764973081339
 21
51.268036320714678
 31
0.0
  0
LINE
  5
6784
  8
0
 10
185.32764973081029
 20
51.268036320714678
 30
0.0
 11
185.905
 21
51.781165673957581
 31
0.0
  0
LINE
  5
6785
  8
0
 10
185.905
 20
44.682476384489938
 30
0.0
 11
185.32764973081029
 21
45.068018978269997
 31
0.0
  0
LINE
  5
6786
  8
0
 10
185.32764973080879
 20
45.068018978269997
 30
0.0
 11
185.32764973080879
 21
47.58560079477391
 31
0.0
  0
LINE
  5
6787
  8
0
 10
185.32764973081029
 20
47.58560079477391
 30
0.0
 11
185.905
 21
48.218834326042717
 31
0.0
  0
LINE
  5
6788
  8
0
 10
185.905
 20
41.223659911271682
 30
0.0
 11
185.32764973081029
 21
41.475993666405223
 31
0.0
  0
LINE
  5
6789
  8
0
 10
185.32764973081149
 20
41.475993666405223
 30
0.0
 11
185.32764973081149
 21
43.938372645998832
 31
0.0
  0
LINE
  5
678A
  8
0
 10
185.32764973081029
 20
43.938372645998832
 30
0.0
 11
185.905
 21
44.682476384489938
 31
0.0
  0
LINE
  5
678B
  8
0
 10
185.905
 20
37.89282223914384
 30
0.0
 11
185.32764973081029
 21
38.008267561274948
 31
0.0
  0
LINE
  5
678C
  8
0
 10
185.32764973080819
 20
38.008267561274948
 30
0.0
 11
185.32764973080819
 21
40.379536673641176
 31
0.0
  0
LINE
  5
678D
  8
0
 10
185.32764973081029
 20
40.379536673641176
 30
0.0
 11
185.905
 21
41.223659911271682
 31
0.0
  0
LINE
  5
678E
  8
0
 10
185.905
 20
34.738534481759302
 30
0.0
 11
185.32764973081029
 21
34.715407918131007
 31
0.0
  0
LINE
  5
678F
  8
0
 10
185.3276497308072
 20
34.715407918131007
 30
0.0
 11
185.3276497308072
 21
36.960988719978623
 31
0.0
  0
LINE
  5
6790
  8
0
 10
185.32764973081029
 20
36.960988719978623
 30
0.0
 11
185.905
 21
37.892822239143811
 31
0.0
  0
LINE
  5
6791
  8
0
 10
185.905
 20
31.806793257458139
 30
0.0
 11
185.32764973081029
 21
31.645432045444689
 31
0.0
  0
LINE
  5
6792
  8
0
 10
185.32764973081129
 20
31.645432045444689
 30
0.0
 11
185.32764973081129
 21
33.732578912075098
 31
0.0
  0
LINE
  5
6793
  8
0
 10
185.32764973081029
 20
33.732578912075098
 30
0.0
 11
185.905
 21
34.738534481759281
 31
0.0
  0
LINE
  5
6794
  8
0
 10
185.905
 20
29.140349954997021
 30
0.0
 11
185.32764973081029
 21
28.84310710442335
 31
0.0
  0
LINE
  5
6795
  8
0
 10
185.3276497308099
 20
28.84310710442335
 30
0.0
 11
185.3276497308099
 21
30.741384734675648
 31
0.0
  0
LINE
  5
6796
  8
0
 10
185.32764973081029
 20
30.741384734675648
 30
0.0
 11
185.905
 21
31.806793257458139
 31
0.0
  0
LINE
  5
6797
  8
0
 10
185.905
 20
26.778087322033169
 30
0.0
 11
185.32764973081029
 21
26.34929730299325
 31
0.0
  0
LINE
  5
6798
  8
0
 10
185.32764973081169
 20
26.34929730299325
 30
0.0
 11
185.32764973081169
 21
28.031024534469449
 31
0.0
  0
LINE
  5
6799
  8
0
 10
185.32764973081029
 20
28.031024534469449
 30
0.0
 11
185.905
 21
29.140349954996989
 31
0.0
  0
LINE
  5
679A
  8
0
 10
185.905
 20
24.754452467107459
 30
0.0
 11
185.32764973081029
 21
24.200368003629929
 31
0.0
  0
LINE
  5
679B
  8
0
 10
185.32764973080921
 20
24.200368003629961
 30
0.0
 11
185.32764973080921
 21
25.641021466375118
 31
0.0
  0
LINE
  5
679C
  8
0
 10
185.32764973081029
 20
25.641021466375118
 30
0.0
 11
185.905
 21
26.778087322033169
 31
0.0
  0
LINE
  5
679D
  8
0
 10
185.905
 20
23.0989545432335
 30
0.0
 11
185.32764973081029
 21
22.427655434485469
 31
0.0
  0
LINE
  5
679E
  8
0
 10
185.3276497308124
 20
22.427655434485452
 30
0.0
 11
185.3276497308124
 21
23.606227156943731
 31
0.0
  0
LINE
  5
679F
  8
0
 10
185.32764973081029
 20
23.606227156943731
 30
0.0
 11
185.905
 21
24.754452467107431
 31
0.0
  0
LINE
  5
67A0
  8
0
 10
185.905
 20
21.83573443799807
 30
0.0
 11
185.32764973081029
 21
21.057009736618909
 31
0.0
  0
LINE
  5
67A1
  8
0
 10
185.32764973081311
 20
21.057009736618909
 30
0.0
 11
185.32764973081311
 21
21.956313489164529
 31
0.0
  0
LINE
  5
67A2
  8
0
 10
185.32764973081029
 20
21.956313489164529
 30
0.0
 11
185.905
 21
23.0989545432335
 31
0.0
  0
LINE
  5
67A3
  8
0
 10
185.905
 20
20.983212745059429
 30
0.0
 11
185.32764973081029
 21
20.10841801073062
 31
0.0
  0
LINE
  5
67A4
  8
0
 10
185.32764973081061
 20
20.10841801073062
 30
0.0
 11
185.32764973081061
 21
20.715339919595721
 31
0.0
  0
LINE
  5
67A5
  8
0
 10
185.32764973081029
 20
20.715339919595721
 30
0.0
 11
185.905
 21
21.83573443799807
 31
0.0
  0
LINE
  5
67A6
  8
0
 10
185.905
 20
20.55382115041229
 30
0.0
 11
185.32764973081029
 21
19.59571286022663
 31
0.0
  0
LINE
  5
67A7
  8
0
 10
185.32764973081129
 20
19.59571286022663
 30
0.0
 11
185.32764973081129
 21
19.901402637310749
 31
0.0
  0
LINE
  5
67A8
  8
0
 10
185.32764973081029
 20
19.901402637310749
 30
0.0
 11
185.905
 21
20.983212745059429
 31
0.0
  0
LINE
  5
67A9
  8
0
 10
185.32764973080879
 20
19.500000000000139
 30
0.0
 11
185.32764973080879
 21
19.526370680712521
 31
0.0
  0
LINE
  5
67AA
  8
0
 10
185.32764973081029
 20
19.526370680712521
 30
0.0
 11
185.905
 21
20.55382115041229
 31
0.0
  0
LINE
  5
67AE
  8
1
 10
14.50000000000035
 20
50.000000000000171
 30
0.0
 11
85.500000000000213
 21
50.000000000000171
 31
0.0
  0
LINE
  5
67AF
  8
1
 10
49.999999999999822
 20
14.50000000000024
 30
0.0
 11
49.999999999999829
 21
85.500000000000085
 31
0.0
  0
CIRCLE
  5
67B0
  8
0
 10
50.000000000000277
 20
50.000000000000078
 30
0.0
 40
28.5
  0
CIRCLE
  5
67B1
  8
0
 10
50.000000000000277
 20
50.000000000000078
 30
0.0
 40
11.50000000000011
  0
CIRCLE
  5
67B2
  8
0
 10
50.000000000000277
 20
50.000000000000078
 30
0.0
 40
8.0000000000001137
  0
ARC
  5
67B3
  8
0
 10
50.000000000005961
 20
50.000000000000249
 30
0.0
 40
30.499999999994341
 50
357.61724342213938
 51
2.3827565778606208
  0
LINE
  5
67B4
  8
0
 10
79.446178849588193
 20
48.218834326042661
 30
0.0
 11
80.473629319287909
 21
48.73196367928557
 31
0.0
  0
LINE
  5
67B5
  8
0
 10
80.473629319287909
 20
51.2680363207146
 30
0.0
 11
79.446178849588193
 21
51.781165673957531
 31
0.0
  0
LINE
  5
67B6
  8
0
 10
80.404287139773885
 20
47.585600794773832
 30
0.0
 11
79.446178849588193
 21
48.218834326042639
 31
0.0
  0
LINE
  5
67B7
  8
0
 10
79.446178849588193
 20
51.78116567395756
 30
0.0
 11
80.404287139773885
 21
52.414399205226367
 31
0.0
  0
ARC
  5
67B8
  8
0
 10
50.000000000001762
 20
49.999999999999368
 30
0.0
 40
30.49999999999843
 50
350.69416649906401
 51
355.45967965478451
  0
LINE
  5
67B9
  8
0
 10
79.016787254940994
 20
44.682476384489881
 30
0.0
 11
80.098597362689645
 21
45.068018978269947
 31
0.0
  0
ARC
  5
67BA
  8
0
 10
49.999999999999261
 20
50.000000000000107
 30
0.0
 40
30.500000000001059
 50
4.540320345215461
 51
9.3058335009376023
  0
LINE
  5
67BB
  8
0
 10
80.098597362689645
 20
54.931981021730252
 30
0.0
 11
79.016787254940994
 21
55.317523615510311
 31
0.0
  0
LINE
  5
67BC
  8
0
 10
79.89158198926981
 20
43.938372645998747
 30
0.0
 11
79.016787254940994
 21
44.682476384489881
 31
0.0
  0
LINE
  5
67BD
  8
0
 10
79.016787254940994
 20
55.317523615510339
 30
0.0
 11
79.89158198926981
 21
56.061627354001409
 31
0.0
  0
ARC
  5
67BE
  8
0
 10
50.000000000003922
 20
49.999999999999709
 30
0.0
 40
30.499999999996341
 50
343.77108957598381
 51
348.53660273170573
  0
LINE
  5
67BF
  8
0
 10
78.164265562002413
 20
41.223659911271618
 30
0.0
 11
79.284660080404763
 21
41.475993666405166
 31
0.0
  0
ARC
  5
67C0
  8
0
 10
50.000000000003119
 20
50.000000000000227
 30
0.0
 40
30.49999999999714
 50
11.46339726829428
 51
16.228910424016188
  0
LINE
  5
67C1
  8
0
 10
79.284660080404649
 20
58.524006333594997
 30
0.0
 11
78.164265562002413
 21
58.776340088728539
 31
0.0
  0
LINE
  5
67C2
  8
0
 10
78.942990263381546
 20
40.379536673641091
 30
0.0
 11
78.164265562002413
 21
41.223659911271596
 31
0.0
  0
LINE
  5
67C3
  8
0
 10
78.164265562002413
 20
58.776340088728602
 30
0.0
 11
78.942990263381546
 21
59.620463326359072
 31
0.0
  0
ARC
  5
67C4
  8
0
 10
49.999999999995282
 20
50.000000000002053
 30
0.0
 40
30.500000000005411
 50
336.84801265290798
 51
341.61352580863002
  0
LINE
  5
67C5
  8
0
 10
76.901045456766894
 20
37.89282223914379
 30
0.0
 11
78.043686510835926
 21
38.00826756127487
 31
0.0
  0
ARC
  5
67C6
  8
0
 10
49.99999999999585
 20
49.999999999998721
 30
0.0
 40
30.500000000004611
 50
18.38647419136997
 51
23.151987347090529
  0
LINE
  5
67C7
  8
0
 10
78.043686510835926
 20
61.991732438725329
 30
0.0
 11
76.901045456766894
 21
62.107177760856437
 31
0.0
  0
LINE
  5
67C8
  8
0
 10
77.572344565515039
 20
36.960988719978531
 30
0.0
 11
76.901045456766894
 21
37.892822239143747
 31
0.0
  0
LINE
  5
67C9
  8
0
 10
76.901045456766894
 20
62.107177760856437
 30
0.0
 11
77.572344565515039
 21
63.03901128002164
 31
0.0
  0
ARC
  5
67CA
  8
0
 10
50.000000000000853
 20
49.999999999999829
 30
0.0
 40
30.4999999999994
 50
329.92493572982971
 51
334.69044888555288
  0
LINE
  5
67CB
  8
0
 10
75.245547532892999
 20
34.738534481759253
 30
0.0
 11
76.393772843056752
 21
34.71540791813095
 31
0.0
  0
ARC
  5
67CC
  8
0
 10
49.999999999998693
 20
49.999999999999233
 30
0.0
 40
30.50000000000178
 50
25.309551114447121
 51
30.075064270170309
  0
LINE
  5
67CD
  8
0
 10
76.393772843056752
 20
65.284592081869249
 30
0.0
 11
75.245547532892999
 21
65.261465518240954
 31
0.0
  0
LINE
  5
67CE
  8
0
 10
75.799631996370465
 20
33.73257891207507
 30
0.0
 11
75.245547532892999
 21
34.738534481759189
 31
0.0
  0
LINE
  5
67CF
  8
0
 10
75.245547532892999
 20
65.261465518240954
 30
0.0
 11
75.799631996370465
 21
66.267421087925158
 31
0.0
  0
ARC
  5
67D0
  8
0
 10
49.999999999999041
 20
49.999999999999851
 30
0.0
 40
30.50000000000086
 50
323.00185880675758
 51
327.76737196247723
  0
LINE
  5
67D1
  8
0
 10
73.221912677967282
 20
31.806793257458089
 30
0.0
 11
74.358978533625361
 21
31.64543204544464
 31
0.0
  0
ARC
  5
67D2
  8
0
 10
50.00000000000437
 20
50.000000000002927
 30
0.0
 40
30.499999999995008
 50
32.232628037523547
 51
36.998141193247562
  0
LINE
  5
67D3
  8
0
 10
74.358978533625361
 20
68.354567954555563
 30
0.0
 11
73.221912677967282
 21
68.193206742542117
 31
0.0
  0
LINE
  5
67D4
  8
0
 10
73.650702697007148
 20
30.74138473467556
 30
0.0
 11
73.221912677967282
 21
31.806793257458089
 31
0.0
  0
LINE
  5
67D5
  8
0
 10
73.221912677967282
 20
68.193206742542117
 30
0.0
 11
73.650702697007148
 21
69.258615265324607
 31
0.0
  0
ARC
  5
67D6
  8
0
 10
50.000000000003809
 20
49.999999999997051
 30
0.0
 40
30.499999999995381
 50
316.07878188368022
 51
320.84429503939913
  0
LINE
  5
67D7
  8
0
 10
70.859650045003434
 20
29.140349954996939
 30
0.0
 11
71.968975465531059
 21
28.843107104423272
 31
0.0
  0
ARC
  5
67D8
  8
0
 10
49.99999999999892
 20
49.999999999999197
 30
0.0
 40
30.500000000001609
 50
39.155704960600872
 51
43.921218116319778
  0
LINE
  5
67D9
  8
0
 10
71.968975465531059
 20
71.156892895576931
 30
0.0
 11
70.859650045003434
 21
70.859650045003235
 31
0.0
  0
LINE
  5
67DA
  8
0
 10
71.156892895577073
 20
28.03102453446937
 30
0.0
 11
70.859650045003434
 21
29.14034995499696
 31
0.0
  0
LINE
  5
67DB
  8
0
 10
70.859650045003434
 20
70.859650045003235
 30
0.0
 11
71.156892895577073
 21
71.96897546553086
 31
0.0
  0
ARC
  5
67DC
  8
0
 10
49.999999999995282
 20
50.000000000005862
 30
0.0
 40
30.500000000007649
 50
309.15570496060189
 51
313.92121811632148
  0
LINE
  5
67DD
  8
0
 10
68.193206742542259
 20
26.778087322033119
 30
0.0
 11
69.258615265324863
 21
26.34929730299319
 31
0.0
  0
ARC
  5
67DE
  8
0
 10
49.999999999997669
 20
49.999999999996483
 30
0.0
 40
30.500000000004441
 50
46.078781883678488
 51
50.844295039402162
  0
LINE
  5
67DF
  8
0
 10
69.25861526532475
 20
73.650702697006935
 30
0.0
 11
68.193206742542259
 21
73.221912677967026
 31
0.0
  0
LINE
  5
67E0
  8
0
 10
68.354567954555762
 20
25.64102146637509
 30
0.0
 11
68.193206742542259
 21
26.778087322033091
 31
0.0
  0
LINE
  5
67E1
  8
0
 10
68.193206742542259
 20
73.221912677967083
 30
0.0
 11
68.354567954555762
 21
74.358978533625162
 31
0.0
  0
ARC
  5
67E2
  8
0
 10
49.999999999998472
 20
50.000000000001648
 30
0.0
 40
30.500000000002309
 50
302.23262803752328
 51
306.99814119324412
  0
LINE
  5
67E3
  8
0
 10
65.261465518241209
 20
24.754452467107399
 30
0.0
 11
66.267421087925356
 21
24.200368003629851
 31
0.0
  0
ARC
  5
67E4
  8
0
 10
49.999999999999261
 20
49.999999999997613
 30
0.0
 40
30.500000000002569
 50
53.001858806756367
 51
57.767371962476723
  0
LINE
  5
67E5
  8
0
 10
66.267421087925356
 20
75.799631996370266
 30
0.0
 11
65.261465518241209
 21
75.245547532892743
 31
0.0
  0
LINE
  5
67E6
  8
0
 10
65.284592081869434
 20
23.606227156943671
 30
0.0
 11
65.261465518241209
 21
24.75445246710737
 31
0.0
  0
LINE
  5
67E7
  8
0
 10
65.261465518241096
 20
75.2455475328928
 30
0.0
 11
65.284592081869434
 21
76.393772843056553
 31
0.0
  0
ARC
  5
67E8
  8
0
 10
49.999999999999829
 20
50.000000000000739
 30
0.0
 40
30.500000000000799
 50
295.30955111444928
 51
300.07506427016563
  0
LINE
  5
67E9
  8
0
 10
62.10717776085658
 20
23.09895454323345
 30
0.0
 11
63.039011280021839
 21
22.427655434485359
 31
0.0
  0
ARC
  5
67EA
  8
0
 10
50.000000000001307
 20
50.00000000000167
 30
0.0
 40
30.499999999998131
 50
59.924935729834438
 51
64.690448885550722
  0
LINE
  5
67EB
  8
0
 10
63.039011280021839
 20
77.57234456551484
 30
0.0
 11
62.10717776085658
 21
76.901045456766752
 31
0.0
  0
LINE
  5
67EC
  8
0
 10
61.991732438725471
 20
21.95631348916444
 30
0.0
 11
62.10717776085658
 21
23.09895454323345
 31
0.0
  0
LINE
  5
67ED
  8
0
 10
62.10717776085658
 20
76.901045456766752
 30
0.0
 11
61.991732438725471
 21
78.043686510835727
 31
0.0
  0
ARC
  5
67EE
  8
0
 10
49.999999999997783
 20
50.000000000007141
 30
0.0
 40
30.50000000000745
 50
288.38647419137021
 51
293.15198734708798
  0
LINE
  5
67EF
  8
0
 10
58.77634008872878
 20
21.835734437997989
 30
0.0
 11
59.620463326359243
 21
21.057009736618848
 31
0.0
  0
ARC
  5
67F0
  8
0
 10
49.999999999999709
 20
49.999999999997101
 30
0.0
 40
30.50000000000297
 50
66.848012652912047
 51
71.613525808629774
  0
LINE
  5
67F1
  8
0
 10
59.620463326359243
 20
78.94299026338129
 30
0.0
 11
58.77634008872878
 21
78.164265562002157
 31
0.0
  0
LINE
  5
67F2
  8
0
 10
58.524006333595189
 20
20.715339919595628
 30
0.0
 11
58.77634008872878
 21
21.835734437997989
 31
0.0
  0
LINE
  5
67F3
  8
0
 10
58.77634008872878
 20
78.164265562002214
 30
0.0
 11
58.524006333595189
 21
79.284660080404564
 31
0.0
  0
ARC
  5
67F4
  8
0
 10
49.999999999999829
 20
50.000000000001528
 30
0.0
 40
30.50000000000151
 50
281.46339726829029
 51
286.22891042401238
  0
LINE
  5
67F5
  8
0
 10
55.317523615510531
 20
20.98321274505938
 30
0.0
 11
56.06162735400158
 21
20.10841801073056
 31
0.0
  0
ARC
  5
67F6
  8
0
 10
49.999999999999943
 20
49.999999999996703
 30
0.0
 40
30.500000000003361
 50
73.771089575987617
 51
78.536602731709706
  0
LINE
  5
67F7
  8
0
 10
56.06162735400158
 20
79.891581989269611
 30
0.0
 11
55.317523615510531
 21
79.016787254940795
 31
0.0
  0
LINE
  5
67F8
  8
0
 10
54.931981021730451
 20
19.901402637310671
 30
0.0
 11
55.317523615510531
 21
20.983212745059351
 31
0.0
  0
LINE
  5
67F9
  8
0
 10
55.317523615510417
 20
79.016787254940795
 30
0.0
 11
54.931981021730451
 21
80.098597362689503
 31
0.0
  0
ARC
  5
67FA
  8
0
 10
50.000000000000171
 20
50.00000000000167
 30
0.0
 40
30.500000000001609
 50
274.54032034521708
 51
279.30583350093451
  0
LINE
  5
67FB
  8
0
 10
51.781165673957787
 20
20.553821150412229
 30
0.0
 11
52.414399205226509
 21
19.595712860226481
 31
0.0
  0
ARC
  5
67FC
  8
0
 10
49.99999999999914
 20
49.999999999988567
 30
0.0
 40
30.500000000011539
 50
80.694166499065474
 51
85.459679654782917
  0
LINE
  5
67FD
  8
0
 10
52.414399205226509
 20
80.404287139773686
 30
0.0
 11
51.781165673957787
 21
79.446178849587938
 31
0.0
  0
LINE
  5
67FE
  8
0
 10
51.268036320714771
 20
19.526370680712368
 30
0.0
 11
51.781165673957787
 21
20.553821150412229
 31
0.0
  0
LINE
  5
67FF
  8
0
 10
51.781165673957787
 20
79.446178849587938
 30
0.0
 11
51.268036320714771
 21
80.473629319287767
 31
0.0
  0
ARC
  5
6800
  8
0
 10
50.000000000000853
 20
49.999999999998693
 30
0.0
 40
30.499999999998629
 50
267.61724342213608
 51
272.38275657785738
  0
LINE
  5
6801
  8
0
 10
48.218834326042888
 20
20.553821150412229
 30
0.0
 11
48.731963679285798
 21
19.5263706807124
 31
0.0
  0
ARC
  5
6802
  8
0
 10
50.000000000000171
 20
50.000000000000881
 30
0.0
 40
30.499999999999218
 50
87.617243422136085
 51
92.382756577857407
  0
LINE
  5
6803
  8
0
 10
48.731963679285798
 20
80.473629319287767
 30
0.0
 11
48.218834326042781
 21
79.446178849587938
 31
0.0
  0
LINE
  5
6804
  8
0
 10
47.585600794774052
 20
19.595712860226541
 30
0.0
 11
48.218834326042781
 21
20.553821150412229
 31
0.0
  0
LINE
  5
6805
  8
0
 10
48.218834326042888
 20
79.446178849587938
 30
0.0
 11
47.585600794774052
 21
80.404287139773686
 31
0.0
  0
ARC
  5
6806
  8
0
 10
49.999999999999368
 20
49.999999999997982
 30
0.0
 40
30.49999999999779
 50
260.69416649906549
 51
265.45967965478292
  0
LINE
  5
6807
  8
0
 10
44.682476384490023
 20
20.983212745059351
 30
0.0
 11
45.068018978270118
 21
19.901402637310671
 31
0.0
  0
ARC
  5
6808
  8
0
 10
50.000000000001883
 20
49.999999999988148
 30
0.0
 40
30.500000000012012
 50
94.540320345217069
 51
99.305833500934511
  0
LINE
  5
6809
  8
0
 10
45.068018978270118
 20
80.098597362689446
 30
0.0
 11
44.682476384490023
 21
79.016787254940795
 31
0.0
  0
LINE
  5
680A
  8
0
 10
43.938372645998967
 20
20.108418010730531
 30
0.0
 11
44.682476384490023
 21
20.983212745059351
 31
0.0
  0
LINE
  5
680B
  8
0
 10
44.682476384490023
 20
79.016787254940795
 30
0.0
 11
43.938372645998967
 21
79.891581989269611
 31
0.0
  0
ARC
  5
680C
  8
0
 10
50.000000000000853
 20
50.000000000000988
 30
0.0
 40
30.500000000001041
 50
253.77108957598759
 51
258.536602731703
  0
LINE
  5
680D
  8
0
 10
41.223659911271788
 20
21.835734437997989
 30
0.0
 11
41.475993666405373
 21
20.715339919595628
 31
0.0
  0
ARC
  5
680E
  8
0
 10
50.000000000001187
 20
49.999999999997442
 30
0.0
 40
30.500000000002789
 50
101.463397268297
 51
106.2289104240123
  0
LINE
  5
680F
  8
0
 10
41.475993666405373
 20
79.284660080404507
 30
0.0
 11
41.223659911271788
 21
78.164265562002157
 31
0.0
  0
LINE
  5
6810
  8
0
 10
40.379536673641319
 20
21.05700973661882
 30
0.0
 11
41.223659911271788
 21
21.835734437997989
 31
0.0
  0
LINE
  5
6811
  8
0
 10
41.223659911271788
 20
78.164265562002157
 30
0.0
 11
40.379536673641319
 21
78.942990263381347
 31
0.0
  0
ARC
  5
6812
  8
0
 10
49.999999999998472
 20
49.999999999995246
 30
0.0
 40
30.499999999994859
 50
246.84801265290511
 51
251.6135258086297
  0
LINE
  5
6813
  8
0
 10
37.892822239143982
 20
23.09895454323345
 30
0.0
 11
38.00826756127509
 21
21.95631348916444
 31
0.0
  0
ARC
  5
6814
  8
0
 10
49.999999999999943
 20
50.000000000000369
 30
0.0
 40
30.499999999999609
 50
108.3864741913702
 51
113.1519873470879
  0
LINE
  5
6815
  8
0
 10
38.00826756127509
 20
78.043686510835727
 30
0.0
 11
37.892822239143982
 21
76.901045456766752
 31
0.0
  0
LINE
  5
6816
  8
0
 10
36.960988719978729
 20
22.427655434485391
 30
0.0
 11
37.892822239143982
 21
23.09895454323345
 31
0.0
  0
LINE
  5
6817
  8
0
 10
37.892822239143982
 20
76.901045456766752
 30
0.0
 11
36.960988719978729
 21
77.57234456551484
 31
0.0
  0
ARC
  5
6818
  8
0
 10
49.99999999999914
 20
49.999999999998948
 30
0.0
 40
30.499999999998469
 50
239.9249357298344
 51
244.69044888555069
  0
LINE
  5
6819
  8
0
 10
34.738534481759473
 20
24.754452467107399
 30
0.0
 11
34.71540791813112
 21
23.60622715694365
 31
0.0
  0
ARC
  5
681A
  8
0
 10
50.000000000001883
 20
49.999999999996838
 30
0.0
 40
30.500000000003642
 50
115.30955111444921
 51
120.0750642701655
  0
LINE
  5
681B
  8
0
 10
34.71540791813112
 20
76.393772843056496
 30
0.0
 11
34.738534481759359
 21
75.2455475328928
 31
0.0
  0
LINE
  5
681C
  8
0
 10
33.732578912075212
 20
24.200368003629851
 30
0.0
 11
34.738534481759359
 21
24.754452467107399
 31
0.0
  0
LINE
  5
681D
  8
0
 10
34.738534481759473
 20
75.2455475328928
 30
0.0
 11
33.732578912075212
 21
75.799631996370323
 31
0.0
  0
ARC
  5
681E
  8
0
 10
50.000000000005294
 20
50.000000000007503
 30
0.0
 40
30.5000000000089
 50
233.00185880675639
 51
237.76737196247669
  0
LINE
  5
681F
  8
0
 10
31.80679325745831
 20
26.778087322033119
 30
0.0
 11
31.64543204544481
 21
25.64102146637504
 31
0.0
  0
ARC
  5
6820
  8
0
 10
49.999999999994706
 20
50.000000000008328
 30
0.0
 40
30.499999999990049
 50
122.2326280375233
 51
126.99814119324409
  0
LINE
  5
6821
  8
0
 10
31.64543204544481
 20
74.358978533625105
 30
0.0
 11
31.80679325745831
 21
73.221912677967026
 31
0.0
  0
LINE
  5
6822
  8
0
 10
30.741384734675819
 20
26.349297302993168
 30
0.0
 11
31.80679325745831
 21
26.778087322033119
 31
0.0
  0
LINE
  5
6823
  8
0
 10
31.80679325745831
 20
73.221912677967083
 30
0.0
 11
30.741384734675819
 21
73.650702697007006
 31
0.0
  0
ARC
  5
6824
  8
0
 10
50.000000000000277
 20
50.000000000000028
 30
0.0
 40
30.499999999999929
 50
226.07878188367849
 51
230.8442950394022
  0
LINE
  5
6825
  8
0
 10
29.140349954997141
 20
29.140349954996939
 30
0.0
 11
28.843107104423488
 21
28.03102453446937
 31
0.0
  0
ARC
  5
6826
  8
0
 10
50.000000000001307
 20
49.999999999998117
 30
0.0
 40
30.50000000000216
 50
129.15570496059729
 51
133.92121811632151
  0
LINE
  5
6827
  8
0
 10
28.843107104423382
 20
71.96897546553086
 30
0.0
 11
29.140349954997141
 21
70.859650045003235
 31
0.0
  0
LINE
  5
6828
  8
0
 10
28.031024534469509
 20
28.843107104423272
 30
0.0
 11
29.140349954997141
 21
29.140349954996939
 31
0.0
  0
LINE
  5
6829
  8
0
 10
29.140349954997141
 20
70.859650045003235
 30
0.0
 11
28.031024534469619
 21
71.156892895576931
 31
0.0
  0
ARC
  5
682A
  8
0
 10
49.99999999999892
 20
49.999999999998643
 30
0.0
 40
30.499999999997989
 50
219.1557049606009
 51
223.92121811631981
  0
LINE
  5
682B
  8
0
 10
26.77808732203329
 20
31.80679325745805
 30
0.0
 11
26.349297302993421
 21
30.74138473467556
 31
0.0
  0
ARC
  5
682C
  8
0
 10
49.999999999994138
 20
50.000000000005862
 30
0.0
 40
30.499999999991608
 50
136.07878188368019
 51
140.8442950393997
  0
LINE
  5
682D
  8
0
 10
26.349297302993421
 20
69.258615265324607
 30
0.0
 11
26.77808732203329
 21
68.193206742542117
 31
0.0
  0
LINE
  5
682E
  8
0
 10
25.641021466375211
 20
31.645432045444611
 30
0.0
 11
26.77808732203329
 21
31.80679325745805
 31
0.0
  0
LINE
  5
682F
  8
0
 10
26.77808732203329
 20
68.193206742542117
 30
0.0
 11
25.641021466375211
 21
68.354567954555563
 31
0.0
  0
ARC
  5
6830
  8
0
 10
49.999999999995957
 20
49.999999999997222
 30
0.0
 40
30.49999999999477
 50
212.2326280375236
 51
216.99814119324751
  0
LINE
  5
6831
  8
0
 10
24.754452467107569
 20
34.738534481759217
 30
0.0
 11
24.200368003630111
 21
33.732578912075013
 31
0.0
  0
ARC
  5
6832
  8
0
 10
50.000000000004597
 20
49.999999999996582
 30
0.0
 40
30.500000000005521
 50
143.00185880675241
 51
147.76737196247331
  0
LINE
  5
6833
  8
0
 10
24.20036800362999
 20
66.267421087925158
 30
0.0
 11
24.754452467107569
 21
65.261465518240954
 31
0.0
  0
LINE
  5
6834
  8
0
 10
23.60622715694382
 20
34.715407918130921
 30
0.0
 11
24.754452467107569
 21
34.738534481759217
 31
0.0
  0
LINE
  5
6835
  8
0
 10
24.754452467107569
 20
65.261465518240954
 30
0.0
 11
23.60622715694382
 21
65.284592081869249
 31
0.0
  0
ARC
  5
6836
  8
0
 10
50.000000000004832
 20
50.000000000002593
 30
0.0
 40
30.500000000005208
 50
205.30955111444709
 51
210.07506427017029
  0
LINE
  5
6837
  8
0
 10
23.09895454323367
 20
37.892822239143747
 30
0.0
 11
22.42765543448553
 21
36.960988719978531
 31
0.0
  0
ARC
  5
6838
  8
0
 10
49.999999999996653
 20
50.000000000002132
 30
0.0
 40
30.499999999995818
 50
149.92493572982971
 51
154.6904488855543
  0
LINE
  5
6839
  8
0
 10
22.42765543448553
 20
63.03901128002164
 30
0.0
 11
23.09895454323367
 21
62.107177760856388
 31
0.0
  0
LINE
  5
683A
  8
0
 10
21.956313489164639
 20
38.00826756127487
 30
0.0
 11
23.09895454323367
 21
37.892822239143747
 31
0.0
  0
LINE
  5
683B
  8
0
 10
23.09895454323367
 20
62.107177760856388
 30
0.0
 11
21.956313489164639
 21
61.991732438725329
 31
0.0
  0
ARC
  5
683C
  8
0
 10
50.000000000002217
 20
50.000000000000853
 30
0.0
 40
30.500000000002039
 50
198.38647419137001
 51
203.15198734709199
  0
LINE
  5
683D
  8
0
 10
21.835734437998148
 20
41.223659911271596
 30
0.0
 11
21.057009736619019
 21
40.379536673641091
 31
0.0
  0
ARC
  5
683E
  8
0
 10
49.999999999992887
 20
50.000000000002593
 30
0.0
 40
30.499999999992252
 50
156.8480126529052
 51
161.61352580862999
  0
LINE
  5
683F
  8
0
 10
21.057009736619019
 20
59.620463326359072
 30
0.0
 11
21.835734437998148
 21
58.776340088728539
 31
0.0
  0
LINE
  5
6840
  8
0
 10
20.715339919595809
 20
41.475993666405138
 30
0.0
 11
21.835734437998148
 21
41.223659911271596
 31
0.0
  0
LINE
  5
6841
  8
0
 10
21.835734437998148
 20
58.776340088728567
 30
0.0
 11
20.715339919595809
 21
58.524006333594997
 31
0.0
  0
ARC
  5
6842
  8
0
 10
49.99999999999573
 20
49.99999999999892
 30
0.0
 40
30.499999999995332
 50
191.46339726829271
 51
196.2289104240154
  0
LINE
  5
6843
  8
0
 10
20.983212745059571
 20
44.682476384489853
 30
0.0
 11
20.108418010730759
 21
43.938372645998747
 31
0.0
  0
ARC
  5
6844
  8
0
 10
49.999999999997101
 20
50.000000000000909
 30
0.0
 40
30.499999999996689
 50
163.7710895759846
 51
168.5366027317057
  0
LINE
  5
6845
  8
0
 10
20.108418010730759
 20
56.061627354001409
 30
0.0
 11
20.983212745059571
 21
55.317523615510311
 31
0.0
  0
LINE
  5
6846
  8
0
 10
19.90140263731092
 20
45.068018978269912
 30
0.0
 11
20.983212745059571
 21
44.682476384489853
 31
0.0
  0
LINE
  5
6847
  8
0
 10
20.983212745059571
 20
55.317523615510311
 30
0.0
 11
19.90140263731092
 21
54.931981021730252
 31
0.0
  0
ARC
  5
6848
  8
0
 10
49.999999999998472
 20
49.999999999999709
 30
0.0
 40
30.499999999998149
 50
184.54032034521541
 51
189.30583350093761
  0
LINE
  5
6849
  8
0
 10
20.553821150412379
 20
48.218834326042639
 30
0.0
 11
19.59571286022668
 21
47.585600794773832
 31
0.0
  0
ARC
  5
684A
  8
0
 10
50.000000000000277
 20
49.999999999999488
 30
0.0
 40
30.50000000000011
 50
170.6941664990602
 51
175.45967965478289
  0
LINE
  5
684B
  8
0
 10
19.59571286022668
 20
52.414399205226339
 30
0.0
 11
20.553821150412379
 21
51.781165673957503
 31
0.0
  0
LINE
  5
684C
  8
0
 10
19.52637068071266
 20
48.73196367928557
 30
0.0
 11
20.553821150412379
 21
48.218834326042639
 31
0.0
  0
LINE
  5
684D
  8
0
 10
20.553821150412379
 20
51.781165673957531
 30
0.0
 11
19.52637068071266
 21
51.2680363207146
 31
0.0
  0
ARC
  5
684E
  8
0
 10
49.999999999991083
 20
50.000000000000078
 30
0.0
 40
30.499999999990749
 50
177.6172434221393
 51
182.38275657786059
  0
CIRCLE
  5
684F
  8
0
 10
49.999999999998693
 20
49.999999999999922
 30
0.0
 40
29.49999999999843
  0
CIRCLE
  5
685C
  8
0
 10
50.000000000000277
 20
50.000000000000171
 30
0.0
 40
6.0000000000000284
  0
CIRCLE
  5
685D
  8
3
 10
49.999999999999773
 20
50.000000000000171
 30
0.0
 40
5.0530000000000248
  0
LINE
  5
6CF5
  8
0
 10
132.5735
 20
56.000000000000171
 30
0.0
 11
131.5
 21
54.926500000000182
 31
0.0
  0
LINE
  5
6CF6
  8
0
 10
131.5
 20
45.073500000000159
 30
0.0
 11
132.5735
 21
44.000000000000171
 31
0.0
  0
LINE
  5
6CF7
  8
0
 10
161.5
 20
56.000000000000171
 30
0.0
 11
132.5735
 21
56.000000000000171
 31
0.0
  0
LINE
  5
6CF8
  8
0
 10
132.5735
 20
44.000000000000171
 30
0.0
 11
161.5
 21
44.000000000000171
 31
0.0
  0
LINE
  5
7055
  8
0
 10
131.5
 20
45.073500000000159
 30
0.0
 11
131.5
 21
54.926500000000182
 31
0.0
  0
LINE
  5
7056
  8
0
 10
132.5735
 20
44.000000000000171
 30
0.0
 11
132.5735
 21
56.000000000000171
 31
0.0
  0
LINE
  5
7057
  8
3
 10
131.62650000000011
 20
55.053000000000253
 30
0.0
 11
160.5
 21
55.053000000000232
 31
0.0
  0
LINE
  5
7058
  8
3
 10
161.38216115510011
 20
56.000000000000171
 30
0.0
 11
160.5
 21
55.053000000000232
 31
0.0
  0
LINE
  5
7059
  8
0
 10
160.5
 20
56.000000000000171
 30
0.0
 11
160.5
 21
44.000000000000171
 31
0.0
  0
LINE
  5
705A
  8
3
 10
131.62649999999999
 20
44.947000000000152
 30
0.0
 11
160.5
 21
44.947000000000152
 31
0.0
  0
LINE
  5
705B
  8
3
 10
161.38216115510011
 20
44.000000000000171
 30
0.0
 11
160.5
 21
44.947000000000152
 31
0.0
  0
TEXT
  5
70D7
  8
0
 62
     3
 10
0.0
 20
0.0
 30
0.0
 40
10.0
  1
GK60AX30N-RE
  7
STANDARD1
  0
ENDSEC
  0
EOF
