  0
SECTION
  2
HEADER
  9
$ACADVER
  1
AC1009
  9
$INSBASE
 10
0.0
 20
0.0
 30
0.0
  9
$EXTMIN
 10
0.0
 20
-2.960436562073669
 30
0.0
  9
$EXTMAX
 10
250.00000000000031
 20
79.999999999999915
 30
0.0
  9
$LIMMIN
 10
0.0
 20
0.0
  9
$LIMMAX
 10
187.5
 20
135.0
  9
$ORTHOMODE
 70
     1
  9
$REGENMODE
 70
     1
  9
$FILLMODE
 70
     1
  9
$QTEXTMODE
 70
     0
  9
$MIRRTEXT
 70
     0
  9
$DRAGMODE
 70
     2
  9
$LTSCALE
 40
5.0
  9
$OSMODE
 70
    37
  9
$ATTMODE
 70
     1
  9
$TEXTSIZE
 40
2.5000000000000488
  9
$TRACEWID
 40
0.05
  9
$TEXTSTYLE
  7
STANDARD
  9
$CLAYER
  8
0
  9
$CELTYPE
  6
BYLAYER
  9
$CECOLOR
 62
   256
  9
$DIMSCALE
 40
0.5
  9
$DIMASZ
 40
3.0
  9
$DIMEXO
 40
2.0
  9
$DIMDLI
 40
0.38
  9
$DIMRND
 40
0.0
  9
$DIMDLE
 40
0.0
  9
$DIMEXE
 40
2.0
  9
$DIMTP
 40
0.0
  9
$DIMTM
 40
0.0
  9
$DIMTXT
 40
3.2000000000000002
  9
$DIMCEN
 40
0.0
  9
$DIMTSZ
 40
0.0
  9
$DIMTOL
 70
     0
  9
$DIMLIM
 70
     0
  9
$DIMTIH
 70
     0
  9
$DIMTOH
 70
     0
  9
$DIMSE1
 70
     0
  9
$DIMSE2
 70
     0
  9
$DIMTAD
 70
     1
  9
$DIMZIN
 70
     0
  9
$DIMBLK
  1

  9
$DIMASO
 70
     1
  9
$DIMSHO
 70
     0
  9
$DIMPOST
  1

  9
$DIMAPOST
  1

  9
$DIMALT
 70
     0
  9
$DIMALTD
 70
     2
  9
$DIMALTF
 40
25.399999999999999
  9
$DIMLFAC
 40
1.0
  9
$DIMTOFL
 70
     1
  9
$DIMTVP
 40
1.6000000000000001
  9
$DIMTIX
 70
     1
  9
$DIMSOXD
 70
     0
  9
$DIMSAH
 70
     0
  9
$DIMBLK1
  1

  9
$DIMBLK2
  1

  9
$DIMSTYLE
  2
STANDARD
  9
$DIMCLRD
 70
     0
  9
$DIMCLRE
 70
     0
  9
$DIMCLRT
 70
     0
  9
$DIMTFAC
 40
1.0
  9
$DIMGAP
 40
0.09
  9
$LUNITS
 70
     2
  9
$LUPREC
 70
     1
  9
$SKETCHINC
 40
0.1
  9
$FILLETRAD
 40
0.0
  9
$AUNITS
 70
     0
  9
$AUPREC
 70
     1
  9
$MENU
  1
E:\r13\win\SUPPORT\ACAD
  9
$ELEVATION
 40
0.0
  9
$PELEVATION
 40
0.0
  9
$THICKNESS
 40
0.0
  9
$LIMCHECK
 70
     0
  9
$BLIPMODE
 70
     0
  9
$CHAMFERA
 40
0.0
  9
$CHAMFERB
 40
0.0
  9
$SKPOLY
 70
     0
  9
$TDCREATE
 40
2449839.787418982
  9
$TDUPDATE
 40
2457162.602865614
  9
$TDINDWG
 40
0.2563611574
  9
$TDUSRTIMER
 40
0.2563611574
  9
$USRTIMER
 70
     1
  9
$ANGBASE
 50
0.0
  9
$ANGDIR
 70
     0
  9
$PDMODE
 70
     0
  9
$PDSIZE
 40
0.0
  9
$PLINEWID
 40
0.0
  9
$COORDS
 70
     1
  9
$SPLFRAME
 70
     0
  9
$SPLINETYPE
 70
     6
  9
$SPLINESEGS
 70
     8
  9
$ATTDIA
 70
     0
  9
$ATTREQ
 70
     1
  9
$HANDLING
 70
     1
  9
$HANDSEED
  5
45ED
  9
$SURFTAB1
 70
     6
  9
$SURFTAB2
 70
     6
  9
$SURFTYPE
 70
     6
  9
$SURFU
 70
     6
  9
$SURFV
 70
     6
  9
$UCSNAME
  2

  9
$UCSORG
 10
0.0
 20
0.0
 30
0.0
  9
$UCSXDIR
 10
1.0
 20
0.0
 30
0.0
  9
$UCSYDIR
 10
0.0
 20
1.0
 30
0.0
  9
$PUCSNAME
  2

  9
$PUCSORG
 10
0.0
 20
0.0
 30
0.0
  9
$PUCSXDIR
 10
1.0
 20
0.0
 30
0.0
  9
$PUCSYDIR
 10
0.0
 20
1.0
 30
0.0
  9
$USERI1
 70
     0
  9
$USERI2
 70
     1
  9
$USERI3
 70
     1
  9
$USERI4
 70
     0
  9
$USERI5
 70
     0
  9
$USERR1
 40
0.0
  9
$USERR2
 40
0.0
  9
$USERR3
 40
0.0
  9
$USERR4
 40
0.0
  9
$USERR5
 40
0.0
  9
$WORLDVIEW
 70
     1
  9
$SHADEDGE
 70
     3
  9
$SHADEDIF
 70
    70
  9
$TILEMODE
 70
     1
  9
$MAXACTVP
 70
    16
  9
$PLIMCHECK
 70
     0
  9
$PEXTMIN
 10
1.0000000000000000E+020
 20
1.0000000000000000E+020
 30
1.0000000000000000E+020
  9
$PEXTMAX
 10
-1.0000000000000000E+020
 20
-1.0000000000000000E+020
 30
-1.0000000000000000E+020
  9
$PLIMMIN
 10
0.0
 20
0.0
  9
$PLIMMAX
 10
12.0
 20
9.0
  9
$UNITMODE
 70
     0
  9
$VISRETAIN
 70
     0
  9
$PLINEGEN
 70
     0
  9
$PSLTSCALE
 70
     0
  0
ENDSEC
  0
SECTION
  2
TABLES
  0
TABLE
  2
VPORT
 70
     1
  0
VPORT
  2
*ACTIVE
 70
     0
 10
0.0
 20
0.0
 11
1.0
 21
1.0
 12
245.1941949864445
 22
135.0
 13
0.0
 23
0.0
 14
5.0
 24
5.0
 15
5.0
 25
5.0
 16
0.0
 26
0.0
 36
1.0
 17
0.0
 27
0.0
 37
0.0
 40
270.01624258579358
 41
1.816239316239316
 42
50.0
 43
0.0
 44
0.0
 50
0.0
 51
0.0
 71
     0
 72
   500
 73
     1
 74
     0
 75
     0
 76
     0
 77
     0
 78
     2
  0
ENDTAB
  0
TABLE
  2
LTYPE
 70
     3
  0
LTYPE
  2
CONTINUOUS
 70
     0
  3
Solid Line
 72
    65
 73
     0
 40
0.0
  0
LTYPE
  2
CENTER
 70
     0
  3
____ _ ____ _ ____ _ ____ _ ____ _ ____ _ ____
 72
    65
 73
     4
 40
2.0
 49
1.25
 49
-0.25
 49
0.25
 49
-0.25
  0
LTYPE
  2
PHANTOM2
 70
     0
  3
___ _ _ ___ _ _ ___ _ _ ___ _ _
 72
    65
 73
     6
 40
1.25
 49
0.625
 49
-0.125
 49
0.125
 49
-0.125
 49
0.125
 49
-0.125
  0
ENDTAB
  0
TABLE
  2
LAYER
 70
     3
  0
LAYER
  2
0
 70
     0
 62
     7
  6
CONTINUOUS
  0
LAYER
  2
1
 70
     0
 62
     1
  6
CENTER
  0
LAYER
  2
3
 70
     0
 62
     3
  6
CONTINUOUS
  0
ENDTAB
  0
TABLE
  2
STYLE
 70
     2
  0
STYLE
  2
STANDARD
 70
     0
 40
0.0
 41
1.0
 50
0.0
 71
     0
 42
2.5000000000000488
  3
TXT
  4
BIGFONT
  0
STYLE
  2
STANDARD1
 70
     0
 40
0.0
 41
1.0
 50
0.0
 71
     0
 42
3.0
  3
txt
  4

  0
ENDTAB
  0
TABLE
  2
VIEW
 70
     2
  0
VIEW
  2
ALL
 70
     0
 40
135.0
 10
110.4957983193277
 20
67.5
 41
0.0
 11
0.0
 21
0.0
 31
1.0
 12
0.0
 22
0.0
 32
0.0
 42
0.0
 43
0.0
 44
0.0
 50
0.0
 71
     0
  0
VIEW
  2
OLE1
 70
     0
 40
63.825144965398117
 10
233.6237691698706
 20
4.175601147383162
 41
113.79500935111911
 11
0.0
 21
0.0
 31
1.0
 12
0.0
 22
0.0
 32
0.0
 42
50.0
 43
0.0
 44
0.0
 50
0.0
 71
     0
  0
ENDTAB
  0
TABLE
  2
UCS
 70
     0
  0
ENDTAB
  0
TABLE
  2
APPID
 70
     6
  0
APPID
  2
ACAD
 70
     0
  0
APPID
  2
ACAD_EXEMPT_FROM_CAD_STANDARDS
 70
     0
  0
APPID
  2
ACAD_MLEADERVER
 70
     0
  0
APPID
  2
ACAD_DSTYLE_DIMJAG
 70
     0
  0
APPID
  2
ACAD_DSTYLE_DIMTALN
 70
     0
  0
APPID
  2
ACAD_NAV_VCDISPLAY
 70
     0
  0
ENDTAB
  0
TABLE
  2
DIMSTYLE
 70
     1
  0
DIMSTYLE
  2
STANDARD
 70
     0
  3

  4

  5

  6

  7

 40
1.0
 41
0.18
 42
0.0625
 43
0.38
 44
0.18
 45
0.0
 46
0.0
 47
0.0
 48
0.0
140
0.18
141
0.09
142
0.0
143
25.399999999999999
144
1.0
145
0.0
146
1.0
147
0.09
 71
     0
 72
     0
 73
     1
 74
     1
 75
     0
 76
     0
 77
     0
 78
     0
170
     0
171
     2
172
     0
173
     0
174
     0
175
     0
176
     0
177
     0
178
     0
  0
ENDTAB
  0
ENDSEC
  0
SECTION
  2
BLOCKS
  0
BLOCK
  8
0
  2
$MODEL_SPACE
 70
     0
 10
0.0
 20
0.0
 30
0.0
  3
$MODEL_SPACE
  1

  0
ENDBLK
  5
85E
  8
0
  0
BLOCK
 67
     1
  8
0
  2
$PAPER_SPACE
 70
     0
 10
0.0
 20
0.0
 30
0.0
  3
$PAPER_SPACE
  1

  0
ENDBLK
  5
85C
 67
     1
  8
0
  0
ENDSEC
  0
SECTION
  2
ENTITIES
  0
LINE
  5
3909
  8
1
 10
190.00000000000071
 20
50.000000000000078
 30
0.0
 11
250.00000000000031
 21
50.000000000000078
 31
0.0
  0
LINE
  5
390A
  8
1
 10
220.00000000000051
 20
20.000000000000259
 30
0.0
 11
220.00000000000051
 21
79.999999999999915
 31
0.0
  0
CIRCLE
  5
390B
  8
0
 10
219.99999999999949
 20
49.999999999999922
 30
0.0
 40
23.0
  0
CIRCLE
  5
390D
  8
0
 10
219.99999999999949
 20
49.999999999999922
 30
0.0
 40
11.29090909090908
  0
CIRCLE
  5
390E
  8
0
 10
219.99999999999949
 20
49.999999999999922
 30
0.0
 40
9.0909090909090864
  0
LINE
  5
390F
  8
0
 10
243.98398836088529
 20
50.876528553383707
 30
0.0
 11
244.9557982602588
 21
51.485978867023682
 31
0.0
  0
ARC
  5
3910
  8
0
 10
219.99999999999741
 20
49.999999999999602
 30
0.0
 40
25.000000000002121
 50
3.407621241694657
 51
9.1505182931882274
  0
LINE
  5
3911
  8
0
 10
244.99769276452861
 20
50.339641649697057
 30
0.0
 11
243.98398836088529
 21
50.876528553383729
 31
0.0
  0
LINE
  5
3912
  8
0
 10
244.68184933295819
 20
53.975715470846211
 30
0.0
 11
243.60077624390669
 21
54.359284423506409
 31
0.0
  0
ARC
  5
3913
  8
0
 10
219.99999999999559
 20
49.999999999999801
 30
0.0
 40
25.000000000003869
 50
355.03552821843988
 51
0.7784252699322849
  0
LINE
  5
3914
  8
0
 10
243.85602340575821
 20
47.375090998930908
 30
0.0
 11
244.90621376207559
 21
47.836549968736712
 31
0.0
  0
LINE
  5
3915
  8
0
 10
243.60077624390669
 20
54.359284423506352
 30
0.0
 11
244.4734932455392
 21
55.103736705642604
 31
0.0
  0
ARC
  5
3916
  8
0
 10
219.9999999999894
 20
49.999999999996959
 30
0.0
 40
25.000000000010491
 50
11.779714264953419
 51
17.522611316443971
  0
LINE
  5
3917
  8
0
 10
243.83995513425401
 20
57.52705381917351
 30
0.0
 11
242.7145545557822
 21
57.749129714514623
 31
0.0
  0
LINE
  5
3918
  8
0
 10
244.7807537745729
 20
46.696328956453563
 30
0.0
 11
243.85602340575821
 21
47.375090998930943
 31
0.0
  0
ARC
  5
3919
  8
0
 10
219.99999999999829
 20
50.000000000000227
 30
0.0
 40
25.000000000001279
 50
346.6634351951833
 51
352.40633224667607
  0
LINE
  5
391A
  8
0
 10
243.21960872937771
 20
43.929598822599559
 30
0.0
 11
244.3257965584823
 21
44.233231251791828
 31
0.0
  0
LINE
  5
391B
  8
0
 10
242.7145545557822
 20
57.749129714514559
 30
0.0
 11
243.46957821195161
 21
58.612717257234323
 31
0.0
  0
ARC
  5
391C
  8
0
 10
219.9999999999946
 20
49.999999999998153
 30
0.0
 40
25.000000000005269
 50
20.15180728820734
 51
25.894704339699349
  0
LINE
  5
391D
  8
0
 10
242.48995368160641
 20
60.917966083441371
 30
0.0
 11
241.34421157317999
 21
60.973815759311229
 31
0.0
  0
LINE
  5
391E
  8
0
 10
244.03565604102329
 20
43.123428275834037
 30
0.0
 11
243.21960872937771
 21
43.92959882259958
 31
0.0
  0
ARC
  5
391F
  8
0
 10
220.00000000000171
 20
49.999999999999091
 30
0.0
 40
24.999999999997691
 50
338.29134217192768
 51
344.03423922342239
  0
LINE
  5
3920
  8
0
 10
242.0883084056594
 20
40.613486708236138
 30
0.0
 11
243.2269172344819
 21
40.752821198738182
 31
0.0
  0
LINE
  5
3921
  8
0
 10
241.34421157317999
 20
60.973815759311179
 30
0.0
 11
241.96544986548969
 21
61.938132693459089
 31
0.0
  0
ARC
  5
3922
  8
0
 10
219.99999999999929
 20
50.000000000000313
 30
0.0
 40
25.00000000000006
 50
28.52390031146108
 51
34.266797362955352
  0
LINE
  5
3923
  8
0
 10
240.66061791217351
 20
64.076180855869808
 30
0.0
 11
239.51895377765311
 21
63.964613973390811
 31
0.0
  0
LINE
  5
3924
  8
0
 10
242.7782800284688
 20
39.697089782753579
 30
0.0
 11
242.0883084056594
 21
40.613486708236188
 31
0.0
  0
ARC
  5
3925
  8
0
 10
219.9999999999977
 20
50.000000000000938
 30
0.0
 40
25.0000000000021
 50
329.91924914867121
 51
335.66214620016427
  0
LINE
  5
3926
  8
0
 10
240.4862341368958
 20
37.497431828289557
 30
0.0
 11
241.63299649504609
 21
37.469498707341963
 31
0.0
  0
LINE
  5
3927
  8
0
 10
239.51895377765311
 20
63.964613973390748
 30
0.0
 11
239.99316609046539
 21
65.009107557714486
 31
0.0
  0
ARC
  5
3928
  8
0
 10
220.0000000000002
 20
50.000000000000227
 30
0.0
 40
24.999999999999279
 50
36.895993334719108
 51
42.638890386212573
  0
LINE
  5
3929
  8
0
 10
238.39093694187881
 20
66.934386271719887
 30
0.0
 11
237.2776833701914
 21
66.657780685295137
 31
0.0
  0
LINE
  5
392A
  8
0
 10
241.03542452362339
 20
36.490339933553912
 30
0.0
 11
240.4862341368958
 21
37.497431828289599
 31
0.0
  0
ARC
  5
392B
  8
0
 10
220.0000000000025
 20
49.999999999997932
 30
0.0
 40
24.999999999996461
 50
321.54715612541639
 51
327.29005317690837
  0
LINE
  5
392C
  8
0
 10
238.44753135468429
 20
34.647847482586513
 30
0.0
 11
239.57800599344989
 21
34.4532420961661
 31
0.0
  0
LINE
  5
392D
  8
0
 10
237.27768337019151
 20
66.65778068529508
 30
0.0
 11
237.5947626913626
 21
67.760189352442552
 31
0.0
  0
ARC
  5
392E
  8
0
 10
219.99999999999929
 20
49.999999999998863
 30
0.0
 40
25.000000000000909
 50
45.268086357975697
 51
51.010983409469027
  0
LINE
  5
392F
  8
0
 10
235.7292850800973
 20
69.431664644826668
 30
0.0
 11
234.66816913834799
 21
68.995915722301987
 31
0.0
  0
LINE
  5
3930
  8
0
 10
238.84423546571381
 20
33.571525033871239
 30
0.0
 11
238.44753135468429
 21
34.647847482586542
 31
0.0
  0
ARC
  5
3931
  8
0
 10
220.0000000000002
 20
49.999999999999119
 30
0.0
 40
24.999999999999009
 50
313.17506310215953
 51
318.91796015365458
  0
LINE
  5
3932
  8
0
 10
236.01565146933331
 20
32.12546761414913
 30
0.0
 11
237.10574428446279
 21
31.76833763820332
 31
0.0
  0
LINE
  5
3933
  8
0
 10
234.66816913834799
 20
68.995915722301987
 30
0.0
 11
234.82135747264451
 21
70.132743545479997
 31
0.0
  0
ARC
  5
3934
  8
0
 10
219.99999999999949
 20
50.000000000000227
 30
0.0
 40
24.99999999999979
 50
53.640179381228421
 51
59.38307643272217
  0
LINE
  5
3935
  8
0
 10
232.73239081523531
 20
71.514790822317963
 30
0.0
 11
231.74602834746551
 21
70.929185795451332
 31
0.0
  0
LINE
  5
3936
  8
0
 10
236.2514142452761
 20
31.002854555791121
 30
0.0
 11
236.01565146933331
 21
32.125467614149159
 31
0.0
  0
ARC
  5
3937
  8
0
 10
219.99999999999491
 20
50.00000000000594
 30
0.0
 40
25.000000000007589
 50
304.80297007890579
 51
310.54586713039839
  0
LINE
  5
3938
  8
0
 10
233.2424257784902
 20
29.984052370642839
 30
0.0
 11
234.26890333419411
 21
29.472009410577609
 31
0.0
  0
LINE
  5
3939
  8
0
 10
231.7460283474656
 20
70.929185795451275
 30
0.0
 11
231.73206075150009
 21
72.076203263312635
 31
0.0
  0
ARC
  5
393A
  8
0
 10
220.0000000000021
 20
50.000000000005343
 30
0.0
 40
24.999999999994031
 50
62.01227240448393
 51
67.755169455980152
  0
LINE
  5
393B
  8
0
 10
229.46412774548961
 20
73.139366586340287
 30
0.0
 11
228.57354135522669
 21
72.416386609581053
 31
0.0
  0
LINE
  5
393C
  8
0
 10
233.3122223450967
 20
28.839075250956121
 30
0.0
 11
233.24242577849029
 21
29.984052370642839
 31
0.0
  0
ARC
  5
393D
  8
0
 10
219.99999999999849
 20
50.000000000001499
 30
0.0
 40
25.00000000000189
 50
296.43087705564869
 51
302.17377410714118
  0
LINE
  5
393E
  8
0
 10
230.18696077301911
 20
28.2692423001644
 30
0.0
 11
231.1279454823167
 21
27.61319966269005
 31
0.0
  0
LINE
  5
393F
  8
0
 10
228.57354135522681
 20
72.416386609581053
 30
0.0
 11
228.39271552405719
 21
73.549147036192963
 31
0.0
  0
ARC
  5
3940
  8
0
 10
219.99999999999901
 20
49.999999999997669
 30
0.0
 40
25.000000000002331
 50
70.38436542774231
 51
76.127262479235881
  0
LINE
  5
3941
  8
0
 10
225.99415322399631
 20
74.270766924991193
 30
0.0
 11
225.21832421395689
 21
73.425821061342134
 31
0.0
  0
LINE
  5
3942
  8
0
 10
230.08930353764941
 20
27.126304318602791
 30
0.0
 11
230.18696077301911
 21
28.2692423001644
 31
0.0
  0
ARC
  5
3943
  8
0
 10
219.99999999999969
 20
49.999999999998778
 30
0.0
 40
24.999999999998849
 50
288.05878403239387
 51
293.80168108388699
  0
LINE
  5
3944
  8
0
 10
226.9143783847652
 20
27.017585602198182
 30
0.0
 11
227.74981479226869
 21
26.231525697143919
 31
0.0
  0
LINE
  5
3945
  8
0
 10
225.21832421395689
 20
73.425821061342134
 30
0.0
 11
224.87449413623401
 21
74.520181624853677
 31
0.0
  0
ARC
  5
3946
  8
0
 10
220.00000000000031
 20
50.000000000003439
 30
0.0
 40
24.999999999996412
 50
78.756458450997471
 51
84.499355502493231
  0
LINE
  5
3947
  8
0
 10
222.39642373328391
 20
74.884878004333217
 30
0.0
 11
221.7518875518613
 21
73.935974807925135
 31
0.0
  0
LINE
  5
3948
  8
0
 10
226.65134874184361
 20
25.901046497526639
 30
0.0
 11
226.91437838476531
 21
27.017585602198182
 31
0.0
  0
ARC
  5
3949
  8
0
 10
219.99999999999861
 20
50.000000000003972
 30
0.0
 40
25.000000000004189
 50
279.68669100913718
 51
285.4295880606287
  0
LINE
  5
394A
  8
0
 10
223.49442802563959
 20
26.255759166197269
 30
0.0
 11
224.20651025476619
 21
25.356435495721229
 31
0.0
  0
LINE
  5
394B
  8
0
 10
221.7518875518613
 20
73.935974807925135
 30
0.0
 11
221.25238136875089
 21
74.96861111289931
 31
0.0
  0
ARC
  5
394C
  8
0
 10
219.99999999999989
 20
50.00000000000103
 30
0.0
 40
24.999999999998881
 50
87.128551474254493
 51
92.871448525748747
  0
LINE
  5
394D
  8
0
 10
218.7476186312482
 20
74.96861111289931
 30
0.0
 11
218.24811244813779
 21
73.935974807925135
 31
0.0
  0
LINE
  5
394E
  8
0
 10
223.071631995346
 20
25.189416030952259
 30
0.0
 11
223.49442802563971
 21
26.25575916619729
 31
0.0
  0
ARC
  5
394F
  8
0
 10
219.9999999999996
 20
50.00000000000162
 30
0.0
 40
25.000000000001691
 50
271.3145979858798
 51
277.05749503737258
  0
LINE
  5
3950
  8
0
 10
219.99999999999949
 20
25.999999999999918
 30
0.0
 11
220.5735512543169
 21
25.006580086777351
 31
0.0
  0
LINE
  5
3951
  8
0
 10
218.24811244813779
 20
73.935974807925135
 30
0.0
 11
217.60357626671521
 21
74.884878004333217
 31
0.0
  0
ARC
  5
3952
  8
0
 10
219.99999999999901
 20
50.00000000000307
 30
0.0
 40
24.999999999996799
 50
95.500644497510024
 51
101.2435415490025
  0
LINE
  5
3953
  8
0
 10
215.12550586376511
 20
74.520181624853677
 30
0.0
 11
214.7816757860422
 21
73.425821061342134
 31
0.0
  0
LINE
  5
3954
  8
0
 10
219.42644874568219
 20
25.006580086777351
 30
0.0
 11
219.99999999999949
 21
25.999999999999918
 31
0.0
  0
ARC
  5
3955
  8
0
 10
219.9999999999994
 20
49.99999999999843
 30
0.0
 40
24.999999999998511
 50
262.94250496262401
 51
268.6854020141202
  0
LINE
  5
3956
  8
0
 10
216.50557197435941
 20
26.25575916619729
 30
0.0
 11
216.92836800465309
 21
25.189416030952291
 31
0.0
  0
LINE
  5
3957
  8
0
 10
214.7816757860422
 20
73.425821061342134
 30
0.0
 11
214.00584677600281
 21
74.270766924991193
 31
0.0
  0
ARC
  5
3958
  8
0
 10
220.00000000000091
 20
49.999999999996867
 30
0.0
 40
25.0000000000033
 50
103.87273752076661
 51
109.6156345722577
  0
LINE
  5
3959
  8
0
 10
211.6072844759419
 20
73.549147036192963
 30
0.0
 11
211.4264586447724
 21
72.416386609581053
 31
0.0
  0
LINE
  5
395A
  8
0
 10
215.7934897452329
 20
25.356435495721321
 30
0.0
 11
216.5055719743595
 21
26.25575916619729
 31
0.0
  0
ARC
  5
395B
  8
0
 10
219.99999999999849
 20
49.99999999999784
 30
0.0
 40
24.99999999999774
 50
254.57041193937121
 51
260.31330899086612
  0
LINE
  5
395C
  8
0
 10
213.0856216152338
 20
27.017585602198182
 30
0.0
 11
213.34865125815551
 21
25.901046497526639
 31
0.0
  0
LINE
  5
395D
  8
0
 10
211.4264586447724
 20
72.416386609581053
 30
0.0
 11
210.53587225450951
 21
73.139366586340287
 31
0.0
  0
ARC
  5
395E
  8
0
 10
219.9999999999979
 20
50.000000000003467
 30
0.0
 40
24.999999999996088
 50
112.24483054401981
 51
117.98772759551601
  0
LINE
  5
395F
  8
0
 10
208.267939248499
 20
72.076203263312692
 30
0.0
 11
208.25397165253349
 21
70.929185795451275
 31
0.0
  0
LINE
  5
3960
  8
0
 10
212.2501852077304
 20
26.231525697143919
 30
0.0
 11
213.0856216152338
 21
27.017585602198182
 31
0.0
  0
ARC
  5
3961
  8
0
 10
220.00000000000071
 20
50.000000000003183
 30
0.0
 40
25.000000000003471
 50
246.19831891611389
 51
251.9412159676061
  0
LINE
  5
3962
  8
0
 10
209.81303922698001
 20
28.269242300164422
 30
0.0
 11
209.9106964623497
 21
27.126304318602759
 31
0.0
  0
LINE
  5
3963
  8
0
 10
208.25397165253349
 20
70.929185795451275
 30
0.0
 11
207.26760918476381
 21
71.514790822317963
 31
0.0
  0
ARC
  5
3964
  8
0
 10
219.9999999999977
 20
50.000000000002807
 30
0.0
 40
24.999999999996579
 50
120.61692356727779
 51
126.35982061877159
  0
LINE
  5
3965
  8
0
 10
205.17864252735461
 20
70.132743545479997
 30
0.0
 11
205.3318308616511
 21
68.995915722301987
 31
0.0
  0
LINE
  5
3966
  8
0
 10
208.87205451768239
 20
27.613199662690079
 30
0.0
 11
209.81303922698001
 21
28.2692423001644
 31
0.0
  0
ARC
  5
3967
  8
0
 10
219.99999999999699
 20
49.999999999995651
 30
0.0
 40
24.99999999999503
 50
237.82622589285859
 51
243.5691229443531
  0
LINE
  5
3968
  8
0
 10
206.7575742215088
 20
29.984052370642871
 30
0.0
 11
206.68777765490231
 21
28.839075250956121
 31
0.0
  0
LINE
  5
3969
  8
0
 10
205.3318308616511
 20
68.995915722301987
 30
0.0
 11
204.27071491990179
 21
69.431664644826725
 31
0.0
  0
ARC
  5
396A
  8
0
 10
219.9999999999981
 20
50.000000000001528
 30
0.0
 40
24.999999999997801
 50
128.98901659053089
 51
134.7319136420254
  0
LINE
  5
396B
  8
0
 10
202.40523730863649
 20
67.760189352442609
 30
0.0
 11
202.72231662980769
 21
66.657780685295137
 31
0.0
  0
LINE
  5
396C
  8
0
 10
205.73109666580501
 20
29.472009410577609
 30
0.0
 11
206.75757422150889
 21
29.984052370642839
 31
0.0
  0
ARC
  5
396D
  8
0
 10
220.0000000000006
 20
50.000000000000988
 30
0.0
 40
25.000000000001489
 50
229.45413286960161
 51
235.19702992109401
  0
LINE
  5
396E
  8
0
 10
203.98434853066581
 20
32.125467614149187
 30
0.0
 11
203.748585754723
 21
31.002854555791121
 31
0.0
  0
LINE
  5
396F
  8
0
 10
202.72231662980769
 20
66.657780685295137
 30
0.0
 11
201.6090630581202
 21
66.934386271719887
 31
0.0
  0
ARC
  5
3970
  8
0
 10
220.00000000000071
 20
49.999999999998863
 30
0.0
 40
25.00000000000162
 50
137.36110961378981
 51
143.10400666528079
  0
LINE
  5
3971
  8
0
 10
200.0068339095337
 20
65.009107557714486
 30
0.0
 11
200.48104622234601
 21
63.964613973390748
 31
0.0
  0
LINE
  5
3972
  8
0
 10
202.89425571553619
 20
31.768337638203349
 30
0.0
 11
203.98434853066581
 21
32.125467614149159
 31
0.0
  0
ARC
  5
3973
  8
0
 10
220.0000000000035
 20
50.00000000000378
 30
0.0
 40
25.000000000005478
 50
221.08203984634761
 51
226.8249368978405
  0
LINE
  5
3974
  8
0
 10
201.5524686453148
 20
34.64784748258657
 30
0.0
 11
201.15576453428531
 21
33.571525033871211
 31
0.0
  0
LINE
  5
3975
  8
0
 10
200.48104622234601
 20
63.964613973390811
 30
0.0
 11
199.33938208782561
 21
64.076180855869808
 31
0.0
  0
ARC
  5
3976
  8
0
 10
220.0000000000021
 20
49.99999999999855
 30
0.0
 40
25.00000000000291
 50
145.7332026370446
 51
151.47609968853709
  0
LINE
  5
3977
  8
0
 10
198.0345501345094
 20
61.938132693459089
 30
0.0
 11
198.6557884268191
 21
60.973815759311229
 31
0.0
  0
LINE
  5
3978
  8
0
 10
200.4219940065492
 20
34.45324209616615
 30
0.0
 11
201.5524686453148
 21
34.647847482586542
 31
0.0
  0
ARC
  5
3979
  8
0
 10
219.99999999999949
 20
50.000000000000647
 30
0.0
 40
25.000000000000359
 50
212.70994682309259
 51
218.45284387458469
  0
LINE
  5
397A
  8
0
 10
199.5137658631032
 20
37.497431828289621
 30
0.0
 11
198.9645754763757
 21
36.490339933553912
 31
0.0
  0
LINE
  5
397B
  8
0
 10
198.6557884268191
 20
60.973815759311229
 30
0.0
 11
197.5100463183926
 21
60.917966083441307
 31
0.0
  0
ARC
  5
397C
  8
0
 10
219.9999999999992
 20
50.000000000000199
 30
0.0
 40
24.99999999999952
 50
154.10529566029959
 51
159.8481927117935
  0
LINE
  5
397D
  8
0
 10
196.53042178804739
 20
58.61271725723438
 30
0.0
 11
197.28544544421689
 21
57.749129714514623
 31
0.0
  0
LINE
  5
397E
  8
0
 10
198.367003504953
 20
37.469498707341977
 30
0.0
 11
199.5137658631032
 21
37.497431828289621
 31
0.0
  0
ARC
  5
397F
  8
0
 10
219.9999999999992
 20
50.000000000000369
 30
0.0
 40
24.999999999999851
 50
204.3378537998363
 51
210.08075085132879
  0
LINE
  5
3980
  8
0
 10
197.91169159433969
 20
40.613486708236188
 30
0.0
 11
197.22171997153029
 21
39.697089782753608
 31
0.0
  0
LINE
  5
3981
  8
0
 10
197.28544544421689
 20
57.749129714514623
 30
0.0
 11
196.16004486574511
 21
57.52705381917351
 31
0.0
  0
ARC
  5
3982
  8
0
 10
220.00000000000739
 20
49.999999999997783
 30
0.0
 40
25.000000000008129
 50
162.47738868355589
 51
168.22028573504841
  0
LINE
  5
3983
  8
0
 10
195.52650675445989
 20
55.103736705642604
 30
0.0
 11
196.39922375609231
 21
54.359284423506352
 31
0.0
  0
LINE
  5
3984
  8
0
 10
196.7730827655171
 20
40.752821198738211
 30
0.0
 11
197.91169159433969
 21
40.613486708236159
 31
0.0
  0
ARC
  5
3985
  8
0
 10
220.00000000000489
 20
50.000000000001528
 30
0.0
 40
25.00000000000562
 50
195.965760776579
 51
201.7086578280705
  0
LINE
  5
3986
  8
0
 10
196.78039127062129
 20
43.92959882259958
 30
0.0
 11
195.9643439589758
 21
43.123428275834037
 31
0.0
  0
LINE
  5
3987
  8
0
 10
196.3992237560924
 20
54.359284423506409
 30
0.0
 11
195.3181506670409
 21
53.975715470846211
 31
0.0
  0
ARC
  5
3988
  8
0
 10
220.00000000000199
 20
49.999999999999631
 30
0.0
 40
25.000000000002451
 50
170.84948170681179
 51
176.5923787583053
  0
LINE
  5
3989
  8
0
 10
195.04420173974029
 20
51.485978867023697
 30
0.0
 11
196.0160116391138
 21
50.876528553383707
 31
0.0
  0
LINE
  5
398A
  8
0
 10
195.6742034415168
 20
44.233231251791857
 30
0.0
 11
196.78039127062129
 21
43.92959882259958
 31
0.0
  0
ARC
  5
398B
  8
0
 10
219.99999999999699
 20
49.999999999999659
 30
0.0
 40
24.99999999999747
 50
187.5936677533239
 51
193.3365648048165
  0
LINE
  5
398C
  8
0
 10
196.1439765942408
 20
47.375090998930943
 30
0.0
 11
195.2192462254261
 21
46.696328956453563
 31
0.0
  0
LINE
  5
398D
  8
0
 10
196.0160116391138
 20
50.876528553383729
 30
0.0
 11
195.0023072354704
 21
50.339641649697057
 31
0.0
  0
ARC
  5
398E
  8
0
 10
220.0000000000023
 20
50.000000000000391
 30
0.0
 40
25.0000000000027
 50
179.22157473006769
 51
184.96447178156171
  0
LINE
  5
398F
  8
0
 10
195.0937862379235
 20
47.836549968736712
 30
0.0
 11
196.1439765942408
 21
47.375090998930943
 31
0.0
  0
CIRCLE
  5
3991
  8
0
 10
219.9999999999998
 20
49.999999999999972
 30
0.0
 40
24.00000000000027
  0
LINE
  5
39D5
  8
1
 10
99.0
 20
50.000000000000078
 30
0.0
 11
172.0
 21
50.000000000000078
 31
0.0
  0
LINE
  5
39D6
  8
0
 10
134.30000000000001
 20
55.3333333333334
 30
0.0
 11
134.0
 21
55.3333333333334
 31
0.0
  0
LINE
  5
39D7
  8
0
 10
134.0
 20
44.666666666666742
 30
0.0
 11
134.30000000000001
 21
44.666666666666742
 31
0.0
  0
LINE
  5
39D8
  8
0
 10
135.30000000000001
 20
60.000000000000078
 30
0.0
 11
134.30000000000001
 21
59.000000000000092
 31
0.0
  0
LINE
  5
39D9
  8
0
 10
134.30000000000001
 20
41.000000000000078
 30
0.0
 11
135.30000000000001
 21
40.000000000000078
 31
0.0
  0
LINE
  5
39DA
  8
0
 10
150.0
 20
60.000000000000078
 30
0.0
 11
135.30000000000001
 21
60.000000000000078
 31
0.0
  0
LINE
  5
39DB
  8
0
 10
135.30000000000001
 20
40.000000000000078
 30
0.0
 11
150.0
 21
40.000000000000078
 31
0.0
  0
ARC
  5
39DC
  8
0
 10
150.5
 20
27.500000000000089
 30
0.0
 40
0.5000000000000036
 50
180.0
 51
270.0
  0
ARC
  5
39DD
  8
0
 10
150.5
 20
72.500000000000085
 30
0.0
 40
0.4999999999999964
 50
90.0
 51
180.0
  0
LINE
  5
39DE
  8
0
 10
151.31999999999999
 20
73.000000000000085
 30
0.0
 11
150.5
 21
73.000000000000085
 31
0.0
  0
LINE
  5
39DF
  8
0
 10
150.5
 20
27.000000000000089
 30
0.0
 11
151.31999999999999
 21
27.000000000000089
 31
0.0
  0
LINE
  5
39E0
  8
0
 10
166.5
 20
73.000000000000085
 30
0.0
 11
165.68000000000001
 21
73.000000000000085
 31
0.0
  0
LINE
  5
39E1
  8
0
 10
165.68000000000001
 20
27.000000000000089
 30
0.0
 11
166.5
 21
27.000000000000089
 31
0.0
  0
ARC
  5
39E2
  8
0
 10
166.5
 20
27.500000000000089
 30
0.0
 40
0.4999999999999893
 50
270.0
 51
0.0
  0
ARC
  5
39E3
  8
0
 10
166.5
 20
72.500000000000085
 30
0.0
 40
0.4999999999999929
 50
0.0
 51
90.0
  0
LINE
  5
39E4
  8
0
 10
151.78630765815501
 20
75.000000000000142
 30
0.0
 11
151.31999999999999
 21
74.000000000000085
 31
0.0
  0
LINE
  5
39E5
  8
0
 10
165.68000000000001
 20
74.000000000000085
 30
0.0
 11
165.21369234184499
 21
75.000000000000142
 31
0.0
  0
LINE
  5
39E6
  8
0
 10
157.92264973081021
 20
75.000000000000085
 30
0.0
 11
155.48735026918979
 21
75.000000000000085
 31
0.0
  0
LINE
  5
39E7
  8
0
 10
154.3326497308102
 20
75.000000000000085
 30
0.0
 11
151.7863076581551
 21
75.000000000000085
 31
0.0
  0
LINE
  5
39E8
  8
0
 10
161.51264973081021
 20
75.000000000000085
 30
0.0
 11
159.07735026918979
 21
75.000000000000085
 31
0.0
  0
LINE
  5
39E9
  8
0
 10
165.21369234184479
 20
75.000000000000085
 30
0.0
 11
162.6673502691898
 21
75.000000000000085
 31
0.0
  0
LINE
  5
39EA
  8
0
 10
162.09
 20
74.000000000000085
 30
0.0
 11
161.5126497308103
 21
75.000000000000142
 31
0.0
  0
LINE
  5
39EB
  8
0
 10
162.66735026918971
 20
75.000000000000142
 30
0.0
 11
162.09
 21
74.000000000000085
 31
0.0
  0
LINE
  5
39EC
  8
0
 10
158.5
 20
74.000000000000085
 30
0.0
 11
157.92264973081029
 21
75.000000000000142
 31
0.0
  0
LINE
  5
39ED
  8
0
 10
159.07735026918959
 20
75.000000000000142
 30
0.0
 11
158.5
 21
74.000000000000085
 31
0.0
  0
LINE
  5
39EE
  8
0
 10
154.91
 20
74.000000000000085
 30
0.0
 11
154.33264973081029
 21
75.000000000000142
 31
0.0
  0
LINE
  5
39EF
  8
0
 10
155.48735026918959
 20
75.000000000000142
 30
0.0
 11
154.91
 21
74.000000000000085
 31
0.0
  0
LINE
  5
39F0
  8
0
 10
134.0
 20
44.666666666666742
 30
0.0
 11
134.0
 21
55.3333333333334
 31
0.0
  0
LINE
  5
39F1
  8
0
 10
134.30000000000001
 20
41.000000000000078
 30
0.0
 11
134.30000000000001
 21
59.000000000000092
 31
0.0
  0
LINE
  5
39F2
  8
0
 10
135.30000000000001
 20
40.000000000000078
 30
0.0
 11
135.30000000000001
 21
60.000000000000078
 31
0.0
  0
LINE
  5
39F3
  8
0
 10
150.0
 20
27.500000000000089
 30
0.0
 11
150.0
 21
72.500000000000085
 31
0.0
  0
LINE
  5
39F4
  8
0
 10
150.5
 20
27.000000000000089
 30
0.0
 11
150.5
 21
73.000000000000085
 31
0.0
  0
LINE
  5
39F5
  8
0
 10
166.5
 20
27.000000000000089
 30
0.0
 11
166.5
 21
73.000000000000085
 31
0.0
  0
LINE
  5
39F6
  8
0
 10
167.0
 20
27.500000000000089
 30
0.0
 11
167.0
 21
72.500000000000085
 31
0.0
  0
LINE
  5
39F7
  8
0
 10
151.31999999999999
 20
26.000000000000082
 30
0.0
 11
151.31999999999999
 21
74.000000000000085
 31
0.0
  0
LINE
  5
39F8
  8
0
 10
165.68000000000001
 20
26.000000000000082
 30
0.0
 11
165.68000000000001
 21
74.000000000000085
 31
0.0
  0
LINE
  5
39F9
  8
0
 10
151.78630765815501
 20
25.189416030952462
 30
0.0
 11
151.31999999999999
 21
26.255759166197439
 31
0.0
  0
LINE
  5
39FA
  8
0
 10
151.78630765815501
 20
25.90104649752681
 30
0.0
 11
151.31999999999999
 21
27.017585602198348
 31
0.0
  0
LINE
  5
39FB
  8
0
 10
151.78630765815501
 20
27.126304318602941
 30
0.0
 11
151.31999999999999
 21
28.269242300164571
 31
0.0
  0
LINE
  5
39FC
  8
0
 10
151.78630765815501
 20
28.839075250956281
 30
0.0
 11
151.31999999999999
 21
29.98405237064302
 31
0.0
  0
LINE
  5
39FD
  8
0
 10
151.78630765815501
 20
31.002854555791291
 30
0.0
 11
151.31999999999999
 21
32.125467614149329
 31
0.0
  0
LINE
  5
39FE
  8
0
 10
151.78630765815501
 20
33.571525033871382
 30
0.0
 11
151.31999999999999
 21
34.647847482586712
 31
0.0
  0
LINE
  5
39FF
  8
0
 10
151.78630765815501
 20
36.490339933554083
 30
0.0
 11
151.31999999999999
 21
37.497431828289763
 31
0.0
  0
LINE
  5
3A00
  8
0
 10
151.78630765815501
 20
39.697089782753778
 30
0.0
 11
151.31999999999999
 21
40.613486708236358
 31
0.0
  0
LINE
  5
3A01
  8
0
 10
151.78630765815501
 20
43.123428275834208
 30
0.0
 11
151.31999999999999
 21
43.92959882259975
 31
0.0
  0
LINE
  5
3A02
  8
0
 10
151.78630765815501
 20
46.696328956453719
 30
0.0
 11
151.31999999999999
 21
47.375090998931107
 31
0.0
  0
LINE
  5
3A03
  8
0
 10
155.48735026918959
 20
50.339641649697228
 30
0.0
 11
157.92264973081041
 21
50.339641649697228
 31
0.0
  0
LINE
  5
3A04
  8
0
 10
155.48735026918959
 20
51.485978867023867
 30
0.0
 11
157.92264973081041
 21
51.485978867023867
 31
0.0
  0
LINE
  5
3A05
  8
0
 10
155.48735026918959
 20
53.975715470846382
 30
0.0
 11
157.92264973081041
 21
53.975715470846382
 31
0.0
  0
LINE
  5
3A06
  8
0
 10
155.48735026918959
 20
55.103736705642767
 30
0.0
 11
157.92264973081041
 21
55.103736705642767
 31
0.0
  0
LINE
  5
3A07
  8
0
 10
155.48735026918959
 20
57.527053819173688
 30
0.0
 11
157.92264973081041
 21
57.527053819173688
 31
0.0
  0
LINE
  5
3A08
  8
0
 10
155.48735026918959
 20
58.612717257234493
 30
0.0
 11
157.92264973081041
 21
58.612717257234493
 31
0.0
  0
LINE
  5
3A09
  8
0
 10
155.48735026918959
 20
60.917966083441478
 30
0.0
 11
157.92264973081041
 21
60.917966083441478
 31
0.0
  0
LINE
  5
3A0A
  8
0
 10
155.48735026918959
 20
61.938132693459274
 30
0.0
 11
157.92264973081041
 21
61.938132693459274
 31
0.0
  0
LINE
  5
3A0B
  8
0
 10
155.48735026918959
 20
64.076180855869978
 30
0.0
 11
157.92264973081041
 21
64.076180855869978
 31
0.0
  0
LINE
  5
3A0C
  8
0
 10
155.48735026918959
 20
65.009107557714657
 30
0.0
 11
157.92264973081041
 21
65.009107557714657
 31
0.0
  0
LINE
  5
3A0D
  8
0
 10
155.48735026918959
 20
66.934386271720058
 30
0.0
 11
157.92264973081041
 21
66.934386271720058
 31
0.0
  0
LINE
  5
3A0E
  8
0
 10
155.48735026918959
 20
67.760189352442779
 30
0.0
 11
157.92264973081041
 21
67.760189352442779
 31
0.0
  0
LINE
  5
3A0F
  8
0
 10
155.48735026918959
 20
69.431664644826895
 30
0.0
 11
157.92264973081041
 21
69.431664644826895
 31
0.0
  0
LINE
  5
3A10
  8
0
 10
155.48735026918959
 20
70.132743545480153
 30
0.0
 11
157.92264973081041
 21
70.132743545480153
 31
0.0
  0
LINE
  5
3A11
  8
0
 10
155.48735026918959
 20
71.514790822318133
 30
0.0
 11
157.92264973081041
 21
71.514790822318133
 31
0.0
  0
LINE
  5
3A12
  8
0
 10
155.48735026918959
 20
72.076203263312863
 30
0.0
 11
157.92264973081041
 21
72.076203263312863
 31
0.0
  0
LINE
  5
3A13
  8
0
 10
155.48735026918959
 20
73.139366586340444
 30
0.0
 11
157.92264973081041
 21
73.139366586340444
 31
0.0
  0
LINE
  5
3A14
  8
0
 10
155.48735026918959
 20
73.549147036193133
 30
0.0
 11
157.92264973081041
 21
73.549147036193133
 31
0.0
  0
LINE
  5
3A15
  8
0
 10
155.48735026918959
 20
74.270766924991364
 30
0.0
 11
157.92264973081041
 21
74.270766924991364
 31
0.0
  0
LINE
  5
3A16
  8
0
 10
155.48735026918959
 20
74.520181624853834
 30
0.0
 11
157.92264973081041
 21
74.520181624853834
 31
0.0
  0
LINE
  5
3A17
  8
0
 10
155.48735026918959
 20
74.884878004333387
 30
0.0
 11
157.92264973081041
 21
74.884878004333387
 31
0.0
  0
LINE
  5
3A18
  8
0
 10
155.48735026918959
 20
74.968611112899481
 30
0.0
 11
157.92264973081041
 21
74.968611112899481
 31
0.0
  0
LINE
  5
3A19
  8
0
 10
151.7863076581551
 20
74.968611112899481
 30
0.0
 11
151.7863076581551
 21
75.000000000000085
 31
0.0
  0
LINE
  5
3A1A
  8
0
 10
165.21369234184479
 20
75.000000000000085
 30
0.0
 11
165.21369234184479
 21
74.968611112899481
 31
0.0
  0
LINE
  5
3A1B
  8
0
 10
151.31999999999999
 20
73.935974807925362
 30
0.0
 11
151.78630765815501
 21
74.968611112899481
 31
0.0
  0
LINE
  5
3A1C
  8
0
 10
151.78630765815501
 20
74.968611112899481
 30
0.0
 11
154.3326497308104
 21
74.968611112899481
 31
0.0
  0
LINE
  5
3A1D
  8
0
 10
159.07735026918959
 20
74.968611112899481
 30
0.0
 11
161.51264973081041
 21
74.968611112899481
 31
0.0
  0
LINE
  5
3A1E
  8
0
 10
162.6673502691896
 20
74.968611112899481
 30
0.0
 11
165.21369234184499
 21
74.968611112899481
 31
0.0
  0
LINE
  5
3A1F
  8
0
 10
165.21369234184499
 20
74.968611112899481
 30
0.0
 11
165.68000000000001
 21
73.935974807925305
 31
0.0
  0
LINE
  5
3A20
  8
0
 10
151.78630765815501
 20
74.884878004333387
 30
0.0
 11
151.31999999999999
 21
73.935974807925305
 31
0.0
  0
LINE
  5
3A21
  8
0
 10
165.68000000000001
 20
73.935974807925305
 30
0.0
 11
165.21369234184499
 21
74.884878004333387
 31
0.0
  0
LINE
  5
3A22
  8
0
 10
151.78630765815319
 20
74.520181624853834
 30
0.0
 11
151.78630765815319
 21
74.884878004333387
 31
0.0
  0
LINE
  5
3A23
  8
0
 10
151.78630765815501
 20
74.884878004333387
 30
0.0
 11
154.3326497308104
 21
74.884878004333387
 31
0.0
  0
LINE
  5
3A24
  8
0
 10
159.07735026918959
 20
74.884878004333387
 30
0.0
 11
161.51264973081041
 21
74.884878004333387
 31
0.0
  0
LINE
  5
3A25
  8
0
 10
162.6673502691896
 20
74.884878004333387
 30
0.0
 11
165.21369234184499
 21
74.884878004333387
 31
0.0
  0
LINE
  5
3A26
  8
0
 10
165.21369234184669
 20
74.884878004333387
 30
0.0
 11
165.21369234184669
 21
74.520181624853834
 31
0.0
  0
LINE
  5
3A27
  8
0
 10
151.31999999999999
 20
73.425821061342361
 30
0.0
 11
151.78630765815501
 21
74.520181624853834
 31
0.0
  0
LINE
  5
3A28
  8
0
 10
151.78630765815501
 20
74.520181624853834
 30
0.0
 11
154.3326497308104
 21
74.520181624853834
 31
0.0
  0
LINE
  5
3A29
  8
0
 10
159.07735026918959
 20
74.520181624853834
 30
0.0
 11
161.51264973081041
 21
74.520181624853834
 31
0.0
  0
LINE
  5
3A2A
  8
0
 10
162.6673502691896
 20
74.520181624853834
 30
0.0
 11
165.21369234184499
 21
74.520181624853834
 31
0.0
  0
LINE
  5
3A2B
  8
0
 10
165.21369234184499
 20
74.520181624853834
 30
0.0
 11
165.68000000000001
 21
73.425821061342305
 31
0.0
  0
LINE
  5
3A2C
  8
0
 10
151.31999999999999
 20
26.000000000000082
 30
0.0
 11
151.78630765815501
 21
25.006580086777522
 31
0.0
  0
LINE
  5
3A2D
  8
0
 10
165.21369234184499
 20
25.006580086777522
 30
0.0
 11
165.68000000000001
 21
26.000000000000082
 31
0.0
  0
LINE
  5
3A2E
  8
0
 10
155.48735026918959
 20
25.006580086777522
 30
0.0
 11
157.92264973081041
 21
25.006580086777522
 31
0.0
  0
LINE
  5
3A2F
  8
0
 10
151.78630765815501
 20
25.006580086777522
 30
0.0
 11
154.3326497308104
 21
25.006580086777522
 31
0.0
  0
LINE
  5
3A30
  8
0
 10
151.7863076581547
 20
25.006580086777522
 30
0.0
 11
151.7863076581547
 21
25.189416030952462
 31
0.0
  0
LINE
  5
3A31
  8
0
 10
151.78630765815501
 20
25.189416030952462
 30
0.0
 11
154.3326497308104
 21
25.189416030952462
 31
0.0
  0
LINE
  5
3A32
  8
0
 10
159.07735026918959
 20
25.006580086777522
 30
0.0
 11
161.51264973081041
 21
25.006580086777522
 31
0.0
  0
LINE
  5
3A33
  8
0
 10
165.2136923418453
 20
25.189416030952462
 30
0.0
 11
165.2136923418453
 21
25.006580086777522
 31
0.0
  0
LINE
  5
3A34
  8
0
 10
162.6673502691896
 20
25.006580086777522
 30
0.0
 11
165.21369234184499
 21
25.006580086777522
 31
0.0
  0
LINE
  5
3A35
  8
0
 10
155.48735026918959
 20
25.189416030952462
 30
0.0
 11
157.92264973081041
 21
25.189416030952462
 31
0.0
  0
LINE
  5
3A36
  8
0
 10
159.07735026918959
 20
25.189416030952462
 30
0.0
 11
161.51264973081041
 21
25.189416030952462
 31
0.0
  0
LINE
  5
3A37
  8
0
 10
165.68000000000001
 20
26.255759166197471
 30
0.0
 11
165.21369234184499
 21
25.189416030952462
 31
0.0
  0
LINE
  5
3A38
  8
0
 10
162.6673502691896
 20
25.189416030952462
 30
0.0
 11
165.21369234184499
 21
25.189416030952462
 31
0.0
  0
LINE
  5
3A39
  8
0
 10
151.78630765815501
 20
74.270766924991364
 30
0.0
 11
151.31999999999999
 21
73.425821061342361
 31
0.0
  0
LINE
  5
3A3A
  8
0
 10
165.68000000000001
 20
73.425821061342305
 30
0.0
 11
165.21369234184499
 21
74.270766924991364
 31
0.0
  0
LINE
  5
3A3B
  8
0
 10
151.78630765815601
 20
73.549147036193133
 30
0.0
 11
151.78630765815601
 21
74.270766924991364
 31
0.0
  0
LINE
  5
3A3C
  8
0
 10
151.78630765815501
 20
74.270766924991364
 30
0.0
 11
154.3326497308104
 21
74.270766924991364
 31
0.0
  0
LINE
  5
3A3D
  8
0
 10
159.07735026918959
 20
74.270766924991364
 30
0.0
 11
161.5126497308103
 21
74.270766924991364
 31
0.0
  0
LINE
  5
3A3E
  8
0
 10
162.6673502691896
 20
74.270766924991364
 30
0.0
 11
165.21369234184499
 21
74.270766924991364
 31
0.0
  0
LINE
  5
3A3F
  8
0
 10
165.21369234184391
 20
74.270766924991364
 30
0.0
 11
165.21369234184391
 21
73.549147036193133
 31
0.0
  0
LINE
  5
3A40
  8
0
 10
151.31999999999999
 20
72.416386609581224
 30
0.0
 11
151.78630765815501
 21
73.549147036193133
 31
0.0
  0
LINE
  5
3A41
  8
0
 10
151.78630765815501
 20
73.549147036193133
 30
0.0
 11
154.3326497308104
 21
73.549147036193133
 31
0.0
  0
LINE
  5
3A42
  8
0
 10
159.07735026918959
 20
73.549147036193133
 30
0.0
 11
161.51264973081041
 21
73.549147036193133
 31
0.0
  0
LINE
  5
3A43
  8
0
 10
162.6673502691896
 20
73.549147036193133
 30
0.0
 11
165.21369234184499
 21
73.549147036193133
 31
0.0
  0
LINE
  5
3A44
  8
0
 10
165.21369234184499
 20
73.549147036193133
 30
0.0
 11
165.68000000000001
 21
72.416386609581224
 31
0.0
  0
LINE
  5
3A45
  8
0
 10
151.31999999999999
 20
26.255759166197439
 30
0.0
 11
151.78630765815501
 21
25.356435495721481
 31
0.0
  0
LINE
  5
3A46
  8
0
 10
165.21369234184499
 20
25.356435495721481
 30
0.0
 11
165.68000000000001
 21
26.255759166197471
 31
0.0
  0
LINE
  5
3A47
  8
0
 10
155.48735026918951
 20
25.356435495721481
 30
0.0
 11
157.92264973081041
 21
25.356435495721481
 31
0.0
  0
LINE
  5
3A48
  8
0
 10
151.78630765815501
 20
25.356435495721481
 30
0.0
 11
154.3326497308104
 21
25.356435495721481
 31
0.0
  0
LINE
  5
3A49
  8
0
 10
151.78630765815339
 20
25.356435495721481
 30
0.0
 11
151.78630765815339
 21
25.90104649752681
 31
0.0
  0
LINE
  5
3A4A
  8
0
 10
151.78630765815501
 20
25.90104649752681
 30
0.0
 11
154.3326497308104
 21
25.90104649752681
 31
0.0
  0
LINE
  5
3A4B
  8
0
 10
159.07735026918959
 20
25.356435495721481
 30
0.0
 11
161.51264973081041
 21
25.356435495721481
 31
0.0
  0
LINE
  5
3A4C
  8
0
 10
165.21369234184661
 20
25.90104649752681
 30
0.0
 11
165.21369234184661
 21
25.356435495721481
 31
0.0
  0
LINE
  5
3A4D
  8
0
 10
162.6673502691896
 20
25.356435495721481
 30
0.0
 11
165.21369234184499
 21
25.356435495721481
 31
0.0
  0
LINE
  5
3A4E
  8
0
 10
155.48735026918959
 20
25.90104649752681
 30
0.0
 11
157.92264973081041
 21
25.90104649752681
 31
0.0
  0
LINE
  5
3A4F
  8
0
 10
159.07735026918959
 20
25.90104649752681
 30
0.0
 11
161.51264973081041
 21
25.90104649752681
 31
0.0
  0
LINE
  5
3A50
  8
0
 10
165.68000000000001
 20
27.017585602198348
 30
0.0
 11
165.21369234184499
 21
25.90104649752681
 31
0.0
  0
LINE
  5
3A51
  8
0
 10
162.6673502691896
 20
25.90104649752681
 30
0.0
 11
165.21369234184499
 21
25.90104649752681
 31
0.0
  0
LINE
  5
3A52
  8
0
 10
151.78630765815501
 20
73.139366586340444
 30
0.0
 11
151.31999999999999
 21
72.416386609581224
 31
0.0
  0
LINE
  5
3A53
  8
0
 10
165.68000000000001
 20
72.416386609581224
 30
0.0
 11
165.21369234184499
 21
73.139366586340444
 31
0.0
  0
LINE
  5
3A54
  8
0
 10
151.7863076581537
 20
72.076203263312863
 30
0.0
 11
151.7863076581537
 21
73.139366586340444
 31
0.0
  0
LINE
  5
3A55
  8
0
 10
151.78630765815501
 20
73.139366586340444
 30
0.0
 11
154.3326497308104
 21
73.139366586340444
 31
0.0
  0
LINE
  5
3A56
  8
0
 10
159.07735026918959
 20
73.139366586340444
 30
0.0
 11
161.51264973081041
 21
73.139366586340444
 31
0.0
  0
LINE
  5
3A57
  8
0
 10
162.6673502691896
 20
73.139366586340444
 30
0.0
 11
165.21369234184499
 21
73.139366586340444
 31
0.0
  0
LINE
  5
3A58
  8
0
 10
165.2136923418463
 20
73.139366586340444
 30
0.0
 11
165.2136923418463
 21
72.076203263312863
 31
0.0
  0
LINE
  5
3A59
  8
0
 10
151.31999999999999
 20
70.929185795451502
 30
0.0
 11
151.78630765815501
 21
72.076203263312863
 31
0.0
  0
LINE
  5
3A5A
  8
0
 10
151.78630765815501
 20
72.076203263312863
 30
0.0
 11
154.3326497308104
 21
72.076203263312863
 31
0.0
  0
LINE
  5
3A5B
  8
0
 10
159.07735026918959
 20
72.076203263312863
 30
0.0
 11
161.51264973081041
 21
72.076203263312863
 31
0.0
  0
LINE
  5
3A5C
  8
0
 10
162.6673502691896
 20
72.076203263312863
 30
0.0
 11
165.21369234184499
 21
72.076203263312863
 31
0.0
  0
LINE
  5
3A5D
  8
0
 10
165.21369234184499
 20
72.076203263312863
 30
0.0
 11
165.68000000000001
 21
70.929185795451446
 31
0.0
  0
LINE
  5
3A5E
  8
0
 10
151.31999999999999
 20
27.017585602198348
 30
0.0
 11
151.78630765815501
 21
26.2315256971441
 31
0.0
  0
LINE
  5
3A5F
  8
0
 10
165.21369234184499
 20
26.2315256971441
 30
0.0
 11
165.68000000000001
 21
27.017585602198348
 31
0.0
  0
LINE
  5
3A60
  8
0
 10
155.48735026918959
 20
26.2315256971441
 30
0.0
 11
157.92264973081041
 21
26.2315256971441
 31
0.0
  0
LINE
  5
3A61
  8
0
 10
151.78630765815501
 20
26.2315256971441
 30
0.0
 11
154.3326497308104
 21
26.2315256971441
 31
0.0
  0
LINE
  5
3A62
  8
0
 10
151.78630765815569
 20
26.2315256971441
 30
0.0
 11
151.78630765815569
 21
27.126304318602941
 31
0.0
  0
LINE
  5
3A63
  8
0
 10
151.78630765815501
 20
27.126304318602941
 30
0.0
 11
154.3326497308104
 21
27.126304318602941
 31
0.0
  0
LINE
  5
3A64
  8
0
 10
159.07735026918959
 20
26.2315256971441
 30
0.0
 11
161.51264973081041
 21
26.2315256971441
 31
0.0
  0
LINE
  5
3A65
  8
0
 10
165.21369234184431
 20
27.126304318602941
 30
0.0
 11
165.21369234184431
 21
26.2315256971441
 31
0.0
  0
LINE
  5
3A66
  8
0
 10
162.6673502691896
 20
26.2315256971441
 30
0.0
 11
165.21369234184499
 21
26.2315256971441
 31
0.0
  0
LINE
  5
3A67
  8
0
 10
155.48735026918959
 20
27.126304318602941
 30
0.0
 11
157.92264973081041
 21
27.126304318602941
 31
0.0
  0
LINE
  5
3A68
  8
0
 10
159.07735026918959
 20
27.126304318602941
 30
0.0
 11
161.51264973081041
 21
27.126304318602941
 31
0.0
  0
LINE
  5
3A69
  8
0
 10
165.68000000000001
 20
28.269242300164588
 30
0.0
 11
165.21369234184499
 21
27.126304318602941
 31
0.0
  0
LINE
  5
3A6A
  8
0
 10
162.6673502691896
 20
27.126304318602941
 30
0.0
 11
165.21369234184499
 21
27.126304318602941
 31
0.0
  0
LINE
  5
3A6B
  8
0
 10
151.78630765815501
 20
71.514790822318133
 30
0.0
 11
151.31999999999999
 21
70.929185795451446
 31
0.0
  0
LINE
  5
3A6C
  8
0
 10
165.68000000000001
 20
70.929185795451446
 30
0.0
 11
165.21369234184499
 21
71.514790822318133
 31
0.0
  0
LINE
  5
3A6D
  8
0
 10
151.7863076581543
 20
70.132743545480153
 30
0.0
 11
151.7863076581543
 21
71.514790822318133
 31
0.0
  0
LINE
  5
3A6E
  8
0
 10
151.78630765815501
 20
71.514790822318133
 30
0.0
 11
154.3326497308104
 21
71.514790822318133
 31
0.0
  0
LINE
  5
3A6F
  8
0
 10
159.07735026918959
 20
71.514790822318133
 30
0.0
 11
161.51264973081041
 21
71.514790822318133
 31
0.0
  0
LINE
  5
3A70
  8
0
 10
162.6673502691896
 20
71.514790822318133
 30
0.0
 11
165.21369234184499
 21
71.514790822318133
 31
0.0
  0
LINE
  5
3A71
  8
0
 10
165.2136923418457
 20
71.514790822318133
 30
0.0
 11
165.2136923418457
 21
70.132743545480153
 31
0.0
  0
LINE
  5
3A72
  8
0
 10
151.31999999999999
 20
68.995915722302215
 30
0.0
 11
151.78630765815501
 21
70.132743545480153
 31
0.0
  0
LINE
  5
3A73
  8
0
 10
151.78630765815501
 20
70.132743545480153
 30
0.0
 11
154.3326497308104
 21
70.132743545480153
 31
0.0
  0
LINE
  5
3A74
  8
0
 10
159.07735026918959
 20
70.132743545480153
 30
0.0
 11
161.51264973081041
 21
70.132743545480153
 31
0.0
  0
LINE
  5
3A75
  8
0
 10
162.6673502691896
 20
70.132743545480153
 30
0.0
 11
165.21369234184499
 21
70.132743545480153
 31
0.0
  0
LINE
  5
3A76
  8
0
 10
165.21369234184499
 20
70.132743545480153
 30
0.0
 11
165.68000000000001
 21
68.995915722302158
 31
0.0
  0
LINE
  5
3A77
  8
0
 10
151.31999999999999
 20
28.269242300164571
 30
0.0
 11
151.78630765815501
 21
27.613199662690249
 31
0.0
  0
LINE
  5
3A78
  8
0
 10
165.21369234184499
 20
27.613199662690249
 30
0.0
 11
165.68000000000001
 21
28.269242300164571
 31
0.0
  0
LINE
  5
3A79
  8
0
 10
155.48735026918959
 20
27.613199662690249
 30
0.0
 11
157.92264973081041
 21
27.613199662690249
 31
0.0
  0
LINE
  5
3A7A
  8
0
 10
151.78630765815501
 20
27.613199662690249
 30
0.0
 11
154.3326497308104
 21
27.613199662690249
 31
0.0
  0
LINE
  5
3A7B
  8
0
 10
151.78630765815331
 20
27.613199662690249
 30
0.0
 11
151.78630765815331
 21
28.839075250956281
 31
0.0
  0
LINE
  5
3A7C
  8
0
 10
151.78630765815501
 20
28.839075250956281
 30
0.0
 11
154.3326497308104
 21
28.839075250956281
 31
0.0
  0
LINE
  5
3A7D
  8
0
 10
159.07735026918959
 20
27.613199662690249
 30
0.0
 11
161.51264973081041
 21
27.613199662690249
 31
0.0
  0
LINE
  5
3A7E
  8
0
 10
165.21369234184661
 20
28.839075250956281
 30
0.0
 11
165.21369234184661
 21
27.613199662690249
 31
0.0
  0
LINE
  5
3A7F
  8
0
 10
162.6673502691896
 20
27.613199662690249
 30
0.0
 11
165.21369234184499
 21
27.613199662690249
 31
0.0
  0
LINE
  5
3A80
  8
0
 10
155.48735026918959
 20
28.839075250956281
 30
0.0
 11
157.92264973081041
 21
28.839075250956281
 31
0.0
  0
LINE
  5
3A81
  8
0
 10
159.07735026918959
 20
28.839075250956281
 30
0.0
 11
161.51264973081041
 21
28.839075250956281
 31
0.0
  0
LINE
  5
3A82
  8
0
 10
165.68000000000001
 20
29.984052370643042
 30
0.0
 11
165.21369234184499
 21
28.839075250956281
 31
0.0
  0
LINE
  5
3A83
  8
0
 10
162.6673502691896
 20
28.839075250956281
 30
0.0
 11
165.21369234184499
 21
28.839075250956281
 31
0.0
  0
LINE
  5
3A84
  8
0
 10
151.78630765815501
 20
69.431664644826895
 30
0.0
 11
151.31999999999999
 21
68.995915722302215
 31
0.0
  0
LINE
  5
3A85
  8
0
 10
165.68000000000001
 20
68.995915722302158
 30
0.0
 11
165.21369234184499
 21
69.431664644826895
 31
0.0
  0
LINE
  5
3A86
  8
0
 10
151.7863076581547
 20
67.760189352442779
 30
0.0
 11
151.7863076581547
 21
69.431664644826895
 31
0.0
  0
LINE
  5
3A87
  8
0
 10
151.78630765815501
 20
69.431664644826895
 30
0.0
 11
154.3326497308104
 21
69.431664644826895
 31
0.0
  0
LINE
  5
3A88
  8
0
 10
159.07735026918959
 20
69.431664644826895
 30
0.0
 11
161.51264973081041
 21
69.431664644826895
 31
0.0
  0
LINE
  5
3A89
  8
0
 10
162.6673502691896
 20
69.431664644826895
 30
0.0
 11
165.21369234184499
 21
69.431664644826895
 31
0.0
  0
LINE
  5
3A8A
  8
0
 10
165.2136923418453
 20
69.431664644826895
 30
0.0
 11
165.2136923418453
 21
67.760189352442779
 31
0.0
  0
LINE
  5
3A8B
  8
0
 10
151.31999999999999
 20
66.657780685295293
 30
0.0
 11
151.78630765815501
 21
67.760189352442779
 31
0.0
  0
LINE
  5
3A8C
  8
0
 10
151.78630765815501
 20
67.760189352442779
 30
0.0
 11
154.3326497308104
 21
67.760189352442779
 31
0.0
  0
LINE
  5
3A8D
  8
0
 10
159.07735026918959
 20
67.760189352442779
 30
0.0
 11
161.51264973081041
 21
67.760189352442779
 31
0.0
  0
LINE
  5
3A8E
  8
0
 10
162.6673502691896
 20
67.760189352442779
 30
0.0
 11
165.21369234184499
 21
67.760189352442779
 31
0.0
  0
LINE
  5
3A8F
  8
0
 10
165.21369234184499
 20
67.760189352442779
 30
0.0
 11
165.68000000000001
 21
66.657780685295293
 31
0.0
  0
LINE
  5
3A90
  8
0
 10
151.31999999999999
 20
29.98405237064302
 30
0.0
 11
151.78630765815501
 21
29.47200941057778
 31
0.0
  0
LINE
  5
3A91
  8
0
 10
165.21369234184499
 20
29.47200941057778
 30
0.0
 11
165.68000000000001
 21
29.98405237064302
 31
0.0
  0
LINE
  5
3A92
  8
0
 10
155.48735026918959
 20
29.47200941057778
 30
0.0
 11
157.92264973081041
 21
29.47200941057778
 31
0.0
  0
LINE
  5
3A93
  8
0
 10
151.78630765815501
 20
29.47200941057778
 30
0.0
 11
154.3326497308104
 21
29.47200941057778
 31
0.0
  0
LINE
  5
3A94
  8
0
 10
151.78630765815521
 20
29.47200941057778
 30
0.0
 11
151.78630765815521
 21
31.002854555791291
 31
0.0
  0
LINE
  5
3A95
  8
0
 10
151.78630765815501
 20
31.002854555791291
 30
0.0
 11
154.3326497308104
 21
31.002854555791291
 31
0.0
  0
LINE
  5
3A96
  8
0
 10
159.07735026918959
 20
29.47200941057778
 30
0.0
 11
161.5126497308103
 21
29.47200941057778
 31
0.0
  0
LINE
  5
3A97
  8
0
 10
165.21369234184479
 20
31.002854555791291
 30
0.0
 11
165.21369234184479
 21
29.47200941057778
 31
0.0
  0
LINE
  5
3A98
  8
0
 10
162.6673502691896
 20
29.47200941057778
 30
0.0
 11
165.21369234184499
 21
29.47200941057778
 31
0.0
  0
LINE
  5
3A99
  8
0
 10
155.48735026918959
 20
31.002854555791291
 30
0.0
 11
157.92264973081041
 21
31.002854555791291
 31
0.0
  0
LINE
  5
3A9A
  8
0
 10
159.07735026918959
 20
31.002854555791291
 30
0.0
 11
161.51264973081041
 21
31.002854555791291
 31
0.0
  0
LINE
  5
3A9B
  8
0
 10
165.68000000000001
 20
32.125467614149358
 30
0.0
 11
165.21369234184499
 21
31.002854555791291
 31
0.0
  0
LINE
  5
3A9C
  8
0
 10
162.6673502691896
 20
31.002854555791291
 30
0.0
 11
165.21369234184499
 21
31.002854555791291
 31
0.0
  0
LINE
  5
3A9D
  8
0
 10
151.78630765815501
 20
66.934386271720058
 30
0.0
 11
151.31999999999999
 21
66.657780685295293
 31
0.0
  0
LINE
  5
3A9E
  8
0
 10
165.68000000000001
 20
66.657780685295293
 30
0.0
 11
165.21369234184499
 21
66.934386271720058
 31
0.0
  0
LINE
  5
3A9F
  8
0
 10
151.78630765815589
 20
65.009107557714657
 30
0.0
 11
151.78630765815589
 21
66.934386271720058
 31
0.0
  0
LINE
  5
3AA0
  8
0
 10
151.78630765815501
 20
66.934386271720058
 30
0.0
 11
154.3326497308104
 21
66.934386271720058
 31
0.0
  0
LINE
  5
3AA1
  8
0
 10
159.07735026918959
 20
66.934386271720058
 30
0.0
 11
161.51264973081041
 21
66.934386271720058
 31
0.0
  0
LINE
  5
3AA2
  8
0
 10
162.6673502691896
 20
66.934386271720058
 30
0.0
 11
165.21369234184499
 21
66.934386271720058
 31
0.0
  0
LINE
  5
3AA3
  8
0
 10
165.21369234184411
 20
66.934386271720058
 30
0.0
 11
165.21369234184411
 21
65.009107557714657
 31
0.0
  0
LINE
  5
3AA4
  8
0
 10
151.31999999999999
 20
63.964613973390918
 30
0.0
 11
151.78630765815501
 21
65.009107557714657
 31
0.0
  0
LINE
  5
3AA5
  8
0
 10
151.78630765815501
 20
65.009107557714657
 30
0.0
 11
154.3326497308104
 21
65.009107557714657
 31
0.0
  0
LINE
  5
3AA6
  8
0
 10
159.07735026918959
 20
65.009107557714657
 30
0.0
 11
161.51264973081041
 21
65.009107557714657
 31
0.0
  0
LINE
  5
3AA7
  8
0
 10
162.6673502691896
 20
65.009107557714657
 30
0.0
 11
165.21369234184499
 21
65.009107557714657
 31
0.0
  0
LINE
  5
3AA8
  8
0
 10
165.21369234184499
 20
65.009107557714657
 30
0.0
 11
165.68000000000001
 21
63.964613973390918
 31
0.0
  0
LINE
  5
3AA9
  8
0
 10
151.31999999999999
 20
32.125467614149301
 30
0.0
 11
151.78630765815501
 21
31.768337638203519
 31
0.0
  0
LINE
  5
3AAA
  8
0
 10
165.21369234184499
 20
31.768337638203519
 30
0.0
 11
165.68000000000001
 21
32.125467614149329
 31
0.0
  0
LINE
  5
3AAB
  8
0
 10
155.48735026918959
 20
31.768337638203519
 30
0.0
 11
157.92264973081041
 21
31.768337638203519
 31
0.0
  0
LINE
  5
3AAC
  8
0
 10
151.78630765815501
 20
31.768337638203519
 30
0.0
 11
154.3326497308104
 21
31.768337638203519
 31
0.0
  0
LINE
  5
3AAD
  8
0
 10
151.78630765815529
 20
31.768337638203519
 30
0.0
 11
151.78630765815529
 21
33.571525033871382
 31
0.0
  0
LINE
  5
3AAE
  8
0
 10
151.78630765815501
 20
33.571525033871382
 30
0.0
 11
154.3326497308104
 21
33.571525033871382
 31
0.0
  0
LINE
  5
3AAF
  8
0
 10
159.07735026918959
 20
31.768337638203519
 30
0.0
 11
161.51264973081041
 21
31.768337638203519
 31
0.0
  0
LINE
  5
3AB0
  8
0
 10
165.21369234184459
 20
33.571525033871382
 30
0.0
 11
165.21369234184459
 21
31.768337638203519
 31
0.0
  0
LINE
  5
3AB1
  8
0
 10
162.6673502691896
 20
31.768337638203519
 30
0.0
 11
165.21369234184499
 21
31.768337638203519
 31
0.0
  0
LINE
  5
3AB2
  8
0
 10
155.48735026918959
 20
33.571525033871382
 30
0.0
 11
157.92264973081041
 21
33.571525033871382
 31
0.0
  0
LINE
  5
3AB3
  8
0
 10
159.07735026918959
 20
33.571525033871382
 30
0.0
 11
161.51264973081041
 21
33.571525033871382
 31
0.0
  0
LINE
  5
3AB4
  8
0
 10
165.68000000000001
 20
34.647847482586741
 30
0.0
 11
165.21369234184499
 21
33.571525033871382
 31
0.0
  0
LINE
  5
3AB5
  8
0
 10
162.6673502691896
 20
33.571525033871382
 30
0.0
 11
165.21369234184499
 21
33.571525033871382
 31
0.0
  0
LINE
  5
3AB6
  8
0
 10
151.78630765815501
 20
64.076180855869978
 30
0.0
 11
151.31999999999999
 21
63.964613973390982
 31
0.0
  0
LINE
  5
3AB7
  8
0
 10
165.68000000000001
 20
63.964613973390982
 30
0.0
 11
165.21369234184499
 21
64.076180855869978
 31
0.0
  0
LINE
  5
3AB8
  8
0
 10
151.78630765815629
 20
61.938132693459274
 30
0.0
 11
151.78630765815629
 21
64.076180855869978
 31
0.0
  0
LINE
  5
3AB9
  8
0
 10
151.78630765815501
 20
64.076180855869978
 30
0.0
 11
154.3326497308104
 21
64.076180855869978
 31
0.0
  0
LINE
  5
3ABA
  8
0
 10
159.07735026918959
 20
64.076180855869978
 30
0.0
 11
161.51264973081041
 21
64.076180855869978
 31
0.0
  0
LINE
  5
3ABB
  8
0
 10
162.6673502691896
 20
64.076180855869978
 30
0.0
 11
165.21369234184499
 21
64.076180855869978
 31
0.0
  0
LINE
  5
3ABC
  8
0
 10
165.21369234184371
 20
64.076180855869978
 30
0.0
 11
165.21369234184371
 21
61.938132693459274
 31
0.0
  0
LINE
  5
3ABD
  8
0
 10
151.31999999999999
 20
60.973815759311407
 30
0.0
 11
151.78630765815501
 21
61.938132693459274
 31
0.0
  0
LINE
  5
3ABE
  8
0
 10
151.78630765815501
 20
61.938132693459274
 30
0.0
 11
154.3326497308104
 21
61.938132693459274
 31
0.0
  0
LINE
  5
3ABF
  8
0
 10
159.07735026918959
 20
61.938132693459274
 30
0.0
 11
161.51264973081041
 21
61.938132693459274
 31
0.0
  0
LINE
  5
3AC0
  8
0
 10
162.6673502691896
 20
61.938132693459274
 30
0.0
 11
165.21369234184499
 21
61.938132693459274
 31
0.0
  0
LINE
  5
3AC1
  8
0
 10
165.21369234184499
 20
61.938132693459274
 30
0.0
 11
165.68000000000001
 21
60.973815759311407
 31
0.0
  0
LINE
  5
3AC2
  8
0
 10
151.31999999999999
 20
34.647847482586712
 30
0.0
 11
151.7863076581549
 21
34.453242096166321
 31
0.0
  0
LINE
  5
3AC3
  8
0
 10
165.21369234184499
 20
34.453242096166321
 30
0.0
 11
165.68000000000001
 21
34.647847482586712
 31
0.0
  0
LINE
  5
3AC4
  8
0
 10
155.48735026918951
 20
34.453242096166321
 30
0.0
 11
157.92264973081041
 21
34.453242096166321
 31
0.0
  0
LINE
  5
3AC5
  8
0
 10
151.7863076581549
 20
34.453242096166321
 30
0.0
 11
154.3326497308104
 21
34.453242096166321
 31
0.0
  0
LINE
  5
3AC6
  8
0
 10
151.7863076581551
 20
34.453242096166321
 30
0.0
 11
151.7863076581551
 21
36.490339933554083
 31
0.0
  0
LINE
  5
3AC7
  8
0
 10
151.78630765815501
 20
36.490339933554083
 30
0.0
 11
154.3326497308104
 21
36.490339933554083
 31
0.0
  0
LINE
  5
3AC8
  8
0
 10
159.07735026918959
 20
34.453242096166321
 30
0.0
 11
161.51264973081041
 21
34.453242096166321
 31
0.0
  0
LINE
  5
3AC9
  8
0
 10
165.2136923418449
 20
36.490339933554083
 30
0.0
 11
165.2136923418449
 21
34.453242096166321
 31
0.0
  0
LINE
  5
3ACA
  8
0
 10
162.6673502691896
 20
34.453242096166321
 30
0.0
 11
165.21369234184499
 21
34.453242096166321
 31
0.0
  0
LINE
  5
3ACB
  8
0
 10
155.48735026918959
 20
36.490339933554083
 30
0.0
 11
157.92264973081041
 21
36.490339933554083
 31
0.0
  0
LINE
  5
3ACC
  8
0
 10
159.07735026918959
 20
36.490339933554083
 30
0.0
 11
161.51264973081041
 21
36.490339933554083
 31
0.0
  0
LINE
  5
3ACD
  8
0
 10
165.68000000000001
 20
37.497431828289791
 30
0.0
 11
165.21369234184499
 21
36.490339933554083
 31
0.0
  0
LINE
  5
3ACE
  8
0
 10
162.6673502691896
 20
36.490339933554083
 30
0.0
 11
165.21369234184499
 21
36.490339933554083
 31
0.0
  0
LINE
  5
3ACF
  8
0
 10
151.78630765815501
 20
60.917966083441478
 30
0.0
 11
151.31999999999999
 21
60.973815759311407
 31
0.0
  0
LINE
  5
3AD0
  8
0
 10
151.31999999999999
 20
60.973815759311407
 30
0.0
 11
165.68000000000001
 21
60.973815759311407
 31
0.0
  0
LINE
  5
3AD1
  8
0
 10
165.68000000000001
 20
60.973815759311407
 30
0.0
 11
165.21369234184499
 21
60.917966083441478
 31
0.0
  0
LINE
  5
3AD2
  8
0
 10
151.7863076581539
 20
58.612717257234493
 30
0.0
 11
151.7863076581539
 21
60.917966083441478
 31
0.0
  0
LINE
  5
3AD3
  8
0
 10
151.78630765815501
 20
60.917966083441478
 30
0.0
 11
154.3326497308104
 21
60.917966083441478
 31
0.0
  0
LINE
  5
3AD4
  8
0
 10
159.07735026918959
 20
60.917966083441478
 30
0.0
 11
161.51264973081041
 21
60.917966083441478
 31
0.0
  0
LINE
  5
3AD5
  8
0
 10
162.6673502691896
 20
60.917966083441478
 30
0.0
 11
165.21369234184499
 21
60.917966083441478
 31
0.0
  0
LINE
  5
3AD6
  8
0
 10
165.2136923418461
 20
60.917966083441478
 30
0.0
 11
165.2136923418461
 21
58.612717257234493
 31
0.0
  0
LINE
  5
3AD7
  8
0
 10
151.31999999999999
 20
57.749129714514787
 30
0.0
 11
151.78630765815501
 21
58.612717257234493
 31
0.0
  0
LINE
  5
3AD8
  8
0
 10
151.78630765815501
 20
58.612717257234493
 30
0.0
 11
154.3326497308104
 21
58.612717257234493
 31
0.0
  0
LINE
  5
3AD9
  8
0
 10
159.07735026918959
 20
58.612717257234493
 30
0.0
 11
161.51264973081041
 21
58.612717257234493
 31
0.0
  0
LINE
  5
3ADA
  8
0
 10
162.6673502691896
 20
58.612717257234493
 30
0.0
 11
165.21369234184499
 21
58.612717257234493
 31
0.0
  0
LINE
  5
3ADB
  8
0
 10
165.21369234184499
 20
58.612717257234493
 30
0.0
 11
165.68000000000001
 21
57.749129714514787
 31
0.0
  0
LINE
  5
3ADC
  8
0
 10
151.31999999999999
 20
37.497431828289791
 30
0.0
 11
151.7863076581549
 21
37.469498707342161
 31
0.0
  0
LINE
  5
3ADD
  8
0
 10
165.21369234184499
 20
37.469498707342161
 30
0.0
 11
165.68000000000001
 21
37.497431828289791
 31
0.0
  0
LINE
  5
3ADE
  8
0
 10
155.48735026918951
 20
37.469498707342161
 30
0.0
 11
157.92264973081041
 21
37.469498707342161
 31
0.0
  0
LINE
  5
3ADF
  8
0
 10
151.7863076581549
 20
37.469498707342161
 30
0.0
 11
154.3326497308104
 21
37.469498707342161
 31
0.0
  0
LINE
  5
3AE0
  8
0
 10
151.7863076581549
 20
37.469498707342161
 30
0.0
 11
151.7863076581549
 21
39.697089782753778
 31
0.0
  0
LINE
  5
3AE1
  8
0
 10
151.78630765815501
 20
39.697089782753778
 30
0.0
 11
154.3326497308104
 21
39.697089782753778
 31
0.0
  0
LINE
  5
3AE2
  8
0
 10
159.07735026918959
 20
37.469498707342161
 30
0.0
 11
161.51264973081041
 21
37.469498707342161
 31
0.0
  0
LINE
  5
3AE3
  8
0
 10
165.2136923418451
 20
39.697089782753778
 30
0.0
 11
165.2136923418451
 21
37.469498707342161
 31
0.0
  0
LINE
  5
3AE4
  8
0
 10
162.6673502691896
 20
37.469498707342161
 30
0.0
 11
165.21369234184499
 21
37.469498707342161
 31
0.0
  0
LINE
  5
3AE5
  8
0
 10
155.48735026918959
 20
39.697089782753778
 30
0.0
 11
157.92264973081041
 21
39.697089782753778
 31
0.0
  0
LINE
  5
3AE6
  8
0
 10
159.07735026918959
 20
39.697089782753778
 30
0.0
 11
161.51264973081041
 21
39.697089782753778
 31
0.0
  0
LINE
  5
3AE7
  8
0
 10
165.68000000000001
 20
40.613486708236358
 30
0.0
 11
165.21369234184499
 21
39.697089782753778
 31
0.0
  0
LINE
  5
3AE8
  8
0
 10
162.6673502691896
 20
39.697089782753778
 30
0.0
 11
165.21369234184499
 21
39.697089782753778
 31
0.0
  0
LINE
  5
3AE9
  8
0
 10
151.78630765815501
 20
57.527053819173688
 30
0.0
 11
151.31999999999999
 21
57.749129714514787
 31
0.0
  0
LINE
  5
3AEA
  8
0
 10
151.31999999999999
 20
57.749129714514787
 30
0.0
 11
165.68000000000001
 21
57.749129714514787
 31
0.0
  0
LINE
  5
3AEB
  8
0
 10
165.68000000000001
 20
57.749129714514787
 30
0.0
 11
165.21369234184499
 21
57.527053819173688
 31
0.0
  0
LINE
  5
3AEC
  8
0
 10
151.7863076581564
 20
55.103736705642767
 30
0.0
 11
151.7863076581564
 21
57.527053819173688
 31
0.0
  0
LINE
  5
3AED
  8
0
 10
151.78630765815501
 20
57.527053819173688
 30
0.0
 11
154.3326497308104
 21
57.527053819173688
 31
0.0
  0
LINE
  5
3AEE
  8
0
 10
159.07735026918959
 20
57.527053819173688
 30
0.0
 11
161.51264973081041
 21
57.527053819173688
 31
0.0
  0
LINE
  5
3AEF
  8
0
 10
162.6673502691896
 20
57.527053819173688
 30
0.0
 11
165.21369234184499
 21
57.527053819173688
 31
0.0
  0
LINE
  5
3AF0
  8
0
 10
165.2136923418436
 20
57.527053819173688
 30
0.0
 11
165.2136923418436
 21
55.103736705642767
 31
0.0
  0
LINE
  5
3AF1
  8
0
 10
151.31999999999999
 20
54.359284423506573
 30
0.0
 11
151.78630765815501
 21
55.103736705642767
 31
0.0
  0
LINE
  5
3AF2
  8
0
 10
151.78630765815501
 20
55.103736705642767
 30
0.0
 11
154.3326497308104
 21
55.103736705642767
 31
0.0
  0
LINE
  5
3AF3
  8
0
 10
159.07735026918959
 20
55.103736705642767
 30
0.0
 11
161.51264973081041
 21
55.103736705642767
 31
0.0
  0
LINE
  5
3AF4
  8
0
 10
162.6673502691896
 20
55.103736705642767
 30
0.0
 11
165.21369234184499
 21
55.103736705642767
 31
0.0
  0
LINE
  5
3AF5
  8
0
 10
165.21369234184499
 20
55.103736705642767
 30
0.0
 11
165.68000000000001
 21
54.359284423506523
 31
0.0
  0
LINE
  5
3AF6
  8
0
 10
151.31999999999999
 20
40.61348670823633
 30
0.0
 11
151.78630765815501
 21
40.752821198738388
 31
0.0
  0
LINE
  5
3AF7
  8
0
 10
165.21369234184499
 20
40.752821198738388
 30
0.0
 11
165.68000000000001
 21
40.61348670823633
 31
0.0
  0
LINE
  5
3AF8
  8
0
 10
151.31999999999999
 20
40.61348670823633
 30
0.0
 11
165.68000000000001
 21
40.61348670823633
 31
0.0
  0
LINE
  5
3AF9
  8
0
 10
155.48735026918959
 20
40.752821198738388
 30
0.0
 11
157.92264973081029
 21
40.752821198738388
 31
0.0
  0
LINE
  5
3AFA
  8
0
 10
151.78630765815501
 20
40.752821198738388
 30
0.0
 11
154.3326497308104
 21
40.752821198738388
 31
0.0
  0
LINE
  5
3AFB
  8
0
 10
151.7863076581574
 20
40.752821198738388
 30
0.0
 11
151.7863076581574
 21
43.123428275834208
 31
0.0
  0
LINE
  5
3AFC
  8
0
 10
151.78630765815501
 20
43.123428275834208
 30
0.0
 11
154.3326497308104
 21
43.123428275834208
 31
0.0
  0
LINE
  5
3AFD
  8
0
 10
159.07735026918959
 20
40.752821198738388
 30
0.0
 11
161.5126497308103
 21
40.752821198738388
 31
0.0
  0
LINE
  5
3AFE
  8
0
 10
165.21369234184249
 20
43.123428275834208
 30
0.0
 11
165.21369234184249
 21
40.752821198738388
 31
0.0
  0
LINE
  5
3AFF
  8
0
 10
162.6673502691896
 20
40.752821198738388
 30
0.0
 11
165.21369234184499
 21
40.752821198738388
 31
0.0
  0
LINE
  5
3B00
  8
0
 10
155.48735026918959
 20
43.123428275834208
 30
0.0
 11
157.92264973081041
 21
43.123428275834208
 31
0.0
  0
LINE
  5
3B01
  8
0
 10
159.07735026918959
 20
43.123428275834208
 30
0.0
 11
161.51264973081041
 21
43.123428275834208
 31
0.0
  0
LINE
  5
3B02
  8
0
 10
165.68000000000001
 20
43.92959882259975
 30
0.0
 11
165.21369234184499
 21
43.123428275834208
 31
0.0
  0
LINE
  5
3B03
  8
0
 10
162.6673502691896
 20
43.123428275834208
 30
0.0
 11
165.21369234184499
 21
43.123428275834208
 31
0.0
  0
LINE
  5
3B04
  8
0
 10
151.78630765815501
 20
53.975715470846382
 30
0.0
 11
151.31999999999999
 21
54.359284423506573
 31
0.0
  0
LINE
  5
3B05
  8
0
 10
151.31999999999999
 20
54.359284423506573
 30
0.0
 11
165.68000000000001
 21
54.359284423506573
 31
0.0
  0
LINE
  5
3B06
  8
0
 10
165.68000000000001
 20
54.359284423506573
 30
0.0
 11
165.21369234184499
 21
53.975715470846382
 31
0.0
  0
LINE
  5
3B07
  8
0
 10
151.78630765815481
 20
51.485978867023867
 30
0.0
 11
151.78630765815481
 21
53.975715470846382
 31
0.0
  0
LINE
  5
3B08
  8
0
 10
151.78630765815501
 20
53.975715470846382
 30
0.0
 11
154.3326497308104
 21
53.975715470846382
 31
0.0
  0
LINE
  5
3B09
  8
0
 10
159.07735026918959
 20
53.975715470846382
 30
0.0
 11
161.51264973081041
 21
53.975715470846382
 31
0.0
  0
LINE
  5
3B0A
  8
0
 10
162.6673502691896
 20
53.975715470846382
 30
0.0
 11
165.21369234184499
 21
53.975715470846382
 31
0.0
  0
LINE
  5
3B0B
  8
0
 10
165.2136923418451
 20
53.975715470846382
 30
0.0
 11
165.2136923418451
 21
51.485978867023867
 31
0.0
  0
LINE
  5
3B0C
  8
0
 10
151.31999999999999
 20
50.876528553383899
 30
0.0
 11
151.78630765815501
 21
51.485978867023867
 31
0.0
  0
LINE
  5
3B0D
  8
0
 10
151.78630765815501
 20
51.485978867023867
 30
0.0
 11
154.3326497308104
 21
51.485978867023867
 31
0.0
  0
LINE
  5
3B0E
  8
0
 10
159.07735026918959
 20
51.485978867023867
 30
0.0
 11
161.51264973081041
 21
51.485978867023867
 31
0.0
  0
LINE
  5
3B0F
  8
0
 10
162.6673502691896
 20
51.485978867023867
 30
0.0
 11
165.21369234184499
 21
51.485978867023867
 31
0.0
  0
LINE
  5
3B10
  8
0
 10
165.21369234184499
 20
51.485978867023867
 30
0.0
 11
165.68000000000001
 21
50.876528553383871
 31
0.0
  0
LINE
  5
3B11
  8
0
 10
151.31999999999999
 20
43.92959882259975
 30
0.0
 11
151.78630765815501
 21
44.233231251792027
 31
0.0
  0
LINE
  5
3B12
  8
0
 10
165.21369234184499
 20
44.233231251792027
 30
0.0
 11
165.68000000000001
 21
43.92959882259975
 31
0.0
  0
LINE
  5
3B13
  8
0
 10
151.31999999999999
 20
43.92959882259975
 30
0.0
 11
165.68000000000001
 21
43.92959882259975
 31
0.0
  0
LINE
  5
3B14
  8
0
 10
155.48735026918959
 20
44.233231251792027
 30
0.0
 11
157.92264973081041
 21
44.233231251792027
 31
0.0
  0
LINE
  5
3B15
  8
0
 10
151.78630765815501
 20
44.233231251792027
 30
0.0
 11
154.3326497308104
 21
44.233231251792027
 31
0.0
  0
LINE
  5
3B16
  8
0
 10
151.78630765815379
 20
44.233231251792027
 30
0.0
 11
151.78630765815379
 21
46.696328956453719
 31
0.0
  0
LINE
  5
3B17
  8
0
 10
151.78630765815501
 20
46.696328956453719
 30
0.0
 11
154.3326497308104
 21
46.696328956453719
 31
0.0
  0
LINE
  5
3B18
  8
0
 10
159.07735026918959
 20
44.233231251792027
 30
0.0
 11
161.51264973081041
 21
44.233231251792027
 31
0.0
  0
LINE
  5
3B19
  8
0
 10
165.21369234184621
 20
46.696328956453719
 30
0.0
 11
165.21369234184621
 21
44.233231251792027
 31
0.0
  0
LINE
  5
3B1A
  8
0
 10
162.6673502691896
 20
44.233231251792027
 30
0.0
 11
165.21369234184499
 21
44.233231251792027
 31
0.0
  0
LINE
  5
3B1B
  8
0
 10
155.48735026918959
 20
46.696328956453719
 30
0.0
 11
157.92264973081041
 21
46.696328956453719
 31
0.0
  0
LINE
  5
3B1C
  8
0
 10
159.07735026918959
 20
46.696328956453719
 30
0.0
 11
161.51264973081041
 21
46.696328956453719
 31
0.0
  0
LINE
  5
3B1D
  8
0
 10
165.68000000000001
 20
47.375090998931107
 30
0.0
 11
165.21369234184499
 21
46.696328956453719
 31
0.0
  0
LINE
  5
3B1E
  8
0
 10
162.6673502691896
 20
46.696328956453719
 30
0.0
 11
165.21369234184499
 21
46.696328956453719
 31
0.0
  0
LINE
  5
3B1F
  8
0
 10
151.78630765815501
 20
50.339641649697228
 30
0.0
 11
151.31999999999999
 21
50.876528553383899
 31
0.0
  0
LINE
  5
3B20
  8
0
 10
151.31999999999999
 20
50.876528553383899
 30
0.0
 11
165.68000000000001
 21
50.876528553383899
 31
0.0
  0
LINE
  5
3B21
  8
0
 10
165.68000000000001
 20
50.876528553383899
 30
0.0
 11
165.21369234184499
 21
50.339641649697228
 31
0.0
  0
LINE
  5
3B22
  8
0
 10
151.78630765815549
 20
47.836549968736868
 30
0.0
 11
151.78630765815549
 21
50.339641649697228
 31
0.0
  0
LINE
  5
3B23
  8
0
 10
151.78630765815501
 20
50.339641649697228
 30
0.0
 11
154.3326497308104
 21
50.339641649697228
 31
0.0
  0
LINE
  5
3B24
  8
0
 10
159.07735026918959
 20
50.339641649697228
 30
0.0
 11
161.51264973081041
 21
50.339641649697228
 31
0.0
  0
LINE
  5
3B25
  8
0
 10
162.6673502691896
 20
50.339641649697228
 30
0.0
 11
165.21369234184499
 21
50.339641649697228
 31
0.0
  0
LINE
  5
3B26
  8
0
 10
165.21369234184439
 20
50.339641649697228
 30
0.0
 11
165.21369234184439
 21
47.836549968736868
 31
0.0
  0
LINE
  5
3B27
  8
0
 10
155.48735026918959
 20
47.836549968736868
 30
0.0
 11
157.92264973081041
 21
47.836549968736868
 31
0.0
  0
LINE
  5
3B28
  8
0
 10
151.31999999999999
 20
47.375090998931107
 30
0.0
 11
151.78630765815501
 21
47.836549968736868
 31
0.0
  0
LINE
  5
3B29
  8
0
 10
151.78630765815501
 20
47.836549968736868
 30
0.0
 11
154.3326497308104
 21
47.836549968736868
 31
0.0
  0
LINE
  5
3B2A
  8
0
 10
159.07735026918959
 20
47.836549968736868
 30
0.0
 11
161.51264973081041
 21
47.836549968736868
 31
0.0
  0
LINE
  5
3B2B
  8
0
 10
162.6673502691896
 20
47.836549968736868
 30
0.0
 11
165.21369234184499
 21
47.836549968736868
 31
0.0
  0
LINE
  5
3B2C
  8
0
 10
165.21369234184499
 20
47.836549968736868
 30
0.0
 11
165.68000000000001
 21
47.375090998931107
 31
0.0
  0
LINE
  5
3B2D
  8
0
 10
151.31999999999999
 20
47.375090998931107
 30
0.0
 11
165.68000000000001
 21
47.375090998931107
 31
0.0
  0
LINE
  5
3B2E
  8
0
 10
161.51264973081021
 20
74.968611112899481
 30
0.0
 11
161.51264973081021
 21
75.000000000000085
 31
0.0
  0
LINE
  5
3B2F
  8
0
 10
162.09
 20
73.935974807925305
 30
0.0
 11
161.51264973081041
 21
74.968611112899481
 31
0.0
  0
LINE
  5
3B30
  8
0
 10
161.51264973081251
 20
74.520181624853834
 30
0.0
 11
161.51264973081251
 21
74.884878004333387
 31
0.0
  0
LINE
  5
3B31
  8
0
 10
161.51264973081041
 20
74.884878004333387
 30
0.0
 11
162.09
 21
73.935974807925305
 31
0.0
  0
LINE
  5
3B32
  8
0
 10
162.09
 20
73.425821061342305
 30
0.0
 11
161.51264973081041
 21
74.520181624853834
 31
0.0
  0
LINE
  5
3B33
  8
0
 10
161.51264973080899
 20
73.549147036193133
 30
0.0
 11
161.51264973080899
 21
74.270766924991364
 31
0.0
  0
LINE
  5
3B34
  8
0
 10
161.5126497308103
 20
74.270766924991364
 30
0.0
 11
162.09
 21
73.425821061342305
 31
0.0
  0
LINE
  5
3B35
  8
0
 10
162.09
 20
72.416386609581224
 30
0.0
 11
161.51264973081041
 21
73.549147036193133
 31
0.0
  0
LINE
  5
3B36
  8
0
 10
161.512649730812
 20
72.076203263312863
 30
0.0
 11
161.512649730812
 21
73.139366586340444
 31
0.0
  0
LINE
  5
3B37
  8
0
 10
161.51264973081041
 20
73.139366586340444
 30
0.0
 11
162.09
 21
72.416386609581224
 31
0.0
  0
LINE
  5
3B38
  8
0
 10
162.09
 20
70.929185795451446
 30
0.0
 11
161.51264973081041
 21
72.076203263312863
 31
0.0
  0
LINE
  5
3B39
  8
0
 10
161.51264973081121
 20
70.132743545480153
 30
0.0
 11
161.51264973081121
 21
71.514790822318133
 31
0.0
  0
LINE
  5
3B3A
  8
0
 10
161.51264973081041
 20
71.514790822318133
 30
0.0
 11
162.09
 21
70.929185795451446
 31
0.0
  0
LINE
  5
3B3B
  8
0
 10
162.09
 20
68.995915722302158
 30
0.0
 11
161.51264973081041
 21
70.132743545480153
 31
0.0
  0
LINE
  5
3B3C
  8
0
 10
161.51264973081069
 20
67.760189352442779
 30
0.0
 11
161.51264973081069
 21
69.431664644826895
 31
0.0
  0
LINE
  5
3B3D
  8
0
 10
161.51264973081041
 20
69.431664644826895
 30
0.0
 11
162.09
 21
68.995915722302158
 31
0.0
  0
LINE
  5
3B3E
  8
0
 10
162.09
 20
66.657780685295293
 30
0.0
 11
161.5126497308103
 21
67.760189352442779
 31
0.0
  0
LINE
  5
3B3F
  8
0
 10
161.51264973080919
 20
65.009107557714657
 30
0.0
 11
161.51264973080919
 21
66.934386271720058
 31
0.0
  0
LINE
  5
3B40
  8
0
 10
161.51264973081041
 20
66.934386271720058
 30
0.0
 11
162.09
 21
66.657780685295293
 31
0.0
  0
LINE
  5
3B41
  8
0
 10
162.09
 20
63.964613973390918
 30
0.0
 11
161.51264973081041
 21
65.009107557714657
 31
0.0
  0
LINE
  5
3B42
  8
0
 10
161.5126497308087
 20
61.938132693459274
 30
0.0
 11
161.5126497308087
 21
64.076180855869978
 31
0.0
  0
LINE
  5
3B43
  8
0
 10
161.51264973081041
 20
64.076180855869978
 30
0.0
 11
162.09
 21
63.964613973390982
 31
0.0
  0
LINE
  5
3B44
  8
0
 10
162.09
 20
60.973815759311407
 30
0.0
 11
161.51264973081041
 21
61.938132693459274
 31
0.0
  0
LINE
  5
3B45
  8
0
 10
161.51264973081169
 20
58.612717257234493
 30
0.0
 11
161.51264973081169
 21
60.917966083441478
 31
0.0
  0
LINE
  5
3B46
  8
0
 10
161.51264973081041
 20
60.917966083441478
 30
0.0
 11
162.09
 21
60.973815759311407
 31
0.0
  0
LINE
  5
3B47
  8
0
 10
162.09
 20
57.749129714514787
 30
0.0
 11
161.51264973081041
 21
58.612717257234493
 31
0.0
  0
LINE
  5
3B48
  8
0
 10
161.51264973080859
 20
55.103736705642767
 30
0.0
 11
161.51264973080859
 21
57.527053819173688
 31
0.0
  0
LINE
  5
3B49
  8
0
 10
161.51264973081041
 20
57.527053819173688
 30
0.0
 11
162.09
 21
57.749129714514787
 31
0.0
  0
LINE
  5
3B4A
  8
0
 10
162.09
 20
54.359284423506523
 30
0.0
 11
161.51264973081041
 21
55.103736705642767
 31
0.0
  0
LINE
  5
3B4B
  8
0
 10
161.51264973081049
 20
51.485978867023867
 30
0.0
 11
161.51264973081049
 21
53.975715470846382
 31
0.0
  0
LINE
  5
3B4C
  8
0
 10
161.51264973081041
 20
53.975715470846382
 30
0.0
 11
162.09
 21
54.359284423506573
 31
0.0
  0
LINE
  5
3B4D
  8
0
 10
162.09
 20
50.876528553383871
 30
0.0
 11
161.51264973081041
 21
51.485978867023867
 31
0.0
  0
LINE
  5
3B4E
  8
0
 10
161.51264973080961
 20
47.836549968736868
 30
0.0
 11
161.51264973080961
 21
50.339641649697228
 31
0.0
  0
LINE
  5
3B4F
  8
0
 10
161.51264973081041
 20
50.339641649697228
 30
0.0
 11
162.09
 21
50.876528553383899
 31
0.0
  0
LINE
  5
3B50
  8
0
 10
162.09
 20
47.375090998931107
 30
0.0
 11
161.51264973081041
 21
47.836549968736868
 31
0.0
  0
LINE
  5
3B51
  8
0
 10
162.09
 20
43.92959882259975
 30
0.0
 11
161.51264973081041
 21
44.233231251792027
 31
0.0
  0
LINE
  5
3B52
  8
0
 10
161.5126497308118
 20
44.233231251792027
 30
0.0
 11
161.5126497308118
 21
46.696328956453719
 31
0.0
  0
LINE
  5
3B53
  8
0
 10
161.51264973081041
 20
46.696328956453719
 30
0.0
 11
162.09
 21
47.375090998931107
 31
0.0
  0
LINE
  5
3B54
  8
0
 10
162.09
 20
40.61348670823633
 30
0.0
 11
161.5126497308103
 21
40.752821198738388
 31
0.0
  0
LINE
  5
3B55
  8
0
 10
161.51264973080731
 20
40.752821198738388
 30
0.0
 11
161.51264973080731
 21
43.123428275834208
 31
0.0
  0
LINE
  5
3B56
  8
0
 10
161.51264973081041
 20
43.123428275834208
 30
0.0
 11
162.09
 21
43.929598822599793
 31
0.0
  0
LINE
  5
3B57
  8
0
 10
162.09
 20
37.497431828289791
 30
0.0
 11
161.51264973081041
 21
37.469498707342161
 31
0.0
  0
LINE
  5
3B58
  8
0
 10
161.51264973081041
 20
37.469498707342161
 30
0.0
 11
161.51264973081041
 21
39.697089782753778
 31
0.0
  0
LINE
  5
3B59
  8
0
 10
161.51264973081041
 20
39.697089782753778
 30
0.0
 11
162.09
 21
40.613486708236358
 31
0.0
  0
LINE
  5
3B5A
  8
0
 10
162.09
 20
34.647847482586712
 30
0.0
 11
161.51264973081041
 21
34.453242096166321
 31
0.0
  0
LINE
  5
3B5B
  8
0
 10
161.51264973081021
 20
34.453242096166321
 30
0.0
 11
161.51264973081021
 21
36.490339933554083
 31
0.0
  0
LINE
  5
3B5C
  8
0
 10
161.5126497308103
 20
36.490339933554083
 30
0.0
 11
162.09
 21
37.497431828289791
 31
0.0
  0
LINE
  5
3B5D
  8
0
 10
162.09
 20
32.125467614149329
 30
0.0
 11
161.51264973081041
 21
31.768337638203519
 31
0.0
  0
LINE
  5
3B5E
  8
0
 10
161.5126497308099
 20
31.768337638203519
 30
0.0
 11
161.5126497308099
 21
33.571525033871382
 31
0.0
  0
LINE
  5
3B5F
  8
0
 10
161.51264973081041
 20
33.571525033871382
 30
0.0
 11
162.09
 21
34.647847482586741
 31
0.0
  0
LINE
  5
3B60
  8
0
 10
162.09
 20
29.98405237064302
 30
0.0
 11
161.5126497308103
 21
29.47200941057778
 31
0.0
  0
LINE
  5
3B61
  8
0
 10
161.5126497308101
 20
29.47200941057778
 30
0.0
 11
161.5126497308101
 21
31.002854555791291
 31
0.0
  0
LINE
  5
3B62
  8
0
 10
161.51264973081041
 20
31.002854555791291
 30
0.0
 11
162.09
 21
32.125467614149358
 31
0.0
  0
LINE
  5
3B63
  8
0
 10
162.09
 20
28.269242300164571
 30
0.0
 11
161.51264973081041
 21
27.613199662690249
 31
0.0
  0
LINE
  5
3B64
  8
0
 10
161.5126497308124
 20
27.613199662690249
 30
0.0
 11
161.5126497308124
 21
28.839075250956281
 31
0.0
  0
LINE
  5
3B65
  8
0
 10
161.51264973081041
 20
28.839075250956281
 30
0.0
 11
162.09
 21
29.984052370643042
 31
0.0
  0
LINE
  5
3B66
  8
0
 10
162.09
 20
27.017585602198348
 30
0.0
 11
161.51264973081041
 21
26.2315256971441
 31
0.0
  0
LINE
  5
3B67
  8
0
 10
161.5126497308095
 20
26.2315256971441
 30
0.0
 11
161.5126497308095
 21
27.126304318602941
 31
0.0
  0
LINE
  5
3B68
  8
0
 10
161.5126497308103
 20
27.126304318602941
 30
0.0
 11
162.09
 21
28.269242300164588
 31
0.0
  0
LINE
  5
3B69
  8
0
 10
162.09
 20
26.255759166197471
 30
0.0
 11
161.51264973081041
 21
25.356435495721481
 31
0.0
  0
LINE
  5
3B6A
  8
0
 10
161.5126497308124
 20
25.356435495721481
 30
0.0
 11
161.5126497308124
 21
25.90104649752681
 31
0.0
  0
LINE
  5
3B6B
  8
0
 10
161.51264973081041
 20
25.90104649752681
 30
0.0
 11
162.09
 21
27.017585602198348
 31
0.0
  0
LINE
  5
3B6C
  8
0
 10
162.09
 20
26.000000000000121
 30
0.0
 11
161.51264973081041
 21
25.006580086777522
 31
0.0
  0
LINE
  5
3B6D
  8
0
 10
161.51264973081069
 20
25.006580086777522
 30
0.0
 11
161.51264973081069
 21
25.189416030952462
 31
0.0
  0
LINE
  5
3B6E
  8
0
 10
161.51264973081041
 20
25.189416030952462
 30
0.0
 11
162.09
 21
26.255759166197471
 31
0.0
  0
LINE
  5
3B6F
  8
0
 10
162.6673502691892
 20
25.189416030952462
 30
0.0
 11
162.6673502691892
 21
25.006580086777522
 31
0.0
  0
LINE
  5
3B70
  8
0
 10
162.6673502691896
 20
25.006580086777522
 30
0.0
 11
162.09
 21
26.000000000000121
 31
0.0
  0
LINE
  5
3B71
  8
0
 10
162.09
 20
26.255759166197471
 30
0.0
 11
162.6673502691896
 21
25.189416030952462
 31
0.0
  0
LINE
  5
3B72
  8
0
 10
162.66735026918761
 20
25.90104649752681
 30
0.0
 11
162.66735026918761
 21
25.356435495721481
 31
0.0
  0
LINE
  5
3B73
  8
0
 10
162.6673502691896
 20
25.356435495721481
 30
0.0
 11
162.09
 21
26.255759166197471
 31
0.0
  0
LINE
  5
3B74
  8
0
 10
162.09
 20
27.017585602198348
 30
0.0
 11
162.6673502691896
 21
25.90104649752681
 31
0.0
  0
LINE
  5
3B75
  8
0
 10
162.66735026919051
 20
27.126304318602941
 30
0.0
 11
162.66735026919051
 21
26.2315256971441
 31
0.0
  0
LINE
  5
3B76
  8
0
 10
162.6673502691896
 20
26.2315256971441
 30
0.0
 11
162.09
 21
27.017585602198348
 31
0.0
  0
LINE
  5
3B77
  8
0
 10
162.09
 20
28.269242300164588
 30
0.0
 11
162.6673502691896
 21
27.126304318602941
 31
0.0
  0
LINE
  5
3B78
  8
0
 10
162.66735026918761
 20
28.839075250956281
 30
0.0
 11
162.66735026918761
 21
27.613199662690249
 31
0.0
  0
LINE
  5
3B79
  8
0
 10
162.6673502691896
 20
27.613199662690249
 30
0.0
 11
162.09
 21
28.269242300164571
 31
0.0
  0
LINE
  5
3B7A
  8
0
 10
162.09
 20
29.984052370643042
 30
0.0
 11
162.6673502691896
 21
28.839075250956281
 31
0.0
  0
LINE
  5
3B7B
  8
0
 10
162.66735026918991
 20
31.002854555791291
 30
0.0
 11
162.66735026918991
 21
29.47200941057778
 31
0.0
  0
LINE
  5
3B7C
  8
0
 10
162.6673502691896
 20
29.47200941057778
 30
0.0
 11
162.09
 21
29.98405237064302
 31
0.0
  0
LINE
  5
3B7D
  8
0
 10
162.09
 20
32.125467614149358
 30
0.0
 11
162.6673502691896
 21
31.002854555791291
 31
0.0
  0
LINE
  5
3B7E
  8
0
 10
162.66735026919
 20
33.571525033871382
 30
0.0
 11
162.66735026919
 21
31.768337638203519
 31
0.0
  0
LINE
  5
3B7F
  8
0
 10
162.6673502691896
 20
31.768337638203519
 30
0.0
 11
162.09
 21
32.125467614149329
 31
0.0
  0
LINE
  5
3B80
  8
0
 10
162.09
 20
34.647847482586741
 30
0.0
 11
162.6673502691896
 21
33.571525033871382
 31
0.0
  0
LINE
  5
3B81
  8
0
 10
162.6673502691898
 20
36.490339933554083
 30
0.0
 11
162.6673502691898
 21
34.453242096166321
 31
0.0
  0
LINE
  5
3B82
  8
0
 10
162.6673502691896
 20
34.453242096166321
 30
0.0
 11
162.09
 21
34.647847482586712
 31
0.0
  0
LINE
  5
3B83
  8
0
 10
162.09
 20
37.497431828289791
 30
0.0
 11
162.6673502691896
 21
36.490339933554083
 31
0.0
  0
LINE
  5
3B84
  8
0
 10
162.66735026918951
 20
39.697089782753778
 30
0.0
 11
162.66735026918951
 21
37.469498707342161
 31
0.0
  0
LINE
  5
3B85
  8
0
 10
162.6673502691896
 20
37.469498707342161
 30
0.0
 11
162.09
 21
37.497431828289791
 31
0.0
  0
LINE
  5
3B86
  8
0
 10
162.09
 20
40.613486708236358
 30
0.0
 11
162.6673502691896
 21
39.697089782753778
 31
0.0
  0
LINE
  5
3B87
  8
0
 10
162.66735026919261
 20
43.123428275834208
 30
0.0
 11
162.66735026919261
 21
40.752821198738388
 31
0.0
  0
LINE
  5
3B88
  8
0
 10
162.6673502691896
 20
40.752821198738388
 30
0.0
 11
162.09
 21
40.61348670823633
 31
0.0
  0
LINE
  5
3B89
  8
0
 10
162.09
 20
43.929598822599793
 30
0.0
 11
162.6673502691896
 21
43.123428275834208
 31
0.0
  0
LINE
  5
3B8A
  8
0
 10
162.66735026918809
 20
46.696328956453719
 30
0.0
 11
162.66735026918809
 21
44.233231251792027
 31
0.0
  0
LINE
  5
3B8B
  8
0
 10
162.6673502691896
 20
44.233231251792027
 30
0.0
 11
162.09
 21
43.92959882259975
 31
0.0
  0
LINE
  5
3B8C
  8
0
 10
162.09
 20
26.000000000000082
 30
0.0
 11
162.09
 21
74.000000000000085
 31
0.0
  0
LINE
  5
3B8D
  8
0
 10
162.09
 20
47.375090998931107
 30
0.0
 11
162.6673502691896
 21
46.696328956453719
 31
0.0
  0
LINE
  5
3B8E
  8
0
 10
162.09
 20
50.876528553383899
 30
0.0
 11
162.6673502691896
 21
50.339641649697228
 31
0.0
  0
LINE
  5
3B8F
  8
0
 10
162.66735026919031
 20
50.339641649697228
 30
0.0
 11
162.66735026919031
 21
47.836549968736868
 31
0.0
  0
LINE
  5
3B90
  8
0
 10
162.6673502691896
 20
47.836549968736868
 30
0.0
 11
162.09
 21
47.375090998931107
 31
0.0
  0
LINE
  5
3B91
  8
0
 10
162.09
 20
54.359284423506573
 30
0.0
 11
162.6673502691896
 21
53.975715470846382
 31
0.0
  0
LINE
  5
3B92
  8
0
 10
162.66735026918951
 20
53.975715470846382
 30
0.0
 11
162.66735026918951
 21
51.485978867023867
 31
0.0
  0
LINE
  5
3B93
  8
0
 10
162.6673502691896
 20
51.485978867023867
 30
0.0
 11
162.09
 21
50.876528553383871
 31
0.0
  0
LINE
  5
3B94
  8
0
 10
162.09
 20
57.749129714514787
 30
0.0
 11
162.6673502691896
 21
57.527053819173688
 31
0.0
  0
LINE
  5
3B95
  8
0
 10
162.66735026919139
 20
57.527053819173688
 30
0.0
 11
162.66735026919139
 21
55.103736705642767
 31
0.0
  0
LINE
  5
3B96
  8
0
 10
162.6673502691896
 20
55.103736705642767
 30
0.0
 11
162.09
 21
54.359284423506523
 31
0.0
  0
LINE
  5
3B97
  8
0
 10
162.09
 20
60.973815759311407
 30
0.0
 11
162.6673502691896
 21
60.917966083441478
 31
0.0
  0
LINE
  5
3B98
  8
0
 10
162.66735026918829
 20
60.917966083441478
 30
0.0
 11
162.66735026918829
 21
58.612717257234493
 31
0.0
  0
LINE
  5
3B99
  8
0
 10
162.6673502691896
 20
58.612717257234493
 30
0.0
 11
162.09
 21
57.749129714514787
 31
0.0
  0
LINE
  5
3B9A
  8
0
 10
162.09
 20
63.964613973390982
 30
0.0
 11
162.6673502691896
 21
64.076180855869978
 31
0.0
  0
LINE
  5
3B9B
  8
0
 10
162.6673502691913
 20
64.076180855869978
 30
0.0
 11
162.6673502691913
 21
61.938132693459274
 31
0.0
  0
LINE
  5
3B9C
  8
0
 10
162.6673502691896
 20
61.938132693459274
 30
0.0
 11
162.09
 21
60.973815759311407
 31
0.0
  0
LINE
  5
3B9D
  8
0
 10
162.09
 20
66.657780685295293
 30
0.0
 11
162.6673502691896
 21
66.934386271720058
 31
0.0
  0
LINE
  5
3B9E
  8
0
 10
162.66735026919071
 20
66.934386271720058
 30
0.0
 11
162.66735026919071
 21
65.009107557714657
 31
0.0
  0
LINE
  5
3B9F
  8
0
 10
162.6673502691896
 20
65.009107557714657
 30
0.0
 11
162.09
 21
63.964613973390918
 31
0.0
  0
LINE
  5
3BA0
  8
0
 10
162.09
 20
68.995915722302158
 30
0.0
 11
162.6673502691896
 21
69.431664644826895
 31
0.0
  0
LINE
  5
3BA1
  8
0
 10
162.6673502691892
 20
69.431664644826895
 30
0.0
 11
162.6673502691892
 21
67.760189352442779
 31
0.0
  0
LINE
  5
3BA2
  8
0
 10
162.6673502691896
 20
67.760189352442779
 30
0.0
 11
162.09
 21
66.657780685295293
 31
0.0
  0
LINE
  5
3BA3
  8
0
 10
162.09
 20
70.929185795451446
 30
0.0
 11
162.6673502691896
 21
71.514790822318133
 31
0.0
  0
LINE
  5
3BA4
  8
0
 10
162.6673502691888
 20
71.514790822318133
 30
0.0
 11
162.6673502691888
 21
70.132743545480153
 31
0.0
  0
LINE
  5
3BA5
  8
0
 10
162.6673502691896
 20
70.132743545480153
 30
0.0
 11
162.09
 21
68.995915722302158
 31
0.0
  0
LINE
  5
3BA6
  8
0
 10
162.09
 20
72.416386609581224
 30
0.0
 11
162.6673502691896
 21
73.139366586340444
 31
0.0
  0
LINE
  5
3BA7
  8
0
 10
162.66735026918801
 20
73.139366586340444
 30
0.0
 11
162.66735026918801
 21
72.076203263312863
 31
0.0
  0
LINE
  5
3BA8
  8
0
 10
162.6673502691896
 20
72.076203263312863
 30
0.0
 11
162.09
 21
70.929185795451446
 31
0.0
  0
LINE
  5
3BA9
  8
0
 10
162.09
 20
73.425821061342305
 30
0.0
 11
162.6673502691896
 21
74.270766924991364
 31
0.0
  0
LINE
  5
3BAA
  8
0
 10
162.66735026919091
 20
74.270766924991364
 30
0.0
 11
162.66735026919091
 21
73.549147036193133
 31
0.0
  0
LINE
  5
3BAB
  8
0
 10
162.6673502691896
 20
73.549147036193133
 30
0.0
 11
162.09
 21
72.416386609581224
 31
0.0
  0
LINE
  5
3BAC
  8
0
 10
162.09
 20
73.935974807925305
 30
0.0
 11
162.6673502691896
 21
74.884878004333387
 31
0.0
  0
LINE
  5
3BAD
  8
0
 10
162.66735026918741
 20
74.884878004333387
 30
0.0
 11
162.66735026918741
 21
74.520181624853834
 31
0.0
  0
LINE
  5
3BAE
  8
0
 10
162.6673502691896
 20
74.520181624853834
 30
0.0
 11
162.09
 21
73.425821061342305
 31
0.0
  0
LINE
  5
3BAF
  8
0
 10
162.6673502691898
 20
75.000000000000085
 30
0.0
 11
162.6673502691898
 21
74.968611112899481
 31
0.0
  0
LINE
  5
3BB0
  8
0
 10
162.6673502691896
 20
74.968611112899481
 30
0.0
 11
162.09
 21
73.935974807925305
 31
0.0
  0
LINE
  5
3BB1
  8
0
 10
157.92264973081021
 20
74.968611112899481
 30
0.0
 11
157.92264973081021
 21
75.000000000000085
 31
0.0
  0
LINE
  5
3BB2
  8
0
 10
158.5
 20
73.935974807925305
 30
0.0
 11
157.92264973081041
 21
74.968611112899481
 31
0.0
  0
LINE
  5
3BB3
  8
0
 10
157.92264973081251
 20
74.520181624853834
 30
0.0
 11
157.92264973081251
 21
74.884878004333387
 31
0.0
  0
LINE
  5
3BB4
  8
0
 10
157.92264973081041
 20
74.884878004333387
 30
0.0
 11
158.5
 21
73.935974807925305
 31
0.0
  0
LINE
  5
3BB5
  8
0
 10
158.5
 20
73.425821061342361
 30
0.0
 11
157.92264973081041
 21
74.520181624853834
 31
0.0
  0
LINE
  5
3BB6
  8
0
 10
157.92264973080901
 20
73.549147036193133
 30
0.0
 11
157.92264973080901
 21
74.270766924991364
 31
0.0
  0
LINE
  5
3BB7
  8
0
 10
157.92264973081041
 20
74.270766924991364
 30
0.0
 11
158.5
 21
73.425821061342361
 31
0.0
  0
LINE
  5
3BB8
  8
0
 10
158.5
 20
72.416386609581281
 30
0.0
 11
157.92264973081041
 21
73.549147036193133
 31
0.0
  0
LINE
  5
3BB9
  8
0
 10
157.922649730812
 20
72.076203263312863
 30
0.0
 11
157.922649730812
 21
73.139366586340444
 31
0.0
  0
LINE
  5
3BBA
  8
0
 10
157.92264973081041
 20
73.139366586340444
 30
0.0
 11
158.5
 21
72.416386609581224
 31
0.0
  0
LINE
  5
3BBB
  8
0
 10
158.5
 20
70.929185795451502
 30
0.0
 11
157.92264973081041
 21
72.076203263312863
 31
0.0
  0
LINE
  5
3BBC
  8
0
 10
157.9226497308112
 20
70.132743545480153
 30
0.0
 11
157.9226497308112
 21
71.514790822318133
 31
0.0
  0
LINE
  5
3BBD
  8
0
 10
157.92264973081041
 20
71.514790822318133
 30
0.0
 11
158.5
 21
70.929185795451502
 31
0.0
  0
LINE
  5
3BBE
  8
0
 10
158.5
 20
68.995915722302158
 30
0.0
 11
157.92264973081041
 21
70.132743545480153
 31
0.0
  0
LINE
  5
3BBF
  8
0
 10
157.92264973081069
 20
67.760189352442779
 30
0.0
 11
157.92264973081069
 21
69.431664644826895
 31
0.0
  0
LINE
  5
3BC0
  8
0
 10
157.92264973081041
 20
69.431664644826895
 30
0.0
 11
158.5
 21
68.995915722302215
 31
0.0
  0
LINE
  5
3BC1
  8
0
 10
158.5
 20
66.657780685295293
 30
0.0
 11
157.92264973081041
 21
67.760189352442779
 31
0.0
  0
LINE
  5
3BC2
  8
0
 10
157.92264973080921
 20
65.009107557714657
 30
0.0
 11
157.92264973080921
 21
66.934386271720058
 31
0.0
  0
LINE
  5
3BC3
  8
0
 10
157.92264973081041
 20
66.934386271720058
 30
0.0
 11
158.5
 21
66.657780685295293
 31
0.0
  0
LINE
  5
3BC4
  8
0
 10
158.5
 20
63.964613973390982
 30
0.0
 11
157.92264973081041
 21
65.009107557714657
 31
0.0
  0
LINE
  5
3BC5
  8
0
 10
157.9226497308087
 20
61.938132693459274
 30
0.0
 11
157.9226497308087
 21
64.076180855869978
 31
0.0
  0
LINE
  5
3BC6
  8
0
 10
157.92264973081041
 20
64.076180855869978
 30
0.0
 11
158.5
 21
63.964613973390982
 31
0.0
  0
LINE
  5
3BC7
  8
0
 10
158.5
 20
60.973815759311407
 30
0.0
 11
157.92264973081041
 21
61.938132693459274
 31
0.0
  0
LINE
  5
3BC8
  8
0
 10
157.92264973081171
 20
58.612717257234493
 30
0.0
 11
157.92264973081171
 21
60.917966083441478
 31
0.0
  0
LINE
  5
3BC9
  8
0
 10
157.92264973081041
 20
60.917966083441478
 30
0.0
 11
158.5
 21
60.973815759311407
 31
0.0
  0
LINE
  5
3BCA
  8
0
 10
158.5
 20
57.749129714514787
 30
0.0
 11
157.92264973081041
 21
58.612717257234493
 31
0.0
  0
LINE
  5
3BCB
  8
0
 10
157.92264973080859
 20
55.103736705642767
 30
0.0
 11
157.92264973080859
 21
57.527053819173688
 31
0.0
  0
LINE
  5
3BCC
  8
0
 10
157.92264973081041
 20
57.527053819173688
 30
0.0
 11
158.5
 21
57.749129714514787
 31
0.0
  0
LINE
  5
3BCD
  8
0
 10
158.5
 20
54.359284423506573
 30
0.0
 11
157.92264973081041
 21
55.103736705642767
 31
0.0
  0
LINE
  5
3BCE
  8
0
 10
157.92264973081049
 20
51.485978867023867
 30
0.0
 11
157.92264973081049
 21
53.975715470846382
 31
0.0
  0
LINE
  5
3BCF
  8
0
 10
157.92264973081041
 20
53.975715470846382
 30
0.0
 11
158.5
 21
54.359284423506573
 31
0.0
  0
LINE
  5
3BD0
  8
0
 10
158.5
 20
50.876528553383899
 30
0.0
 11
157.92264973081041
 21
51.485978867023867
 31
0.0
  0
LINE
  5
3BD1
  8
0
 10
157.92264973080961
 20
47.836549968736868
 30
0.0
 11
157.92264973080961
 21
50.339641649697228
 31
0.0
  0
LINE
  5
3BD2
  8
0
 10
157.92264973081041
 20
50.339641649697228
 30
0.0
 11
158.5
 21
50.876528553383899
 31
0.0
  0
LINE
  5
3BD3
  8
0
 10
158.5
 20
47.375090998931107
 30
0.0
 11
157.92264973081041
 21
47.836549968736868
 31
0.0
  0
LINE
  5
3BD4
  8
0
 10
158.5
 20
43.92959882259975
 30
0.0
 11
157.92264973081041
 21
44.233231251792027
 31
0.0
  0
LINE
  5
3BD5
  8
0
 10
157.9226497308118
 20
44.233231251792027
 30
0.0
 11
157.9226497308118
 21
46.696328956453719
 31
0.0
  0
LINE
  5
3BD6
  8
0
 10
157.92264973081041
 20
46.696328956453719
 30
0.0
 11
158.5
 21
47.375090998931107
 31
0.0
  0
LINE
  5
3BD7
  8
0
 10
158.5
 20
40.61348670823633
 30
0.0
 11
157.92264973081029
 21
40.752821198738388
 31
0.0
  0
LINE
  5
3BD8
  8
0
 10
157.92264973080739
 20
40.752821198738388
 30
0.0
 11
157.92264973080739
 21
43.123428275834208
 31
0.0
  0
LINE
  5
3BD9
  8
0
 10
157.92264973081041
 20
43.123428275834208
 30
0.0
 11
158.5
 21
43.92959882259975
 31
0.0
  0
LINE
  5
3BDA
  8
0
 10
158.5
 20
37.497431828289791
 30
0.0
 11
157.92264973081041
 21
37.469498707342161
 31
0.0
  0
LINE
  5
3BDB
  8
0
 10
157.92264973081041
 20
37.469498707342161
 30
0.0
 11
157.92264973081041
 21
39.697089782753778
 31
0.0
  0
LINE
  5
3BDC
  8
0
 10
157.92264973081041
 20
39.697089782753778
 30
0.0
 11
158.5
 21
40.61348670823633
 31
0.0
  0
LINE
  5
3BDD
  8
0
 10
158.5
 20
34.647847482586712
 30
0.0
 11
157.92264973081041
 21
34.453242096166321
 31
0.0
  0
LINE
  5
3BDE
  8
0
 10
157.92264973081021
 20
34.453242096166321
 30
0.0
 11
157.92264973081021
 21
36.490339933554083
 31
0.0
  0
LINE
  5
3BDF
  8
0
 10
157.92264973081041
 20
36.490339933554083
 30
0.0
 11
158.5
 21
37.497431828289763
 31
0.0
  0
LINE
  5
3BE0
  8
0
 10
158.5
 20
32.125467614149301
 30
0.0
 11
157.92264973081041
 21
31.768337638203519
 31
0.0
  0
LINE
  5
3BE1
  8
0
 10
157.92264973080989
 20
31.768337638203519
 30
0.0
 11
157.92264973080989
 21
33.571525033871382
 31
0.0
  0
LINE
  5
3BE2
  8
0
 10
157.92264973081041
 20
33.571525033871382
 30
0.0
 11
158.5
 21
34.647847482586712
 31
0.0
  0
LINE
  5
3BE3
  8
0
 10
158.5
 20
29.98405237064302
 30
0.0
 11
157.92264973081041
 21
29.47200941057778
 31
0.0
  0
LINE
  5
3BE4
  8
0
 10
157.92264973081009
 20
29.47200941057778
 30
0.0
 11
157.92264973081009
 21
31.002854555791291
 31
0.0
  0
LINE
  5
3BE5
  8
0
 10
157.92264973081041
 20
31.002854555791291
 30
0.0
 11
158.5
 21
32.125467614149329
 31
0.0
  0
LINE
  5
3BE6
  8
0
 10
158.5
 20
28.269242300164571
 30
0.0
 11
157.92264973081041
 21
27.613199662690249
 31
0.0
  0
LINE
  5
3BE7
  8
0
 10
157.9226497308124
 20
27.613199662690249
 30
0.0
 11
157.9226497308124
 21
28.839075250956281
 31
0.0
  0
LINE
  5
3BE8
  8
0
 10
157.92264973081041
 20
28.839075250956281
 30
0.0
 11
158.5
 21
29.98405237064302
 31
0.0
  0
LINE
  5
3BE9
  8
0
 10
158.5
 20
27.017585602198348
 30
0.0
 11
157.92264973081041
 21
26.2315256971441
 31
0.0
  0
LINE
  5
3BEA
  8
0
 10
157.9226497308095
 20
26.2315256971441
 30
0.0
 11
157.9226497308095
 21
27.126304318602941
 31
0.0
  0
LINE
  5
3BEB
  8
0
 10
157.92264973081041
 20
27.126304318602941
 30
0.0
 11
158.5
 21
28.269242300164571
 31
0.0
  0
LINE
  5
3BEC
  8
0
 10
158.5
 20
26.255759166197439
 30
0.0
 11
157.92264973081041
 21
25.356435495721481
 31
0.0
  0
LINE
  5
3BED
  8
0
 10
157.9226497308124
 20
25.356435495721481
 30
0.0
 11
157.9226497308124
 21
25.90104649752681
 31
0.0
  0
LINE
  5
3BEE
  8
0
 10
157.92264973081041
 20
25.90104649752681
 30
0.0
 11
158.5
 21
27.017585602198348
 31
0.0
  0
LINE
  5
3BEF
  8
0
 10
158.5
 20
26.000000000000082
 30
0.0
 11
157.92264973081041
 21
25.006580086777522
 31
0.0
  0
LINE
  5
3BF0
  8
0
 10
157.92264973081069
 20
25.006580086777522
 30
0.0
 11
157.92264973081069
 21
25.189416030952462
 31
0.0
  0
LINE
  5
3BF1
  8
0
 10
157.92264973081041
 20
25.189416030952462
 30
0.0
 11
158.5
 21
26.255759166197439
 31
0.0
  0
LINE
  5
3BF2
  8
0
 10
159.0773502691892
 20
25.189416030952462
 30
0.0
 11
159.0773502691892
 21
25.006580086777522
 31
0.0
  0
LINE
  5
3BF3
  8
0
 10
159.07735026918959
 20
25.006580086777522
 30
0.0
 11
158.5
 21
26.000000000000082
 31
0.0
  0
LINE
  5
3BF4
  8
0
 10
158.5
 20
26.255759166197439
 30
0.0
 11
159.07735026918959
 21
25.189416030952462
 31
0.0
  0
LINE
  5
3BF5
  8
0
 10
159.0773502691876
 20
25.90104649752681
 30
0.0
 11
159.0773502691876
 21
25.356435495721481
 31
0.0
  0
LINE
  5
3BF6
  8
0
 10
159.07735026918959
 20
25.356435495721481
 30
0.0
 11
158.5
 21
26.255759166197439
 31
0.0
  0
LINE
  5
3BF7
  8
0
 10
158.5
 20
27.017585602198348
 30
0.0
 11
159.07735026918959
 21
25.90104649752681
 31
0.0
  0
LINE
  5
3BF8
  8
0
 10
159.0773502691905
 20
27.126304318602941
 30
0.0
 11
159.0773502691905
 21
26.2315256971441
 31
0.0
  0
LINE
  5
3BF9
  8
0
 10
159.07735026918959
 20
26.2315256971441
 30
0.0
 11
158.5
 21
27.017585602198331
 31
0.0
  0
LINE
  5
3BFA
  8
0
 10
158.5
 20
28.269242300164571
 30
0.0
 11
159.07735026918959
 21
27.126304318602941
 31
0.0
  0
LINE
  5
3BFB
  8
0
 10
159.0773502691876
 20
28.839075250956281
 30
0.0
 11
159.0773502691876
 21
27.613199662690249
 31
0.0
  0
LINE
  5
3BFC
  8
0
 10
159.07735026918959
 20
27.613199662690249
 30
0.0
 11
158.5
 21
28.269242300164571
 31
0.0
  0
LINE
  5
3BFD
  8
0
 10
158.5
 20
29.98405237064302
 30
0.0
 11
159.07735026918959
 21
28.839075250956281
 31
0.0
  0
LINE
  5
3BFE
  8
0
 10
159.07735026918991
 20
31.002854555791291
 30
0.0
 11
159.07735026918991
 21
29.47200941057778
 31
0.0
  0
LINE
  5
3BFF
  8
0
 10
159.07735026918959
 20
29.47200941057778
 30
0.0
 11
158.5
 21
29.98405237064302
 31
0.0
  0
LINE
  5
3C00
  8
0
 10
158.5
 20
32.125467614149329
 30
0.0
 11
159.07735026918959
 21
31.002854555791291
 31
0.0
  0
LINE
  5
3C01
  8
0
 10
159.07735026918999
 20
33.571525033871382
 30
0.0
 11
159.07735026918999
 21
31.768337638203519
 31
0.0
  0
LINE
  5
3C02
  8
0
 10
159.07735026918959
 20
31.768337638203519
 30
0.0
 11
158.5
 21
32.125467614149301
 31
0.0
  0
LINE
  5
3C03
  8
0
 10
158.5
 20
34.647847482586712
 30
0.0
 11
159.07735026918959
 21
33.571525033871382
 31
0.0
  0
LINE
  5
3C04
  8
0
 10
159.07735026918979
 20
36.490339933554083
 30
0.0
 11
159.07735026918979
 21
34.453242096166321
 31
0.0
  0
LINE
  5
3C05
  8
0
 10
159.07735026918959
 20
34.453242096166321
 30
0.0
 11
158.5
 21
34.647847482586712
 31
0.0
  0
LINE
  5
3C06
  8
0
 10
158.5
 20
37.497431828289763
 30
0.0
 11
159.07735026918959
 21
36.490339933554083
 31
0.0
  0
LINE
  5
3C07
  8
0
 10
159.07735026918951
 20
39.697089782753778
 30
0.0
 11
159.07735026918951
 21
37.469498707342161
 31
0.0
  0
LINE
  5
3C08
  8
0
 10
159.07735026918959
 20
37.469498707342161
 30
0.0
 11
158.5
 21
37.497431828289791
 31
0.0
  0
LINE
  5
3C09
  8
0
 10
158.5
 20
40.61348670823633
 30
0.0
 11
159.07735026918959
 21
39.697089782753778
 31
0.0
  0
LINE
  5
3C0A
  8
0
 10
159.07735026919261
 20
43.123428275834208
 30
0.0
 11
159.07735026919261
 21
40.752821198738388
 31
0.0
  0
LINE
  5
3C0B
  8
0
 10
159.07735026918959
 20
40.752821198738388
 30
0.0
 11
158.5
 21
40.61348670823633
 31
0.0
  0
LINE
  5
3C0C
  8
0
 10
158.5
 20
43.92959882259975
 30
0.0
 11
159.07735026918959
 21
43.123428275834208
 31
0.0
  0
LINE
  5
3C0D
  8
0
 10
159.07735026918809
 20
46.696328956453719
 30
0.0
 11
159.07735026918809
 21
44.233231251792027
 31
0.0
  0
LINE
  5
3C0E
  8
0
 10
159.07735026918959
 20
44.233231251792027
 30
0.0
 11
158.5
 21
43.92959882259975
 31
0.0
  0
LINE
  5
3C0F
  8
0
 10
158.5
 20
47.375090998931107
 30
0.0
 11
159.07735026918959
 21
46.696328956453719
 31
0.0
  0
LINE
  5
3C10
  8
0
 10
158.5
 20
50.876528553383899
 30
0.0
 11
159.07735026918959
 21
50.339641649697228
 31
0.0
  0
LINE
  5
3C11
  8
0
 10
159.0773502691903
 20
50.339641649697228
 30
0.0
 11
159.0773502691903
 21
47.836549968736868
 31
0.0
  0
LINE
  5
3C12
  8
0
 10
159.07735026918959
 20
47.836549968736868
 30
0.0
 11
158.5
 21
47.375090998931107
 31
0.0
  0
LINE
  5
3C13
  8
0
 10
158.5
 20
54.359284423506573
 30
0.0
 11
159.07735026918959
 21
53.975715470846382
 31
0.0
  0
LINE
  5
3C14
  8
0
 10
159.0773502691894
 20
53.975715470846382
 30
0.0
 11
159.0773502691894
 21
51.485978867023867
 31
0.0
  0
LINE
  5
3C15
  8
0
 10
159.07735026918959
 20
51.485978867023867
 30
0.0
 11
158.5
 21
50.876528553383899
 31
0.0
  0
LINE
  5
3C16
  8
0
 10
158.5
 20
57.749129714514787
 30
0.0
 11
159.07735026918959
 21
57.527053819173688
 31
0.0
  0
LINE
  5
3C17
  8
0
 10
159.0773502691913
 20
57.527053819173688
 30
0.0
 11
159.0773502691913
 21
55.103736705642767
 31
0.0
  0
LINE
  5
3C18
  8
0
 10
159.07735026918959
 20
55.103736705642767
 30
0.0
 11
158.5
 21
54.359284423506573
 31
0.0
  0
LINE
  5
3C19
  8
0
 10
158.5
 20
60.973815759311407
 30
0.0
 11
159.07735026918959
 21
60.917966083441478
 31
0.0
  0
LINE
  5
3C1A
  8
0
 10
159.0773502691882
 20
60.917966083441478
 30
0.0
 11
159.0773502691882
 21
58.612717257234493
 31
0.0
  0
LINE
  5
3C1B
  8
0
 10
159.07735026918959
 20
58.612717257234493
 30
0.0
 11
158.5
 21
57.749129714514787
 31
0.0
  0
LINE
  5
3C1C
  8
0
 10
158.5
 20
26.000000000000082
 30
0.0
 11
158.5
 21
74.000000000000085
 31
0.0
  0
LINE
  5
3C1D
  8
0
 10
158.5
 20
63.964613973390982
 30
0.0
 11
159.07735026918959
 21
64.076180855869978
 31
0.0
  0
LINE
  5
3C1E
  8
0
 10
159.07735026919119
 20
64.076180855869978
 30
0.0
 11
159.07735026919119
 21
61.938132693459274
 31
0.0
  0
LINE
  5
3C1F
  8
0
 10
159.07735026918959
 20
61.938132693459274
 30
0.0
 11
158.5
 21
60.973815759311407
 31
0.0
  0
LINE
  5
3C20
  8
0
 10
158.5
 20
66.657780685295293
 30
0.0
 11
159.07735026918959
 21
66.934386271720058
 31
0.0
  0
LINE
  5
3C21
  8
0
 10
159.0773502691907
 20
66.934386271720058
 30
0.0
 11
159.0773502691907
 21
65.009107557714657
 31
0.0
  0
LINE
  5
3C22
  8
0
 10
159.07735026918959
 20
65.009107557714657
 30
0.0
 11
158.5
 21
63.964613973390982
 31
0.0
  0
LINE
  5
3C23
  8
0
 10
158.5
 20
68.995915722302215
 30
0.0
 11
159.07735026918959
 21
69.431664644826895
 31
0.0
  0
LINE
  5
3C24
  8
0
 10
159.0773502691892
 20
69.431664644826895
 30
0.0
 11
159.0773502691892
 21
67.760189352442779
 31
0.0
  0
LINE
  5
3C25
  8
0
 10
159.07735026918959
 20
67.760189352442779
 30
0.0
 11
158.5
 21
66.657780685295293
 31
0.0
  0
LINE
  5
3C26
  8
0
 10
158.5
 20
70.929185795451502
 30
0.0
 11
159.07735026918959
 21
71.514790822318133
 31
0.0
  0
LINE
  5
3C27
  8
0
 10
159.0773502691888
 20
71.514790822318133
 30
0.0
 11
159.0773502691888
 21
70.132743545480153
 31
0.0
  0
LINE
  5
3C28
  8
0
 10
159.07735026918959
 20
70.132743545480153
 30
0.0
 11
158.5
 21
68.995915722302215
 31
0.0
  0
LINE
  5
3C29
  8
0
 10
158.5
 20
72.416386609581224
 30
0.0
 11
159.07735026918959
 21
73.139366586340444
 31
0.0
  0
LINE
  5
3C2A
  8
0
 10
159.077350269188
 20
73.139366586340444
 30
0.0
 11
159.077350269188
 21
72.076203263312863
 31
0.0
  0
LINE
  5
3C2B
  8
0
 10
159.07735026918959
 20
72.076203263312863
 30
0.0
 11
158.5
 21
70.929185795451502
 31
0.0
  0
LINE
  5
3C2C
  8
0
 10
158.5
 20
73.425821061342361
 30
0.0
 11
159.07735026918959
 21
74.270766924991364
 31
0.0
  0
LINE
  5
3C2D
  8
0
 10
159.0773502691909
 20
74.270766924991364
 30
0.0
 11
159.0773502691909
 21
73.549147036193133
 31
0.0
  0
LINE
  5
3C2E
  8
0
 10
159.07735026918959
 20
73.549147036193133
 30
0.0
 11
158.5
 21
72.416386609581281
 31
0.0
  0
LINE
  5
3C2F
  8
0
 10
158.5
 20
73.935974807925305
 30
0.0
 11
159.07735026918959
 21
74.884878004333387
 31
0.0
  0
LINE
  5
3C30
  8
0
 10
159.07735026918741
 20
74.884878004333387
 30
0.0
 11
159.07735026918741
 21
74.520181624853834
 31
0.0
  0
LINE
  5
3C31
  8
0
 10
159.07735026918959
 20
74.520181624853834
 30
0.0
 11
158.5
 21
73.425821061342361
 31
0.0
  0
LINE
  5
3C32
  8
0
 10
159.07735026918979
 20
75.000000000000085
 30
0.0
 11
159.07735026918979
 21
74.968611112899481
 31
0.0
  0
LINE
  5
3C33
  8
0
 10
159.07735026918959
 20
74.968611112899481
 30
0.0
 11
158.5
 21
73.935974807925305
 31
0.0
  0
LINE
  5
3C34
  8
0
 10
154.3326497308102
 20
74.968611112899481
 30
0.0
 11
154.3326497308102
 21
75.000000000000085
 31
0.0
  0
LINE
  5
3C35
  8
0
 10
154.91
 20
73.935974807925362
 30
0.0
 11
154.3326497308104
 21
74.968611112899481
 31
0.0
  0
LINE
  5
3C36
  8
0
 10
154.33264973081251
 20
74.520181624853834
 30
0.0
 11
154.33264973081251
 21
74.884878004333387
 31
0.0
  0
LINE
  5
3C37
  8
0
 10
154.3326497308104
 20
74.884878004333387
 30
0.0
 11
154.91
 21
73.935974807925362
 31
0.0
  0
LINE
  5
3C38
  8
0
 10
154.91
 20
73.425821061342361
 30
0.0
 11
154.3326497308104
 21
74.520181624853834
 31
0.0
  0
LINE
  5
3C39
  8
0
 10
154.33264973080901
 20
73.549147036193133
 30
0.0
 11
154.33264973080901
 21
74.270766924991364
 31
0.0
  0
LINE
  5
3C3A
  8
0
 10
154.3326497308104
 20
74.270766924991364
 30
0.0
 11
154.91
 21
73.425821061342361
 31
0.0
  0
LINE
  5
3C3B
  8
0
 10
154.91
 20
72.416386609581281
 30
0.0
 11
154.3326497308104
 21
73.549147036193133
 31
0.0
  0
LINE
  5
3C3C
  8
0
 10
154.33264973081199
 20
72.076203263312863
 30
0.0
 11
154.33264973081199
 21
73.139366586340444
 31
0.0
  0
LINE
  5
3C3D
  8
0
 10
154.3326497308104
 20
73.139366586340444
 30
0.0
 11
154.91
 21
72.416386609581224
 31
0.0
  0
LINE
  5
3C3E
  8
0
 10
154.91
 20
70.929185795451502
 30
0.0
 11
154.3326497308104
 21
72.076203263312863
 31
0.0
  0
LINE
  5
3C3F
  8
0
 10
154.3326497308112
 20
70.132743545480153
 30
0.0
 11
154.3326497308112
 21
71.514790822318133
 31
0.0
  0
LINE
  5
3C40
  8
0
 10
154.3326497308104
 20
71.514790822318133
 30
0.0
 11
154.91
 21
70.929185795451502
 31
0.0
  0
LINE
  5
3C41
  8
0
 10
154.91
 20
68.995915722302215
 30
0.0
 11
154.3326497308104
 21
70.132743545480153
 31
0.0
  0
LINE
  5
3C42
  8
0
 10
154.33264973081069
 20
67.760189352442779
 30
0.0
 11
154.33264973081069
 21
69.431664644826895
 31
0.0
  0
LINE
  5
3C43
  8
0
 10
154.3326497308104
 20
69.431664644826895
 30
0.0
 11
154.91
 21
68.995915722302215
 31
0.0
  0
LINE
  5
3C44
  8
0
 10
154.91
 20
66.657780685295293
 30
0.0
 11
154.3326497308104
 21
67.760189352442779
 31
0.0
  0
LINE
  5
3C45
  8
0
 10
154.33264973080921
 20
65.009107557714657
 30
0.0
 11
154.33264973080921
 21
66.934386271720058
 31
0.0
  0
LINE
  5
3C46
  8
0
 10
154.3326497308104
 20
66.934386271720058
 30
0.0
 11
154.91
 21
66.657780685295293
 31
0.0
  0
LINE
  5
3C47
  8
0
 10
154.91
 20
63.964613973390982
 30
0.0
 11
154.3326497308104
 21
65.009107557714657
 31
0.0
  0
LINE
  5
3C48
  8
0
 10
154.3326497308087
 20
61.938132693459274
 30
0.0
 11
154.3326497308087
 21
64.076180855869978
 31
0.0
  0
LINE
  5
3C49
  8
0
 10
154.3326497308104
 20
64.076180855869978
 30
0.0
 11
154.91
 21
63.964613973390982
 31
0.0
  0
LINE
  5
3C4A
  8
0
 10
154.91
 20
60.973815759311407
 30
0.0
 11
154.3326497308104
 21
61.938132693459274
 31
0.0
  0
LINE
  5
3C4B
  8
0
 10
154.33264973081171
 20
58.612717257234493
 30
0.0
 11
154.33264973081171
 21
60.917966083441478
 31
0.0
  0
LINE
  5
3C4C
  8
0
 10
154.3326497308104
 20
60.917966083441478
 30
0.0
 11
154.91
 21
60.973815759311407
 31
0.0
  0
LINE
  5
3C4D
  8
0
 10
154.91
 20
57.749129714514787
 30
0.0
 11
154.3326497308104
 21
58.612717257234493
 31
0.0
  0
LINE
  5
3C4E
  8
0
 10
154.33264973080861
 20
55.103736705642767
 30
0.0
 11
154.33264973080861
 21
57.527053819173688
 31
0.0
  0
LINE
  5
3C4F
  8
0
 10
154.3326497308104
 20
57.527053819173688
 30
0.0
 11
154.91
 21
57.749129714514787
 31
0.0
  0
LINE
  5
3C50
  8
0
 10
154.91
 20
54.359284423506573
 30
0.0
 11
154.3326497308104
 21
55.103736705642767
 31
0.0
  0
LINE
  5
3C51
  8
0
 10
154.33264973081049
 20
51.485978867023867
 30
0.0
 11
154.33264973081049
 21
53.975715470846382
 31
0.0
  0
LINE
  5
3C52
  8
0
 10
154.3326497308104
 20
53.975715470846382
 30
0.0
 11
154.91
 21
54.359284423506573
 31
0.0
  0
LINE
  5
3C53
  8
0
 10
154.91
 20
50.876528553383899
 30
0.0
 11
154.3326497308104
 21
51.485978867023867
 31
0.0
  0
LINE
  5
3C54
  8
0
 10
154.33264973080961
 20
47.836549968736868
 30
0.0
 11
154.33264973080961
 21
50.339641649697228
 31
0.0
  0
LINE
  5
3C55
  8
0
 10
154.3326497308104
 20
50.339641649697228
 30
0.0
 11
154.91
 21
50.876528553383899
 31
0.0
  0
LINE
  5
3C56
  8
0
 10
154.91
 20
47.375090998931142
 30
0.0
 11
154.3326497308104
 21
47.836549968736868
 31
0.0
  0
LINE
  5
3C57
  8
0
 10
154.91
 20
43.92959882259975
 30
0.0
 11
154.3326497308104
 21
44.233231251792027
 31
0.0
  0
LINE
  5
3C58
  8
0
 10
154.33264973081191
 20
44.233231251792027
 30
0.0
 11
154.33264973081191
 21
46.696328956453719
 31
0.0
  0
LINE
  5
3C59
  8
0
 10
154.3326497308104
 20
46.696328956453719
 30
0.0
 11
154.91
 21
47.375090998931107
 31
0.0
  0
LINE
  5
3C5A
  8
0
 10
154.91
 20
40.61348670823633
 30
0.0
 11
154.3326497308104
 21
40.752821198738388
 31
0.0
  0
LINE
  5
3C5B
  8
0
 10
154.33264973080739
 20
40.752821198738388
 30
0.0
 11
154.33264973080739
 21
43.123428275834208
 31
0.0
  0
LINE
  5
3C5C
  8
0
 10
154.3326497308104
 20
43.123428275834208
 30
0.0
 11
154.91
 21
43.92959882259975
 31
0.0
  0
LINE
  5
3C5D
  8
0
 10
154.91
 20
37.497431828289791
 30
0.0
 11
154.3326497308104
 21
37.469498707342161
 31
0.0
  0
LINE
  5
3C5E
  8
0
 10
154.3326497308104
 20
37.469498707342161
 30
0.0
 11
154.3326497308104
 21
39.697089782753778
 31
0.0
  0
LINE
  5
3C5F
  8
0
 10
154.3326497308104
 20
39.697089782753778
 30
0.0
 11
154.91
 21
40.61348670823633
 31
0.0
  0
LINE
  5
3C60
  8
0
 10
154.91
 20
34.647847482586712
 30
0.0
 11
154.3326497308104
 21
34.453242096166321
 31
0.0
  0
LINE
  5
3C61
  8
0
 10
154.3326497308102
 20
34.453242096166321
 30
0.0
 11
154.3326497308102
 21
36.490339933554083
 31
0.0
  0
LINE
  5
3C62
  8
0
 10
154.3326497308104
 20
36.490339933554083
 30
0.0
 11
154.91
 21
37.497431828289763
 31
0.0
  0
LINE
  5
3C63
  8
0
 10
154.91
 20
32.125467614149301
 30
0.0
 11
154.3326497308104
 21
31.768337638203519
 31
0.0
  0
LINE
  5
3C64
  8
0
 10
154.33264973080989
 20
31.768337638203519
 30
0.0
 11
154.33264973080989
 21
33.571525033871382
 31
0.0
  0
LINE
  5
3C65
  8
0
 10
154.3326497308104
 20
33.571525033871382
 30
0.0
 11
154.91
 21
34.647847482586691
 31
0.0
  0
LINE
  5
3C66
  8
0
 10
154.91
 20
29.98405237064302
 30
0.0
 11
154.3326497308104
 21
29.47200941057778
 31
0.0
  0
LINE
  5
3C67
  8
0
 10
154.33264973081009
 20
29.47200941057778
 30
0.0
 11
154.33264973081009
 21
31.002854555791291
 31
0.0
  0
LINE
  5
3C68
  8
0
 10
154.3326497308104
 20
31.002854555791291
 30
0.0
 11
154.91
 21
32.125467614149301
 31
0.0
  0
LINE
  5
3C69
  8
0
 10
154.91
 20
28.269242300164571
 30
0.0
 11
154.3326497308104
 21
27.613199662690249
 31
0.0
  0
LINE
  5
3C6A
  8
0
 10
154.33264973081239
 20
27.613199662690249
 30
0.0
 11
154.33264973081239
 21
28.839075250956281
 31
0.0
  0
LINE
  5
3C6B
  8
0
 10
154.3326497308104
 20
28.839075250956281
 30
0.0
 11
154.91
 21
29.98405237064302
 31
0.0
  0
LINE
  5
3C6C
  8
0
 10
154.91
 20
27.017585602198331
 30
0.0
 11
154.3326497308104
 21
26.2315256971441
 31
0.0
  0
LINE
  5
3C6D
  8
0
 10
154.33264973080949
 20
26.2315256971441
 30
0.0
 11
154.33264973080949
 21
27.126304318602941
 31
0.0
  0
LINE
  5
3C6E
  8
0
 10
154.3326497308104
 20
27.126304318602941
 30
0.0
 11
154.91
 21
28.269242300164571
 31
0.0
  0
LINE
  5
3C6F
  8
0
 10
154.91
 20
26.255759166197439
 30
0.0
 11
154.3326497308104
 21
25.356435495721481
 31
0.0
  0
LINE
  5
3C70
  8
0
 10
154.33264973081239
 20
25.356435495721481
 30
0.0
 11
154.33264973081239
 21
25.90104649752681
 31
0.0
  0
LINE
  5
3C71
  8
0
 10
154.3326497308104
 20
25.90104649752681
 30
0.0
 11
154.91
 21
27.017585602198331
 31
0.0
  0
LINE
  5
3C72
  8
0
 10
154.91
 20
26.000000000000082
 30
0.0
 11
154.3326497308104
 21
25.006580086777522
 31
0.0
  0
LINE
  5
3C73
  8
0
 10
154.33264973081069
 20
25.006580086777522
 30
0.0
 11
154.33264973081069
 21
25.189416030952462
 31
0.0
  0
LINE
  5
3C74
  8
0
 10
154.3326497308104
 20
25.189416030952462
 30
0.0
 11
154.91
 21
26.255759166197439
 31
0.0
  0
LINE
  5
3C75
  8
0
 10
155.48735026918919
 20
25.189416030952462
 30
0.0
 11
155.48735026918919
 21
25.006580086777522
 31
0.0
  0
LINE
  5
3C76
  8
0
 10
155.48735026918959
 20
25.006580086777522
 30
0.0
 11
154.91
 21
26.000000000000082
 31
0.0
  0
LINE
  5
3C77
  8
0
 10
154.91
 20
26.255759166197439
 30
0.0
 11
155.48735026918959
 21
25.189416030952462
 31
0.0
  0
LINE
  5
3C78
  8
0
 10
155.4873502691876
 20
25.90104649752681
 30
0.0
 11
155.4873502691876
 21
25.356435495721481
 31
0.0
  0
LINE
  5
3C79
  8
0
 10
155.48735026918951
 20
25.356435495721481
 30
0.0
 11
154.91
 21
26.255759166197439
 31
0.0
  0
LINE
  5
3C7A
  8
0
 10
154.91
 20
27.017585602198331
 30
0.0
 11
155.48735026918959
 21
25.90104649752681
 31
0.0
  0
LINE
  5
3C7B
  8
0
 10
155.48735026919039
 20
27.126304318602941
 30
0.0
 11
155.48735026919039
 21
26.2315256971441
 31
0.0
  0
LINE
  5
3C7C
  8
0
 10
155.48735026918959
 20
26.2315256971441
 30
0.0
 11
154.91
 21
27.017585602198331
 31
0.0
  0
LINE
  5
3C7D
  8
0
 10
154.91
 20
28.269242300164571
 30
0.0
 11
155.48735026918959
 21
27.126304318602941
 31
0.0
  0
LINE
  5
3C7E
  8
0
 10
155.4873502691876
 20
28.839075250956281
 30
0.0
 11
155.4873502691876
 21
27.613199662690249
 31
0.0
  0
LINE
  5
3C7F
  8
0
 10
155.48735026918959
 20
27.613199662690249
 30
0.0
 11
154.91
 21
28.269242300164571
 31
0.0
  0
LINE
  5
3C80
  8
0
 10
154.91
 20
29.98405237064302
 30
0.0
 11
155.48735026918959
 21
28.839075250956281
 31
0.0
  0
LINE
  5
3C81
  8
0
 10
155.48735026918979
 20
31.002854555791291
 30
0.0
 11
155.48735026918979
 21
29.47200941057778
 31
0.0
  0
LINE
  5
3C82
  8
0
 10
155.48735026918959
 20
29.47200941057778
 30
0.0
 11
154.91
 21
29.98405237064302
 31
0.0
  0
LINE
  5
3C83
  8
0
 10
154.91
 20
32.125467614149301
 30
0.0
 11
155.48735026918959
 21
31.002854555791291
 31
0.0
  0
LINE
  5
3C84
  8
0
 10
155.48735026918999
 20
33.571525033871382
 30
0.0
 11
155.48735026918999
 21
31.768337638203519
 31
0.0
  0
LINE
  5
3C85
  8
0
 10
155.48735026918959
 20
31.768337638203519
 30
0.0
 11
154.91
 21
32.125467614149301
 31
0.0
  0
LINE
  5
3C86
  8
0
 10
154.91
 20
34.647847482586691
 30
0.0
 11
155.48735026918959
 21
33.571525033871382
 31
0.0
  0
LINE
  5
3C87
  8
0
 10
155.48735026918979
 20
36.490339933554083
 30
0.0
 11
155.48735026918979
 21
34.453242096166321
 31
0.0
  0
LINE
  5
3C88
  8
0
 10
155.48735026918951
 20
34.453242096166321
 30
0.0
 11
154.91
 21
34.647847482586712
 31
0.0
  0
LINE
  5
3C89
  8
0
 10
154.91
 20
37.497431828289763
 30
0.0
 11
155.48735026918959
 21
36.490339933554083
 31
0.0
  0
LINE
  5
3C8A
  8
0
 10
155.48735026918951
 20
39.697089782753778
 30
0.0
 11
155.48735026918951
 21
37.469498707342161
 31
0.0
  0
LINE
  5
3C8B
  8
0
 10
155.48735026918951
 20
37.469498707342161
 30
0.0
 11
154.91
 21
37.497431828289791
 31
0.0
  0
LINE
  5
3C8C
  8
0
 10
154.91
 20
40.61348670823633
 30
0.0
 11
155.48735026918959
 21
39.697089782753778
 31
0.0
  0
LINE
  5
3C8D
  8
0
 10
155.4873502691926
 20
43.123428275834208
 30
0.0
 11
155.4873502691926
 21
40.752821198738388
 31
0.0
  0
LINE
  5
3C8E
  8
0
 10
155.48735026918959
 20
40.752821198738388
 30
0.0
 11
154.91
 21
40.61348670823633
 31
0.0
  0
LINE
  5
3C8F
  8
0
 10
154.91
 20
43.92959882259975
 30
0.0
 11
155.48735026918959
 21
43.123428275834208
 31
0.0
  0
LINE
  5
3C90
  8
0
 10
155.48735026918811
 20
46.696328956453719
 30
0.0
 11
155.48735026918811
 21
44.233231251792027
 31
0.0
  0
LINE
  5
3C91
  8
0
 10
155.48735026918959
 20
44.233231251792027
 30
0.0
 11
154.91
 21
43.92959882259975
 31
0.0
  0
LINE
  5
3C92
  8
0
 10
154.91
 20
47.375090998931107
 30
0.0
 11
155.48735026918959
 21
46.696328956453719
 31
0.0
  0
LINE
  5
3C93
  8
0
 10
154.91
 20
50.876528553383899
 30
0.0
 11
155.48735026918959
 21
50.339641649697228
 31
0.0
  0
LINE
  5
3C94
  8
0
 10
155.4873502691903
 20
50.339641649697228
 30
0.0
 11
155.4873502691903
 21
47.836549968736868
 31
0.0
  0
LINE
  5
3C95
  8
0
 10
155.48735026918959
 20
47.836549968736868
 30
0.0
 11
154.91
 21
47.375090998931142
 31
0.0
  0
LINE
  5
3C96
  8
0
 10
154.91
 20
54.359284423506573
 30
0.0
 11
155.48735026918959
 21
53.975715470846382
 31
0.0
  0
LINE
  5
3C97
  8
0
 10
155.48735026918939
 20
53.975715470846382
 30
0.0
 11
155.48735026918939
 21
51.485978867023867
 31
0.0
  0
LINE
  5
3C98
  8
0
 10
155.48735026918959
 20
51.485978867023867
 30
0.0
 11
154.91
 21
50.876528553383899
 31
0.0
  0
LINE
  5
3C99
  8
0
 10
154.91
 20
57.749129714514787
 30
0.0
 11
155.48735026918959
 21
57.527053819173688
 31
0.0
  0
LINE
  5
3C9A
  8
0
 10
155.4873502691913
 20
57.527053819173688
 30
0.0
 11
155.4873502691913
 21
55.103736705642767
 31
0.0
  0
LINE
  5
3C9B
  8
0
 10
155.48735026918959
 20
55.103736705642767
 30
0.0
 11
154.91
 21
54.359284423506573
 31
0.0
  0
LINE
  5
3C9C
  8
0
 10
154.91
 20
60.973815759311407
 30
0.0
 11
155.48735026918959
 21
60.917966083441478
 31
0.0
  0
LINE
  5
3C9D
  8
0
 10
155.4873502691882
 20
60.917966083441478
 30
0.0
 11
155.4873502691882
 21
58.612717257234493
 31
0.0
  0
LINE
  5
3C9E
  8
0
 10
155.48735026918959
 20
58.612717257234493
 30
0.0
 11
154.91
 21
57.749129714514787
 31
0.0
  0
LINE
  5
3C9F
  8
0
 10
154.91
 20
26.000000000000082
 30
0.0
 11
154.91
 21
74.000000000000085
 31
0.0
  0
LINE
  5
3CA0
  8
0
 10
154.91
 20
63.964613973390982
 30
0.0
 11
155.48735026918959
 21
64.076180855869978
 31
0.0
  0
LINE
  5
3CA1
  8
0
 10
155.48735026919121
 20
64.076180855869978
 30
0.0
 11
155.48735026919121
 21
61.938132693459274
 31
0.0
  0
LINE
  5
3CA2
  8
0
 10
155.48735026918959
 20
61.938132693459274
 30
0.0
 11
154.91
 21
60.973815759311407
 31
0.0
  0
LINE
  5
3CA3
  8
0
 10
154.91
 20
66.657780685295293
 30
0.0
 11
155.48735026918959
 21
66.934386271720058
 31
0.0
  0
LINE
  5
3CA4
  8
0
 10
155.4873502691907
 20
66.934386271720058
 30
0.0
 11
155.4873502691907
 21
65.009107557714657
 31
0.0
  0
LINE
  5
3CA5
  8
0
 10
155.48735026918959
 20
65.009107557714657
 30
0.0
 11
154.91
 21
63.964613973390982
 31
0.0
  0
LINE
  5
3CA6
  8
0
 10
154.91
 20
68.995915722302215
 30
0.0
 11
155.48735026918959
 21
69.431664644826895
 31
0.0
  0
LINE
  5
3CA7
  8
0
 10
155.48735026918919
 20
69.431664644826895
 30
0.0
 11
155.48735026918919
 21
67.760189352442779
 31
0.0
  0
LINE
  5
3CA8
  8
0
 10
155.48735026918959
 20
67.760189352442779
 30
0.0
 11
154.91
 21
66.657780685295293
 31
0.0
  0
LINE
  5
3CA9
  8
0
 10
154.91
 20
70.929185795451502
 30
0.0
 11
155.48735026918959
 21
71.514790822318133
 31
0.0
  0
LINE
  5
3CAA
  8
0
 10
155.48735026918879
 20
71.514790822318133
 30
0.0
 11
155.48735026918879
 21
70.132743545480153
 31
0.0
  0
LINE
  5
3CAB
  8
0
 10
155.48735026918959
 20
70.132743545480153
 30
0.0
 11
154.91
 21
68.995915722302215
 31
0.0
  0
LINE
  5
3CAC
  8
0
 10
154.91
 20
72.416386609581224
 30
0.0
 11
155.48735026918959
 21
73.139366586340444
 31
0.0
  0
LINE
  5
3CAD
  8
0
 10
155.487350269188
 20
73.139366586340444
 30
0.0
 11
155.487350269188
 21
72.076203263312863
 31
0.0
  0
LINE
  5
3CAE
  8
0
 10
155.48735026918959
 20
72.076203263312863
 30
0.0
 11
154.91
 21
70.929185795451502
 31
0.0
  0
LINE
  5
3CAF
  8
0
 10
154.91
 20
73.425821061342361
 30
0.0
 11
155.48735026918959
 21
74.270766924991364
 31
0.0
  0
LINE
  5
3CB0
  8
0
 10
155.4873502691909
 20
74.270766924991364
 30
0.0
 11
155.4873502691909
 21
73.549147036193133
 31
0.0
  0
LINE
  5
3CB1
  8
0
 10
155.48735026918959
 20
73.549147036193133
 30
0.0
 11
154.91
 21
72.416386609581281
 31
0.0
  0
LINE
  5
3CB2
  8
0
 10
154.91
 20
73.935974807925362
 30
0.0
 11
155.48735026918959
 21
74.884878004333387
 31
0.0
  0
LINE
  5
3CB3
  8
0
 10
155.4873502691874
 20
74.884878004333387
 30
0.0
 11
155.4873502691874
 21
74.520181624853834
 31
0.0
  0
LINE
  5
3CB4
  8
0
 10
155.48735026918959
 20
74.520181624853834
 30
0.0
 11
154.91
 21
73.425821061342361
 31
0.0
  0
LINE
  5
3CB5
  8
0
 10
155.48735026918979
 20
75.000000000000085
 30
0.0
 11
155.48735026918979
 21
74.968611112899481
 31
0.0
  0
LINE
  5
3CB6
  8
0
 10
155.48735026918959
 20
74.968611112899481
 30
0.0
 11
154.91
 21
73.935974807925362
 31
0.0
  0
LINE
  5
3CBF
  8
1
 10
20.000000000000028
 20
50.000000000000078
 30
0.0
 11
79.999999999999673
 21
50.000000000000078
 31
0.0
  0
LINE
  5
3CC0
  8
1
 10
49.999999999999829
 20
20.000000000000259
 30
0.0
 11
49.999999999999837
 21
79.999999999999915
 31
0.0
  0
CIRCLE
  5
3CC1
  8
0
 10
49.999999999998863
 20
49.999999999999922
 30
0.0
 40
23.0
  0
CIRCLE
  5
3CC2
  8
0
 10
49.999999999998863
 20
49.999999999999922
 30
0.0
 40
10.000000000000171
  0
CIRCLE
  5
3CC3
  8
0
 10
49.999999999998863
 20
49.999999999999922
 30
0.0
 40
5.333333333333484
  0
LINE
  5
3CC4
  8
0
 10
73.983988360884595
 20
50.876528553383707
 30
0.0
 11
74.955798260258121
 21
51.485978867023682
 31
0.0
  0
ARC
  5
3CC5
  8
0
 10
49.99999999999676
 20
49.999999999999602
 30
0.0
 40
25.000000000002121
 50
3.4076212416946472
 51
9.1505182931882416
  0
LINE
  5
3CC6
  8
0
 10
74.997692764527926
 20
50.339641649697057
 30
0.0
 11
73.983988360884595
 21
50.876528553383729
 31
0.0
  0
LINE
  5
3CC7
  8
0
 10
74.68184933295754
 20
53.975715470846211
 30
0.0
 11
73.600776243906012
 21
54.359284423506409
 31
0.0
  0
ARC
  5
3CC8
  8
0
 10
49.999999999994941
 20
49.999999999999801
 30
0.0
 40
25.000000000003869
 50
355.03552821843988
 51
0.7784252699322919
  0
LINE
  5
3CC9
  8
0
 10
73.856023405757526
 20
47.375090998930908
 30
0.0
 11
74.906213762074913
 21
47.836549968736712
 31
0.0
  0
LINE
  5
3CCA
  8
0
 10
73.600776243906068
 20
54.359284423506352
 30
0.0
 11
74.473493245538521
 21
55.103736705642604
 31
0.0
  0
ARC
  5
3CCB
  8
0
 10
49.999999999988738
 20
49.999999999996959
 30
0.0
 40
25.000000000010491
 50
11.779714264953361
 51
17.52261131644412
  0
LINE
  5
3CCC
  8
0
 10
73.839955134253273
 20
57.52705381917351
 30
0.0
 11
72.714554555781476
 21
57.749129714514623
 31
0.0
  0
LINE
  5
3CCD
  8
0
 10
74.780753774572247
 20
46.696328956453563
 30
0.0
 11
73.856023405757583
 21
47.375090998930943
 31
0.0
  0
ARC
  5
3CCE
  8
0
 10
49.999999999997613
 20
50.000000000000227
 30
0.0
 40
25.000000000001279
 50
346.66343519518352
 51
352.40633224667607
  0
LINE
  5
3CCF
  8
0
 10
73.219608729377043
 20
43.929598822599559
 30
0.0
 11
74.325796558481613
 21
44.233231251791828
 31
0.0
  0
LINE
  5
3CD0
  8
0
 10
72.714554555781476
 20
57.749129714514559
 30
0.0
 11
73.469578211950932
 21
58.612717257234323
 31
0.0
  0
ARC
  5
3CD1
  8
0
 10
49.999999999993918
 20
49.999999999998153
 30
0.0
 40
25.000000000005269
 50
20.151807288207291
 51
25.89470433969948
  0
LINE
  5
3CD2
  8
0
 10
72.489953681605755
 20
60.917966083441371
 30
0.0
 11
71.34421157317928
 21
60.973815759311229
 31
0.0
  0
LINE
  5
3CD3
  8
0
 10
74.035656041022605
 20
43.123428275834037
 30
0.0
 11
73.219608729377043
 21
43.92959882259958
 31
0.0
  0
ARC
  5
3CD4
  8
0
 10
50.00000000000103
 20
49.999999999999091
 30
0.0
 40
24.999999999997691
 50
338.29134217192762
 51
344.03423922342262
  0
LINE
  5
3CD5
  8
0
 10
72.088308405658665
 20
40.613486708236138
 30
0.0
 11
73.226917234481263
 21
40.752821198738182
 31
0.0
  0
LINE
  5
3CD6
  8
0
 10
71.344211573179336
 20
60.973815759311179
 30
0.0
 11
71.965449865489006
 21
61.938132693459089
 31
0.0
  0
ARC
  5
3CD7
  8
0
 10
49.999999999998572
 20
50.000000000000313
 30
0.0
 40
25.00000000000006
 50
28.523900311461091
 51
34.266797362955607
  0
LINE
  5
3CD8
  8
0
 10
70.660617912172825
 20
64.076180855869808
 30
0.0
 11
69.518953777652428
 21
63.964613973390811
 31
0.0
  0
LINE
  5
3CD9
  8
0
 10
72.778280028468146
 20
39.697089782753579
 30
0.0
 11
72.088308405658665
 21
40.613486708236188
 31
0.0
  0
ARC
  5
3CDA
  8
0
 10
49.999999999997051
 20
50.000000000000938
 30
0.0
 40
25.0000000000021
 50
329.9192491486703
 51
335.6621462001645
  0
LINE
  5
3CDB
  8
0
 10
70.486234136895177
 20
37.497431828289557
 30
0.0
 11
71.632996495045404
 21
37.469498707341963
 31
0.0
  0
LINE
  5
3CDC
  8
0
 10
69.518953777652428
 20
63.964613973390748
 30
0.0
 11
69.99316609046474
 21
65.009107557714486
 31
0.0
  0
ARC
  5
3CDD
  8
0
 10
49.999999999999538
 20
50.000000000000227
 30
0.0
 40
24.999999999999279
 50
36.895993334718732
 51
42.638890386212488
  0
LINE
  5
3CDE
  8
0
 10
68.390936941878181
 20
66.934386271719887
 30
0.0
 11
67.277683370190744
 21
66.657780685295137
 31
0.0
  0
LINE
  5
3CDF
  8
0
 10
71.03542452362268
 20
36.490339933553912
 30
0.0
 11
70.486234136895177
 21
37.497431828289599
 31
0.0
  0
ARC
  5
3CE0
  8
0
 10
50.000000000001819
 20
49.999999999997932
 30
0.0
 40
24.999999999996461
 50
321.54715612541639
 51
327.2900531769082
  0
LINE
  5
3CE1
  8
0
 10
68.447531354683633
 20
34.647847482586513
 30
0.0
 11
69.578005993449267
 21
34.4532420961661
 31
0.0
  0
LINE
  5
3CE2
  8
0
 10
67.2776833701908
 20
66.65778068529508
 30
0.0
 11
67.59476269136195
 21
67.760189352442552
 31
0.0
  0
ARC
  5
3CE3
  8
0
 10
49.999999999998643
 20
49.999999999998863
 30
0.0
 40
25.000000000000909
 50
45.268086357975818
 51
51.010983409469993
  0
LINE
  5
3CE4
  8
0
 10
65.729285080096645
 20
69.431664644826668
 30
0.0
 11
64.668169138347253
 21
68.995915722301987
 31
0.0
  0
LINE
  5
3CE5
  8
0
 10
68.844235465713083
 20
33.571525033871239
 30
0.0
 11
68.447531354683633
 21
34.647847482586542
 31
0.0
  0
ARC
  5
3CE6
  8
0
 10
49.999999999999488
 20
49.999999999999119
 30
0.0
 40
24.999999999999009
 50
313.17506310215919
 51
318.91796015365372
  0
LINE
  5
3CE7
  8
0
 10
66.015651469332568
 20
32.12546761414913
 30
0.0
 11
67.105744284462162
 21
31.76833763820332
 31
0.0
  0
LINE
  5
3CE8
  8
0
 10
64.668169138347253
 20
68.995915722301987
 30
0.0
 11
64.821357472643854
 21
70.132743545479997
 31
0.0
  0
ARC
  5
3CE9
  8
0
 10
49.999999999998799
 20
50.000000000000227
 30
0.0
 40
24.99999999999979
 50
53.640179381228371
 51
59.383076432722092
  0
LINE
  5
3CEA
  8
0
 10
62.732390815234623
 20
71.514790822317963
 30
0.0
 11
61.746028347464858
 21
70.929185795451332
 31
0.0
  0
LINE
  5
3CEB
  8
0
 10
66.251414245275384
 20
31.002854555791121
 30
0.0
 11
66.015651469332624
 21
32.125467614149159
 31
0.0
  0
ARC
  5
3CEC
  8
0
 10
49.999999999994259
 20
50.00000000000594
 30
0.0
 40
25.000000000007589
 50
304.80297007890601
 51
310.54586713039782
  0
LINE
  5
3CED
  8
0
 10
63.242425778489519
 20
29.984052370642839
 30
0.0
 11
64.268903334193453
 21
29.472009410577609
 31
0.0
  0
LINE
  5
3CEE
  8
0
 10
61.746028347464907
 20
70.929185795451275
 30
0.0
 11
61.732060751499382
 21
72.076203263312635
 31
0.0
  0
ARC
  5
3CEF
  8
0
 10
50.000000000001357
 20
50.000000000005343
 30
0.0
 40
24.999999999994031
 50
62.012272404484072
 51
67.755169455980067
  0
LINE
  5
3CF0
  8
0
 10
59.464127745488888
 20
73.139366586340287
 30
0.0
 11
58.573541355226041
 21
72.416386609581053
 31
0.0
  0
LINE
  5
3CF1
  8
0
 10
63.312222345096067
 20
28.839075250956121
 30
0.0
 11
63.242425778489569
 21
29.984052370642839
 31
0.0
  0
ARC
  5
3CF2
  8
0
 10
49.99999999999784
 20
50.000000000001499
 30
0.0
 40
25.00000000000189
 50
296.43087705564977
 51
302.1737741071413
  0
LINE
  5
3CF3
  8
0
 10
60.186960773018427
 20
28.2692423001644
 30
0.0
 11
61.127945482316022
 21
27.61319966269005
 31
0.0
  0
LINE
  5
3CF4
  8
0
 10
58.573541355226091
 20
72.416386609581053
 30
0.0
 11
58.392715524056541
 21
73.549147036192963
 31
0.0
  0
ARC
  5
3CF5
  8
0
 10
49.999999999998288
 20
49.999999999997669
 30
0.0
 40
25.000000000002331
 50
70.384365427742324
 51
76.127262479236677
  0
LINE
  5
3CF6
  8
0
 10
55.994153223995568
 20
74.270766924991193
 30
0.0
 11
55.218324213956237
 21
73.425821061342134
 31
0.0
  0
LINE
  5
3CF7
  8
0
 10
60.089303537648732
 20
27.126304318602791
 30
0.0
 11
60.186960773018427
 21
28.2692423001644
 31
0.0
  0
ARC
  5
3CF8
  8
0
 10
49.999999999999041
 20
49.999999999998778
 30
0.0
 40
24.999999999998849
 50
288.05878403239382
 51
293.80168108388688
  0
LINE
  5
3CF9
  8
0
 10
56.914378384764518
 20
27.017585602198182
 30
0.0
 11
57.749814792268012
 21
26.231525697143919
 31
0.0
  0
LINE
  5
3CFA
  8
0
 10
55.218324213956237
 20
73.425821061342134
 30
0.0
 11
54.874494136233302
 21
74.520181624853677
 31
0.0
  0
ARC
  5
3CFB
  8
0
 10
49.999999999999602
 20
50.000000000003439
 30
0.0
 40
24.999999999996412
 50
78.756458450997499
 51
84.499355502493259
  0
LINE
  5
3CFC
  8
0
 10
52.3964237332832
 20
74.884878004333217
 30
0.0
 11
51.751887551860648
 21
73.935974807925135
 31
0.0
  0
LINE
  5
3CFD
  8
0
 10
56.651348741842931
 20
25.901046497526639
 30
0.0
 11
56.914378384764568
 21
27.017585602198182
 31
0.0
  0
ARC
  5
3CFE
  8
0
 10
49.999999999997897
 20
50.000000000003972
 30
0.0
 40
25.000000000004189
 50
279.68669100913712
 51
285.42958806062882
  0
LINE
  5
3CFF
  8
0
 10
53.49442802563896
 20
26.255759166197269
 30
0.0
 11
54.206510254765483
 21
25.356435495721229
 31
0.0
  0
LINE
  5
3D00
  8
0
 10
51.751887551860648
 20
73.935974807925135
 30
0.0
 11
51.252381368750257
 21
74.96861111289931
 31
0.0
  0
ARC
  5
3D01
  8
0
 10
49.999999999999197
 20
50.00000000000103
 30
0.0
 40
24.999999999998881
 50
87.128551474254493
 51
92.871448525748747
  0
LINE
  5
3D02
  8
0
 10
48.747618631247462
 20
74.96861111289931
 30
0.0
 11
48.248112448137078
 21
73.935974807925135
 31
0.0
  0
LINE
  5
3D03
  8
0
 10
53.071631995345342
 20
25.189416030952259
 30
0.0
 11
53.494428025639031
 21
26.25575916619729
 31
0.0
  0
ARC
  5
3D04
  8
0
 10
49.99999999999892
 20
50.00000000000162
 30
0.0
 40
25.000000000001691
 50
271.3145979858798
 51
277.05749503737258
  0
LINE
  5
3D05
  8
0
 10
49.999999999998863
 20
25.999999999999918
 30
0.0
 11
50.573551254316207
 21
25.006580086777351
 31
0.0
  0
LINE
  5
3D06
  8
0
 10
48.248112448137078
 20
73.935974807925135
 30
0.0
 11
47.603576266714519
 21
74.884878004333217
 31
0.0
  0
ARC
  5
3D07
  8
0
 10
49.999999999998352
 20
50.00000000000307
 30
0.0
 40
24.999999999996799
 50
95.500644497510024
 51
101.2435415490025
  0
LINE
  5
3D08
  8
0
 10
45.125505863764431
 20
74.520181624853677
 30
0.0
 11
44.78167578604149
 21
73.425821061342134
 31
0.0
  0
LINE
  5
3D09
  8
0
 10
49.426448745681448
 20
25.006580086777351
 30
0.0
 11
49.999999999998863
 21
25.999999999999918
 31
0.0
  0
ARC
  5
3D0A
  8
0
 10
49.999999999998693
 20
49.99999999999843
 30
0.0
 40
24.999999999998511
 50
262.94250496262401
 51
268.6854020141202
  0
LINE
  5
3D0B
  8
0
 10
46.505571974358702
 20
26.25575916619729
 30
0.0
 11
46.928368004652377
 21
25.189416030952291
 31
0.0
  0
LINE
  5
3D0C
  8
0
 10
44.78167578604149
 20
73.425821061342134
 30
0.0
 11
44.005846776002159
 21
74.270766924991193
 31
0.0
  0
ARC
  5
3D0D
  8
0
 10
50.000000000000227
 20
49.999999999996867
 30
0.0
 40
25.0000000000033
 50
103.87273752076671
 51
109.6156345722577
  0
LINE
  5
3D0E
  8
0
 10
41.607284475941242
 20
73.549147036192963
 30
0.0
 11
41.426458644771678
 21
72.416386609581053
 31
0.0
  0
LINE
  5
3D0F
  8
0
 10
45.79348974523225
 20
25.356435495721321
 30
0.0
 11
46.505571974358752
 21
26.25575916619729
 31
0.0
  0
ARC
  5
3D10
  8
0
 10
49.99999999999784
 20
49.99999999999784
 30
0.0
 40
24.99999999999774
 50
254.57041193937121
 51
260.31330899086601
  0
LINE
  5
3D11
  8
0
 10
43.085621615233137
 20
27.017585602198182
 30
0.0
 11
43.348651258154803
 21
25.901046497526639
 31
0.0
  0
LINE
  5
3D12
  8
0
 10
41.426458644771678
 20
72.416386609581053
 30
0.0
 11
40.535872254508831
 21
73.139366586340287
 31
0.0
  0
ARC
  5
3D13
  8
0
 10
49.999999999997222
 20
50.000000000003467
 30
0.0
 40
24.999999999996088
 50
112.24483054401991
 51
117.98772759551591
  0
LINE
  5
3D14
  8
0
 10
38.267939248498351
 20
72.076203263312692
 30
0.0
 11
38.253971652532812
 21
70.929185795451275
 31
0.0
  0
LINE
  5
3D15
  8
0
 10
42.250185207729707
 20
26.231525697143919
 30
0.0
 11
43.085621615233137
 21
27.017585602198182
 31
0.0
  0
ARC
  5
3D16
  8
0
 10
50.000000000000057
 20
50.000000000003183
 30
0.0
 40
25.000000000003471
 50
246.19831891611321
 51
251.94121596760621
  0
LINE
  5
3D17
  8
0
 10
39.813039226979299
 20
28.269242300164422
 30
0.0
 11
39.910696462349001
 21
27.126304318602759
 31
0.0
  0
LINE
  5
3D18
  8
0
 10
38.253971652532812
 20
70.929185795451275
 30
0.0
 11
37.26760918476311
 21
71.514790822317963
 31
0.0
  0
ARC
  5
3D19
  8
0
 10
49.999999999997051
 20
50.000000000002807
 30
0.0
 40
24.999999999996579
 50
120.61692356727789
 51
126.35982061877159
  0
LINE
  5
3D1A
  8
0
 10
35.17864252735388
 20
70.132743545479997
 30
0.0
 11
35.331830861650481
 21
68.995915722301987
 31
0.0
  0
LINE
  5
3D1B
  8
0
 10
38.872054517681711
 20
27.613199662690079
 30
0.0
 11
39.813039226979299
 21
28.2692423001644
 31
0.0
  0
ARC
  5
3D1C
  8
0
 10
49.999999999996298
 20
49.999999999995651
 30
0.0
 40
24.99999999999503
 50
237.82622589285879
 51
243.56912294435389
  0
LINE
  5
3D1D
  8
0
 10
36.75757422150815
 20
29.984052370642871
 30
0.0
 11
36.687777654901652
 21
28.839075250956121
 31
0.0
  0
LINE
  5
3D1E
  8
0
 10
35.331830861650481
 20
68.995915722301987
 30
0.0
 11
34.270714919901081
 21
69.431664644826725
 31
0.0
  0
ARC
  5
3D1F
  8
0
 10
49.999999999997378
 20
50.000000000001528
 30
0.0
 40
24.999999999997801
 50
128.98901659053001
 51
134.73191364202501
  0
LINE
  5
3D20
  8
0
 10
32.405237308635783
 20
67.760189352442609
 30
0.0
 11
32.722316629806983
 21
66.657780685295137
 31
0.0
  0
LINE
  5
3D21
  8
0
 10
35.731096665804273
 20
29.472009410577609
 30
0.0
 11
36.757574221508207
 21
29.984052370642839
 31
0.0
  0
ARC
  5
3D22
  8
0
 10
49.999999999999893
 20
50.000000000000988
 30
0.0
 40
25.000000000001489
 50
229.4541328696022
 51
235.1970299210941
  0
LINE
  5
3D23
  8
0
 10
33.984348530665102
 20
32.125467614149187
 30
0.0
 11
33.748585754722342
 21
31.002854555791121
 31
0.0
  0
LINE
  5
3D24
  8
0
 10
32.722316629806983
 20
66.657780685295137
 30
0.0
 11
31.609063058119549
 21
66.934386271719887
 31
0.0
  0
ARC
  5
3D25
  8
0
 10
50.000000000000057
 20
49.999999999998863
 30
0.0
 40
25.00000000000162
 50
137.36110961378949
 51
143.10400666528119
  0
LINE
  5
3D26
  8
0
 10
30.00683390953299
 20
65.009107557714486
 30
0.0
 11
30.481046222345299
 21
63.964613973390748
 31
0.0
  0
LINE
  5
3D27
  8
0
 10
32.894255715535508
 20
31.768337638203349
 30
0.0
 11
33.984348530665102
 21
32.125467614149159
 31
0.0
  0
ARC
  5
3D28
  8
0
 10
50.000000000002778
 20
50.00000000000378
 30
0.0
 40
25.000000000005478
 50
221.0820398463475
 51
226.8249368978409
  0
LINE
  5
3D29
  8
0
 10
31.5524686453141
 20
34.64784748258657
 30
0.0
 11
31.155764534284629
 21
33.571525033871211
 31
0.0
  0
LINE
  5
3D2A
  8
0
 10
30.481046222345299
 20
63.964613973390811
 30
0.0
 11
29.339382087824958
 21
64.076180855869808
 31
0.0
  0
ARC
  5
3D2B
  8
0
 10
50.000000000001478
 20
49.99999999999855
 30
0.0
 40
25.00000000000291
 50
145.7332026370444
 51
151.47609968853689
  0
LINE
  5
3D2C
  8
0
 10
28.03455013450872
 20
61.938132693459089
 30
0.0
 11
28.65578842681845
 21
60.973815759311229
 31
0.0
  0
LINE
  5
3D2D
  8
0
 10
30.421994006548459
 20
34.45324209616615
 30
0.0
 11
31.5524686453141
 21
34.647847482586542
 31
0.0
  0
ARC
  5
3D2E
  8
0
 10
49.999999999998799
 20
50.000000000000647
 30
0.0
 40
25.000000000000359
 50
212.70994682309271
 51
218.452843874585
  0
LINE
  5
3D2F
  8
0
 10
29.513765863102549
 20
37.497431828289621
 30
0.0
 11
28.96457547637505
 21
36.490339933553912
 31
0.0
  0
LINE
  5
3D30
  8
0
 10
28.65578842681845
 20
60.973815759311229
 30
0.0
 11
27.510046318391971
 21
60.917966083441307
 31
0.0
  0
ARC
  5
3D31
  8
0
 10
49.999999999998472
 20
50.000000000000199
 30
0.0
 40
24.99999999999952
 50
154.10529566029959
 51
159.84819271179359
  0
LINE
  5
3D32
  8
0
 10
26.530421788046802
 20
58.61271725723438
 30
0.0
 11
27.28544544421624
 21
57.749129714514623
 31
0.0
  0
LINE
  5
3D33
  8
0
 10
28.367003504952319
 20
37.469498707341977
 30
0.0
 11
29.513765863102549
 21
37.497431828289621
 31
0.0
  0
ARC
  5
3D34
  8
0
 10
49.999999999998522
 20
50.000000000000369
 30
0.0
 40
24.999999999999851
 50
204.33785379983661
 51
210.0807508513297
  0
LINE
  5
3D35
  8
0
 10
27.911691594339061
 20
40.613486708236188
 30
0.0
 11
27.221719971529641
 21
39.697089782753608
 31
0.0
  0
LINE
  5
3D36
  8
0
 10
27.28544544421624
 20
57.749129714514623
 30
0.0
 11
26.16004486574445
 21
57.52705381917351
 31
0.0
  0
ARC
  5
3D37
  8
0
 10
50.000000000006708
 20
49.999999999997783
 30
0.0
 40
25.000000000008129
 50
162.47738868355589
 51
168.22028573504829
  0
LINE
  5
3D38
  8
0
 10
25.526506754459209
 20
55.103736705642604
 30
0.0
 11
26.399223756091661
 21
54.359284423506352
 31
0.0
  0
LINE
  5
3D39
  8
0
 10
26.773082765516449
 20
40.752821198738211
 30
0.0
 11
27.911691594339061
 21
40.613486708236159
 31
0.0
  0
ARC
  5
3D3A
  8
0
 10
50.000000000004263
 20
50.000000000001528
 30
0.0
 40
25.00000000000562
 50
195.96576077657909
 51
201.70865782807061
  0
LINE
  5
3D3B
  8
0
 10
26.780391270620669
 20
43.92959882259958
 30
0.0
 11
25.964343958975121
 21
43.123428275834037
 31
0.0
  0
LINE
  5
3D3C
  8
0
 10
26.399223756091718
 20
54.359284423506409
 30
0.0
 11
25.318150667040189
 21
53.975715470846211
 31
0.0
  0
ARC
  5
3D3D
  8
0
 10
50.000000000001307
 20
49.999999999999631
 30
0.0
 40
25.000000000002451
 50
170.8494817068117
 51
176.5923787583053
  0
LINE
  5
3D3E
  8
0
 10
25.044201739739609
 20
51.485978867023697
 30
0.0
 11
26.01601163911312
 21
50.876528553383707
 31
0.0
  0
LINE
  5
3D3F
  8
0
 10
25.67420344151617
 20
44.233231251791857
 30
0.0
 11
26.780391270620669
 21
43.92959882259958
 31
0.0
  0
ARC
  5
3D40
  8
0
 10
49.999999999996362
 20
49.999999999999659
 30
0.0
 40
24.99999999999747
 50
187.5936677533239
 51
193.3365648048165
  0
LINE
  5
3D41
  8
0
 10
26.1439765942402
 20
47.375090998930943
 30
0.0
 11
25.219246225425479
 21
46.696328956453563
 31
0.0
  0
LINE
  5
3D42
  8
0
 10
26.01601163911312
 20
50.876528553383729
 30
0.0
 11
25.00230723546974
 21
50.339641649697057
 31
0.0
  0
ARC
  5
3D43
  8
0
 10
50.000000000001592
 20
50.000000000000391
 30
0.0
 40
25.0000000000027
 50
179.22157473006769
 51
184.9644717815618
  0
LINE
  5
3D44
  8
0
 10
25.093786237922821
 20
47.836549968736712
 30
0.0
 11
26.1439765942402
 21
47.375090998930943
 31
0.0
  0
CIRCLE
  5
3D45
  8
0
 10
49.99999999999914
 20
49.999999999999972
 30
0.0
 40
24.00000000000027
  0
CIRCLE
  5
3D50
  8
0
 10
49.999999999998863
 20
50.000000000000078
 30
0.0
 40
4.0
  0
CIRCLE
  5
3D51
  8
3
 10
49.999999999998863
 20
49.999999999999922
 30
0.0
 40
3.3235000000001662
  0
LINE
  5
4141
  8
0
 10
104.767
 20
54.000000000000107
 30
0.0
 11
104.0
 21
53.233000000000118
 31
0.0
  0
LINE
  5
4142
  8
0
 10
104.0
 20
46.767000000000102
 30
0.0
 11
104.767
 21
46.000000000000107
 31
0.0
  0
LINE
  5
4143
  8
0
 10
134.0
 20
54.000000000000107
 30
0.0
 11
104.767
 21
54.000000000000107
 31
0.0
  0
LINE
  5
4144
  8
0
 10
104.767
 20
46.000000000000107
 30
0.0
 11
134.0
 21
46.000000000000107
 31
0.0
  0
LINE
  5
440C
  8
0
 10
104.0
 20
46.767000000000102
 30
0.0
 11
104.0
 21
53.233000000000118
 31
0.0
  0
LINE
  5
440D
  8
0
 10
104.767
 20
46.000000000000107
 30
0.0
 11
104.767
 21
54.000000000000107
 31
0.0
  0
LINE
  5
440E
  8
3
 10
104.09050000000011
 20
53.323500000000188
 30
0.0
 11
133.0
 21
53.32350000000023
 31
0.0
  0
LINE
  5
440F
  8
3
 10
133.88200782268561
 20
54.000000000000107
 30
0.0
 11
133.0
 21
53.32350000000023
 31
0.0
  0
LINE
  5
4410
  8
0
 10
133.0
 20
54.000000000000107
 30
0.0
 11
133.0
 21
46.000000000000107
 31
0.0
  0
LINE
  5
4411
  8
3
 10
104.09050000000011
 20
46.676499999999997
 30
0.0
 11
133.0
 21
46.676499999999997
 31
0.0
  0
LINE
  5
4412
  8
3
 10
133.88200782268561
 20
46.000000000000107
 30
0.0
 11
133.0
 21
46.676499999999997
 31
0.0
  0
TEXT
  5
44A1
  8
0
 62
     3
 10
0.0
 20
0.0
 30
0.0
 40
10.0
  1
GK50X30N-YE
  7
STANDARD1
  0
ENDSEC
  0
EOF
