  0
SECTION
  2
HEADER
  9
$ACADVER
  1
AC1009
  9
$INSBASE
 10
0.0
 20
0.0
 30
0.0
  9
$EXTMIN
 10
0.0
 20
-2.960436562073669
 30
0.0
  9
$EXTMAX
 10
250.00000000000031
 20
79.999999999999901
 30
0.0
  9
$LIMMIN
 10
0.0
 20
0.0
  9
$LIMMAX
 10
187.5
 20
135.0
  9
$ORTHOMODE
 70
     1
  9
$REGENMODE
 70
     1
  9
$FILLMODE
 70
     1
  9
$QTEXTMODE
 70
     0
  9
$MIRRTEXT
 70
     0
  9
$DRAGMODE
 70
     2
  9
$LTSCALE
 40
5.0
  9
$OSMODE
 70
    37
  9
$ATTMODE
 70
     1
  9
$TEXTSIZE
 40
2.5000000000000488
  9
$TRACEWID
 40
0.05
  9
$TEXTSTYLE
  7
STANDARD
  9
$CLAYER
  8
0
  9
$CELTYPE
  6
BYLAYER
  9
$CECOLOR
 62
   256
  9
$DIMSCALE
 40
0.5
  9
$DIMASZ
 40
3.0
  9
$DIMEXO
 40
2.0
  9
$DIMDLI
 40
0.38
  9
$DIMRND
 40
0.0
  9
$DIMDLE
 40
0.0
  9
$DIMEXE
 40
2.0
  9
$DIMTP
 40
0.0
  9
$DIMTM
 40
0.0
  9
$DIMTXT
 40
3.2000000000000002
  9
$DIMCEN
 40
0.0
  9
$DIMTSZ
 40
0.0
  9
$DIMTOL
 70
     0
  9
$DIMLIM
 70
     0
  9
$DIMTIH
 70
     0
  9
$DIMTOH
 70
     0
  9
$DIMSE1
 70
     0
  9
$DIMSE2
 70
     0
  9
$DIMTAD
 70
     1
  9
$DIMZIN
 70
     0
  9
$DIMBLK
  1

  9
$DIMASO
 70
     1
  9
$DIMSHO
 70
     0
  9
$DIMPOST
  1

  9
$DIMAPOST
  1

  9
$DIMALT
 70
     0
  9
$DIMALTD
 70
     2
  9
$DIMALTF
 40
25.399999999999999
  9
$DIMLFAC
 40
1.0
  9
$DIMTOFL
 70
     1
  9
$DIMTVP
 40
1.6000000000000001
  9
$DIMTIX
 70
     1
  9
$DIMSOXD
 70
     0
  9
$DIMSAH
 70
     0
  9
$DIMBLK1
  1

  9
$DIMBLK2
  1

  9
$DIMSTYLE
  2
STANDARD
  9
$DIMCLRD
 70
     0
  9
$DIMCLRE
 70
     0
  9
$DIMCLRT
 70
     0
  9
$DIMTFAC
 40
1.0
  9
$DIMGAP
 40
0.09
  9
$LUNITS
 70
     2
  9
$LUPREC
 70
     1
  9
$SKETCHINC
 40
0.1
  9
$FILLETRAD
 40
0.0
  9
$AUNITS
 70
     0
  9
$AUPREC
 70
     1
  9
$MENU
  1
E:\r13\win\SUPPORT\ACAD
  9
$ELEVATION
 40
0.0
  9
$PELEVATION
 40
0.0
  9
$THICKNESS
 40
0.0
  9
$LIMCHECK
 70
     0
  9
$BLIPMODE
 70
     0
  9
$CHAMFERA
 40
0.0
  9
$CHAMFERB
 40
0.0
  9
$SKPOLY
 70
     0
  9
$TDCREATE
 40
2449839.787418982
  9
$TDUPDATE
 40
2457162.6027791318
  9
$TDINDWG
 40
0.2829397801
  9
$TDUSRTIMER
 40
0.2829397801
  9
$USRTIMER
 70
     1
  9
$ANGBASE
 50
0.0
  9
$ANGDIR
 70
     0
  9
$PDMODE
 70
     0
  9
$PDSIZE
 40
0.0
  9
$PLINEWID
 40
0.0
  9
$COORDS
 70
     1
  9
$SPLFRAME
 70
     0
  9
$SPLINETYPE
 70
     6
  9
$SPLINESEGS
 70
     8
  9
$ATTDIA
 70
     0
  9
$ATTREQ
 70
     1
  9
$HANDLING
 70
     1
  9
$HANDSEED
  5
57AF
  9
$SURFTAB1
 70
     6
  9
$SURFTAB2
 70
     6
  9
$SURFTYPE
 70
     6
  9
$SURFU
 70
     6
  9
$SURFV
 70
     6
  9
$UCSNAME
  2

  9
$UCSORG
 10
0.0
 20
0.0
 30
0.0
  9
$UCSXDIR
 10
1.0
 20
0.0
 30
0.0
  9
$UCSYDIR
 10
0.0
 20
1.0
 30
0.0
  9
$PUCSNAME
  2

  9
$PUCSORG
 10
0.0
 20
0.0
 30
0.0
  9
$PUCSXDIR
 10
1.0
 20
0.0
 30
0.0
  9
$PUCSYDIR
 10
0.0
 20
1.0
 30
0.0
  9
$USERI1
 70
     0
  9
$USERI2
 70
     1
  9
$USERI3
 70
     1
  9
$USERI4
 70
     0
  9
$USERI5
 70
     0
  9
$USERR1
 40
0.0
  9
$USERR2
 40
0.0
  9
$USERR3
 40
0.0
  9
$USERR4
 40
0.0
  9
$USERR5
 40
0.0
  9
$WORLDVIEW
 70
     1
  9
$SHADEDGE
 70
     3
  9
$SHADEDIF
 70
    70
  9
$TILEMODE
 70
     1
  9
$MAXACTVP
 70
    16
  9
$PLIMCHECK
 70
     0
  9
$PEXTMIN
 10
1.0000000000000000E+020
 20
1.0000000000000000E+020
 30
1.0000000000000000E+020
  9
$PEXTMAX
 10
-1.0000000000000000E+020
 20
-1.0000000000000000E+020
 30
-1.0000000000000000E+020
  9
$PLIMMIN
 10
0.0
 20
0.0
  9
$PLIMMAX
 10
12.0
 20
9.0
  9
$UNITMODE
 70
     0
  9
$VISRETAIN
 70
     0
  9
$PLINEGEN
 70
     0
  9
$PSLTSCALE
 70
     0
  0
ENDSEC
  0
SECTION
  2
TABLES
  0
TABLE
  2
VPORT
 70
     1
  0
VPORT
  2
*ACTIVE
 70
     0
 10
0.0
 20
0.0
 11
1.0
 21
1.0
 12
245.1941949864445
 22
135.0
 13
0.0
 23
0.0
 14
5.0
 24
5.0
 15
5.0
 25
5.0
 16
0.0
 26
0.0
 36
1.0
 17
0.0
 27
0.0
 37
0.0
 40
270.01624258579358
 41
1.816239316239316
 42
50.0
 43
0.0
 44
0.0
 50
0.0
 51
0.0
 71
     0
 72
   500
 73
     1
 74
     0
 75
     0
 76
     0
 77
     0
 78
     2
  0
ENDTAB
  0
TABLE
  2
LTYPE
 70
     3
  0
LTYPE
  2
CONTINUOUS
 70
     0
  3
Solid Line
 72
    65
 73
     0
 40
0.0
  0
LTYPE
  2
CENTER
 70
     0
  3
____ _ ____ _ ____ _ ____ _ ____ _ ____ _ ____
 72
    65
 73
     4
 40
2.0
 49
1.25
 49
-0.25
 49
0.25
 49
-0.25
  0
LTYPE
  2
PHANTOM2
 70
     0
  3
___ _ _ ___ _ _ ___ _ _ ___ _ _
 72
    65
 73
     6
 40
1.25
 49
0.625
 49
-0.125
 49
0.125
 49
-0.125
 49
0.125
 49
-0.125
  0
ENDTAB
  0
TABLE
  2
LAYER
 70
     3
  0
LAYER
  2
0
 70
     0
 62
     7
  6
CONTINUOUS
  0
LAYER
  2
1
 70
     0
 62
     1
  6
CENTER
  0
LAYER
  2
3
 70
     0
 62
     3
  6
CONTINUOUS
  0
ENDTAB
  0
TABLE
  2
STYLE
 70
     2
  0
STYLE
  2
STANDARD
 70
     0
 40
0.0
 41
1.0
 50
0.0
 71
     0
 42
2.5000000000000488
  3
TXT
  4
BIGFONT
  0
STYLE
  2
STANDARD1
 70
     0
 40
0.0
 41
1.0
 50
0.0
 71
     0
 42
3.0
  3
txt
  4

  0
ENDTAB
  0
TABLE
  2
VIEW
 70
     2
  0
VIEW
  2
ALL
 70
     0
 40
135.0
 10
110.4957983193277
 20
67.5
 41
0.0
 11
0.0
 21
0.0
 31
1.0
 12
0.0
 22
0.0
 32
0.0
 42
0.0
 43
0.0
 44
0.0
 50
0.0
 71
     0
  0
VIEW
  2
OLE1
 70
     0
 40
63.825144965398117
 10
233.6237691698706
 20
4.175601147383162
 41
113.79500935111911
 11
0.0
 21
0.0
 31
1.0
 12
0.0
 22
0.0
 32
0.0
 42
50.0
 43
0.0
 44
0.0
 50
0.0
 71
     0
  0
ENDTAB
  0
TABLE
  2
UCS
 70
     0
  0
ENDTAB
  0
TABLE
  2
APPID
 70
     6
  0
APPID
  2
ACAD
 70
     0
  0
APPID
  2
ACAD_EXEMPT_FROM_CAD_STANDARDS
 70
     0
  0
APPID
  2
ACAD_MLEADERVER
 70
     0
  0
APPID
  2
ACAD_DSTYLE_DIMJAG
 70
     0
  0
APPID
  2
ACAD_DSTYLE_DIMTALN
 70
     0
  0
APPID
  2
ACAD_NAV_VCDISPLAY
 70
     0
  0
ENDTAB
  0
TABLE
  2
DIMSTYLE
 70
     1
  0
DIMSTYLE
  2
STANDARD
 70
     0
  3

  4

  5

  6

  7

 40
1.0
 41
0.18
 42
0.0625
 43
0.38
 44
0.18
 45
0.0
 46
0.0
 47
0.0
 48
0.0
140
0.18
141
0.09
142
0.0
143
25.399999999999999
144
1.0
145
0.0
146
1.0
147
0.09
 71
     0
 72
     0
 73
     1
 74
     1
 75
     0
 76
     0
 77
     0
 78
     0
170
     0
171
     2
172
     0
173
     0
174
     0
175
     0
176
     0
177
     0
178
     0
  0
ENDTAB
  0
ENDSEC
  0
SECTION
  2
BLOCKS
  0
BLOCK
  8
0
  2
$MODEL_SPACE
 70
     0
 10
0.0
 20
0.0
 30
0.0
  3
$MODEL_SPACE
  1

  0
ENDBLK
  5
85E
  8
0
  0
BLOCK
 67
     1
  8
0
  2
$PAPER_SPACE
 70
     0
 10
0.0
 20
0.0
 30
0.0
  3
$PAPER_SPACE
  1

  0
ENDBLK
  5
85C
 67
     1
  8
0
  0
ENDSEC
  0
SECTION
  2
ENTITIES
  0
LINE
  5
47BB
  8
1
 10
190.00000000000071
 20
50.000000000000078
 30
0.0
 11
250.00000000000031
 21
50.000000000000078
 31
0.0
  0
LINE
  5
47BC
  8
1
 10
220.00000000000051
 20
20.00000000000027
 30
0.0
 11
220.00000000000051
 21
79.999999999999901
 31
0.0
  0
CIRCLE
  5
47BD
  8
0
 10
219.99999999999949
 20
49.999999999999922
 30
0.0
 40
23.0
  0
CIRCLE
  5
47BF
  8
0
 10
219.99999999999949
 20
49.999999999999922
 30
0.0
 40
11.29090909090908
  0
CIRCLE
  5
47C0
  8
0
 10
219.99999999999949
 20
49.999999999999922
 30
0.0
 40
9.0909090909090864
  0
LINE
  5
47C1
  8
0
 10
243.98398836088529
 20
50.876528553383707
 30
0.0
 11
244.9557982602588
 21
51.485978867023682
 31
0.0
  0
ARC
  5
47C2
  8
0
 10
219.99999999999741
 20
49.999999999999602
 30
0.0
 40
25.000000000002121
 50
3.407621241694605
 51
9.1505182931883393
  0
LINE
  5
47C3
  8
0
 10
244.99769276452869
 20
50.339641649697057
 30
0.0
 11
243.98398836088529
 21
50.876528553383729
 31
0.0
  0
LINE
  5
47C4
  8
0
 10
244.68184933295819
 20
53.975715470846183
 30
0.0
 11
243.60077624390669
 21
54.359284423506409
 31
0.0
  0
ARC
  5
47C5
  8
0
 10
219.99999999999559
 20
49.999999999999801
 30
0.0
 40
25.000000000003869
 50
355.03552821843988
 51
0.7784252699322872
  0
LINE
  5
47C6
  8
0
 10
243.85602340575821
 20
47.375090998930901
 30
0.0
 11
244.90621376207559
 21
47.836549968736691
 31
0.0
  0
LINE
  5
47C7
  8
0
 10
243.60077624390669
 20
54.359284423506352
 30
0.0
 11
244.4734932455392
 21
55.103736705642604
 31
0.0
  0
ARC
  5
47C8
  8
0
 10
219.9999999999894
 20
49.999999999996959
 30
0.0
 40
25.000000000010491
 50
11.7797142649534
 51
17.522611316444021
  0
LINE
  5
47C9
  8
0
 10
243.83995513425401
 20
57.52705381917351
 30
0.0
 11
242.7145545557822
 21
57.749129714514623
 31
0.0
  0
LINE
  5
47CA
  8
0
 10
244.7807537745729
 20
46.696328956453563
 30
0.0
 11
243.85602340575821
 21
47.375090998930943
 31
0.0
  0
ARC
  5
47CB
  8
0
 10
219.99999999999829
 20
50.000000000000227
 30
0.0
 40
25.000000000001279
 50
346.6634351951833
 51
352.40633224667607
  0
LINE
  5
47CC
  8
0
 10
243.21960872937771
 20
43.929598822599559
 30
0.0
 11
244.3257965584823
 21
44.233231251791828
 31
0.0
  0
LINE
  5
47CD
  8
0
 10
242.7145545557822
 20
57.749129714514602
 30
0.0
 11
243.46957821195161
 21
58.612717257234351
 31
0.0
  0
ARC
  5
47CE
  8
0
 10
219.9999999999946
 20
49.999999999998153
 30
0.0
 40
25.000000000005269
 50
20.151807288207031
 51
25.89470433969975
  0
LINE
  5
47CF
  8
0
 10
242.48995368160641
 20
60.917966083441343
 30
0.0
 11
241.34421157317999
 21
60.973815759311272
 31
0.0
  0
LINE
  5
47D0
  8
0
 10
244.03565604102329
 20
43.123428275834023
 30
0.0
 11
243.21960872937771
 21
43.92959882259958
 31
0.0
  0
ARC
  5
47D1
  8
0
 10
220.00000000000171
 20
49.999999999999091
 30
0.0
 40
24.999999999997691
 50
338.2913421719274
 51
344.03423922342262
  0
LINE
  5
47D2
  8
0
 10
242.0883084056594
 20
40.613486708236152
 30
0.0
 11
243.2269172344819
 21
40.752821198738197
 31
0.0
  0
LINE
  5
47D3
  8
0
 10
241.34421157317999
 20
60.973815759311201
 30
0.0
 11
241.96544986548969
 21
61.938132693459089
 31
0.0
  0
ARC
  5
47D4
  8
0
 10
219.99999999999929
 20
50.000000000000313
 30
0.0
 40
25.00000000000006
 50
28.52390031146108
 51
34.266797362955423
  0
LINE
  5
47D5
  8
0
 10
240.66061791217351
 20
64.076180855869836
 30
0.0
 11
239.51895377765311
 21
63.964613973390811
 31
0.0
  0
LINE
  5
47D6
  8
0
 10
242.7782800284688
 20
39.697089782753579
 30
0.0
 11
242.0883084056594
 21
40.613486708236188
 31
0.0
  0
ARC
  5
47D7
  8
0
 10
219.9999999999977
 20
50.000000000000938
 30
0.0
 40
25.0000000000021
 50
329.91924914867047
 51
335.66214620016473
  0
LINE
  5
47D8
  8
0
 10
240.4862341368958
 20
37.497431828289557
 30
0.0
 11
241.63299649504609
 21
37.469498707341941
 31
0.0
  0
LINE
  5
47D9
  8
0
 10
239.51895377765311
 20
63.964613973390748
 30
0.0
 11
239.99316609046539
 21
65.009107557714486
 31
0.0
  0
ARC
  5
47DA
  8
0
 10
220.0000000000002
 20
50.000000000000227
 30
0.0
 40
24.999999999999279
 50
36.895993334718469
 51
42.638890386212807
  0
LINE
  5
47DB
  8
0
 10
238.39093694187881
 20
66.934386271719887
 30
0.0
 11
237.2776833701914
 21
66.657780685295137
 31
0.0
  0
LINE
  5
47DC
  8
0
 10
241.03542452362339
 20
36.490339933553912
 30
0.0
 11
240.4862341368958
 21
37.497431828289614
 31
0.0
  0
ARC
  5
47DD
  8
0
 10
220.0000000000025
 20
49.999999999997932
 30
0.0
 40
24.999999999996461
 50
321.54715612541639
 51
327.2900531769078
  0
LINE
  5
47DE
  8
0
 10
238.44753135468429
 20
34.647847482586513
 30
0.0
 11
239.57800599344989
 21
34.453242096166107
 31
0.0
  0
LINE
  5
47DF
  8
0
 10
237.27768337019151
 20
66.657780685295108
 30
0.0
 11
237.5947626913626
 21
67.76018935244258
 31
0.0
  0
ARC
  5
47E0
  8
0
 10
219.99999999999929
 20
49.999999999998863
 30
0.0
 40
25.000000000000909
 50
45.26808635797574
 51
51.010983409469787
  0
LINE
  5
47E1
  8
0
 10
235.7292850800973
 20
69.431664644826697
 30
0.0
 11
234.66816913834799
 21
68.995915722301987
 31
0.0
  0
LINE
  5
47E2
  8
0
 10
238.84423546571381
 20
33.571525033871239
 30
0.0
 11
238.44753135468429
 21
34.647847482586542
 31
0.0
  0
ARC
  5
47E3
  8
0
 10
220.0000000000002
 20
49.999999999999119
 30
0.0
 40
24.999999999999009
 50
313.1750631021589
 51
318.91796015365389
  0
LINE
  5
47E4
  8
0
 10
236.01565146933331
 20
32.125467614149152
 30
0.0
 11
237.10574428446279
 21
31.76833763820332
 31
0.0
  0
LINE
  5
47E5
  8
0
 10
234.66816913834799
 20
68.995915722301987
 30
0.0
 11
234.82135747264451
 21
70.132743545480025
 31
0.0
  0
ARC
  5
47E6
  8
0
 10
219.99999999999949
 20
50.000000000000227
 30
0.0
 40
24.99999999999979
 50
53.640179381228428
 51
59.38307643272217
  0
LINE
  5
47E7
  8
0
 10
232.73239081523531
 20
71.514790822317963
 30
0.0
 11
231.74602834746551
 21
70.929185795451303
 31
0.0
  0
LINE
  5
47E8
  8
0
 10
236.2514142452761
 20
31.002854555791121
 30
0.0
 11
236.01565146933331
 21
32.125467614149159
 31
0.0
  0
ARC
  5
47E9
  8
0
 10
219.99999999999491
 20
50.00000000000594
 30
0.0
 40
25.000000000007589
 50
304.80297007890601
 51
310.5458671303976
  0
LINE
  5
47EA
  8
0
 10
233.2424257784902
 20
29.984052370642839
 30
0.0
 11
234.26890333419411
 21
29.472009410577609
 31
0.0
  0
LINE
  5
47EB
  8
0
 10
231.74602834746571
 20
70.929185795451275
 30
0.0
 11
231.73206075150009
 21
72.076203263312664
 31
0.0
  0
ARC
  5
47EC
  8
0
 10
220.0000000000021
 20
50.000000000005343
 30
0.0
 40
24.999999999994031
 50
62.01227240448393
 51
67.755169455980152
  0
LINE
  5
47ED
  8
0
 10
229.46412774548961
 20
73.139366586340287
 30
0.0
 11
228.57354135522669
 21
72.416386609581053
 31
0.0
  0
LINE
  5
47EE
  8
0
 10
233.3122223450967
 20
28.839075250956121
 30
0.0
 11
233.24242577849029
 21
29.984052370642861
 31
0.0
  0
ARC
  5
47EF
  8
0
 10
219.99999999999849
 20
50.000000000001499
 30
0.0
 40
25.00000000000189
 50
296.43087705564972
 51
302.17377410714118
  0
LINE
  5
47F0
  8
0
 10
230.18696077301911
 20
28.2692423001644
 30
0.0
 11
231.1279454823167
 21
27.61319966269005
 31
0.0
  0
LINE
  5
47F1
  8
0
 10
228.57354135522681
 20
72.416386609581053
 30
0.0
 11
228.39271552405719
 21
73.549147036193006
 31
0.0
  0
ARC
  5
47F2
  8
0
 10
219.99999999999901
 20
49.999999999997669
 30
0.0
 40
25.000000000002331
 50
70.38436542774231
 51
76.12726247923672
  0
LINE
  5
47F3
  8
0
 10
225.99415322399631
 20
74.270766924991165
 30
0.0
 11
225.21832421395689
 21
73.425821061342162
 31
0.0
  0
LINE
  5
47F4
  8
0
 10
230.08930353764941
 20
27.126304318602791
 30
0.0
 11
230.18696077301911
 21
28.269242300164411
 31
0.0
  0
ARC
  5
47F5
  8
0
 10
219.99999999999969
 20
49.999999999998778
 30
0.0
 40
24.999999999998849
 50
288.05878403239387
 51
293.80168108388699
  0
LINE
  5
47F6
  8
0
 10
226.9143783847652
 20
27.017585602198182
 30
0.0
 11
227.74981479226869
 21
26.231525697143908
 31
0.0
  0
LINE
  5
47F7
  8
0
 10
225.218324213957
 20
73.425821061342134
 30
0.0
 11
224.87449413623401
 21
74.520181624853677
 31
0.0
  0
ARC
  5
47F8
  8
0
 10
220.00000000000031
 20
50.000000000003439
 30
0.0
 40
24.999999999996412
 50
78.756458450997471
 51
84.499355502493231
  0
LINE
  5
47F9
  8
0
 10
222.39642373328391
 20
74.884878004333174
 30
0.0
 11
221.7518875518613
 21
73.935974807925135
 31
0.0
  0
LINE
  5
47FA
  8
0
 10
226.65134874184361
 20
25.901046497526639
 30
0.0
 11
226.91437838476531
 21
27.017585602198182
 31
0.0
  0
ARC
  5
47FB
  8
0
 10
219.99999999999861
 20
50.000000000003972
 30
0.0
 40
25.000000000004189
 50
279.68669100913718
 51
285.4295880606287
  0
LINE
  5
47FC
  8
0
 10
223.49442802563959
 20
26.255759166197269
 30
0.0
 11
224.20651025476619
 21
25.35643549572125
 31
0.0
  0
LINE
  5
47FD
  8
0
 10
221.7518875518613
 20
73.935974807925135
 30
0.0
 11
221.25238136875089
 21
74.968611112899339
 31
0.0
  0
ARC
  5
47FE
  8
0
 10
219.99999999999989
 20
50.00000000000103
 30
0.0
 40
24.999999999998881
 50
87.128551474254493
 51
92.871448525748747
  0
LINE
  5
47FF
  8
0
 10
218.7476186312482
 20
74.96861111289931
 30
0.0
 11
218.24811244813779
 21
73.935974807925135
 31
0.0
  0
LINE
  5
4800
  8
0
 10
223.071631995346
 20
25.189416030952259
 30
0.0
 11
223.49442802563971
 21
26.25575916619729
 31
0.0
  0
ARC
  5
4801
  8
0
 10
219.9999999999996
 20
50.00000000000162
 30
0.0
 40
25.000000000001691
 50
271.3145979858798
 51
277.05749503737258
  0
LINE
  5
4802
  8
0
 10
219.99999999999949
 20
25.999999999999929
 30
0.0
 11
220.5735512543169
 21
25.00658008677734
 31
0.0
  0
LINE
  5
4803
  8
0
 10
218.24811244813779
 20
73.935974807925135
 30
0.0
 11
217.60357626671521
 21
74.884878004333217
 31
0.0
  0
ARC
  5
4804
  8
0
 10
219.99999999999901
 20
50.00000000000307
 30
0.0
 40
24.999999999996799
 50
95.500644497510024
 51
101.2435415490025
  0
LINE
  5
4805
  8
0
 10
215.12550586376511
 20
74.520181624853677
 30
0.0
 11
214.7816757860422
 21
73.425821061342162
 31
0.0
  0
LINE
  5
4806
  8
0
 10
219.42644874568219
 20
25.006580086777351
 30
0.0
 11
219.99999999999949
 21
25.999999999999929
 31
0.0
  0
ARC
  5
4807
  8
0
 10
219.9999999999994
 20
49.99999999999843
 30
0.0
 40
24.999999999998511
 50
262.94250496262401
 51
268.6854020141202
  0
LINE
  5
4808
  8
0
 10
216.50557197435941
 20
26.25575916619729
 30
0.0
 11
216.92836800465309
 21
25.18941603095227
 31
0.0
  0
LINE
  5
4809
  8
0
 10
214.7816757860422
 20
73.425821061342162
 30
0.0
 11
214.00584677600281
 21
74.270766924991193
 31
0.0
  0
ARC
  5
480A
  8
0
 10
220.00000000000091
 20
49.999999999996867
 30
0.0
 40
25.0000000000033
 50
103.87273752076661
 51
109.6156345722577
  0
LINE
  5
480B
  8
0
 10
211.6072844759419
 20
73.549147036192963
 30
0.0
 11
211.4264586447724
 21
72.416386609581053
 31
0.0
  0
LINE
  5
480C
  8
0
 10
215.7934897452329
 20
25.356435495721321
 30
0.0
 11
216.5055719743595
 21
26.25575916619729
 31
0.0
  0
ARC
  5
480D
  8
0
 10
219.99999999999849
 20
49.99999999999784
 30
0.0
 40
24.99999999999774
 50
254.57041193937121
 51
260.31330899086612
  0
LINE
  5
480E
  8
0
 10
213.0856216152338
 20
27.017585602198182
 30
0.0
 11
213.34865125815551
 21
25.901046497526639
 31
0.0
  0
LINE
  5
480F
  8
0
 10
211.4264586447724
 20
72.416386609581053
 30
0.0
 11
210.53587225450951
 21
73.139366586340287
 31
0.0
  0
ARC
  5
4810
  8
0
 10
219.9999999999979
 20
50.000000000003467
 30
0.0
 40
24.999999999996088
 50
112.24483054401981
 51
117.98772759551601
  0
LINE
  5
4811
  8
0
 10
208.267939248499
 20
72.076203263312692
 30
0.0
 11
208.25397165253349
 21
70.929185795451275
 31
0.0
  0
LINE
  5
4812
  8
0
 10
212.2501852077304
 20
26.231525697143908
 30
0.0
 11
213.0856216152338
 21
27.017585602198182
 31
0.0
  0
ARC
  5
4813
  8
0
 10
220.00000000000071
 20
50.000000000003183
 30
0.0
 40
25.000000000003471
 50
246.19831891611301
 51
251.9412159676061
  0
LINE
  5
4814
  8
0
 10
209.81303922698001
 20
28.269242300164422
 30
0.0
 11
209.9106964623497
 21
27.126304318602781
 31
0.0
  0
LINE
  5
4815
  8
0
 10
208.25397165253349
 20
70.929185795451303
 30
0.0
 11
207.26760918476381
 21
71.514790822317963
 31
0.0
  0
ARC
  5
4816
  8
0
 10
219.9999999999977
 20
50.000000000002807
 30
0.0
 40
24.999999999996579
 50
120.61692356727779
 51
126.35982061877149
  0
LINE
  5
4817
  8
0
 10
205.17864252735461
 20
70.132743545480025
 30
0.0
 11
205.3318308616511
 21
68.995915722302016
 31
0.0
  0
LINE
  5
4818
  8
0
 10
208.87205451768239
 20
27.613199662690079
 30
0.0
 11
209.81303922698001
 21
28.269242300164411
 31
0.0
  0
ARC
  5
4819
  8
0
 10
219.99999999999699
 20
49.999999999995651
 30
0.0
 40
24.99999999999503
 50
237.82622589285879
 51
243.56912294435401
  0
LINE
  5
481A
  8
0
 10
206.7575742215088
 20
29.984052370642871
 30
0.0
 11
206.68777765490231
 21
28.839075250956121
 31
0.0
  0
LINE
  5
481B
  8
0
 10
205.3318308616511
 20
68.995915722302016
 30
0.0
 11
204.27071491990179
 21
69.431664644826725
 31
0.0
  0
ARC
  5
481C
  8
0
 10
219.9999999999981
 20
50.000000000001528
 30
0.0
 40
24.999999999997801
 50
128.98901659053021
 51
134.73191364202481
  0
LINE
  5
481D
  8
0
 10
202.40523730863649
 20
67.760189352442609
 30
0.0
 11
202.72231662980769
 21
66.657780685295108
 31
0.0
  0
LINE
  5
481E
  8
0
 10
205.73109666580501
 20
29.472009410577609
 30
0.0
 11
206.75757422150889
 21
29.984052370642839
 31
0.0
  0
ARC
  5
481F
  8
0
 10
220.0000000000006
 20
50.000000000000988
 30
0.0
 40
25.000000000001489
 50
229.45413286960229
 51
235.19702992109401
  0
LINE
  5
4820
  8
0
 10
203.98434853066581
 20
32.125467614149173
 30
0.0
 11
203.748585754723
 21
31.002854555791131
 31
0.0
  0
LINE
  5
4821
  8
0
 10
202.72231662980769
 20
66.657780685295137
 30
0.0
 11
201.6090630581202
 21
66.934386271719887
 31
0.0
  0
ARC
  5
4822
  8
0
 10
220.00000000000071
 20
49.999999999998863
 30
0.0
 40
25.00000000000162
 50
137.36110961378949
 51
143.1040066652815
  0
LINE
  5
4823
  8
0
 10
200.0068339095337
 20
65.009107557714486
 30
0.0
 11
200.48104622234601
 21
63.964613973390783
 31
0.0
  0
LINE
  5
4824
  8
0
 10
202.89425571553619
 20
31.768337638203349
 30
0.0
 11
203.98434853066581
 21
32.125467614149159
 31
0.0
  0
ARC
  5
4825
  8
0
 10
220.0000000000035
 20
50.00000000000378
 30
0.0
 40
25.000000000005478
 50
221.08203984634719
 51
226.82493689784101
  0
LINE
  5
4826
  8
0
 10
201.5524686453148
 20
34.647847482586563
 30
0.0
 11
201.15576453428531
 21
33.571525033871232
 31
0.0
  0
LINE
  5
4827
  8
0
 10
200.48104622234601
 20
63.964613973390783
 30
0.0
 11
199.33938208782561
 21
64.076180855869808
 31
0.0
  0
ARC
  5
4828
  8
0
 10
220.0000000000021
 20
49.99999999999855
 30
0.0
 40
25.00000000000291
 50
145.73320263704451
 51
151.47609968853661
  0
LINE
  5
4829
  8
0
 10
198.0345501345094
 20
61.938132693459089
 30
0.0
 11
198.6557884268191
 21
60.973815759311229
 31
0.0
  0
LINE
  5
482A
  8
0
 10
200.4219940065492
 20
34.45324209616615
 30
0.0
 11
201.5524686453148
 21
34.647847482586542
 31
0.0
  0
ARC
  5
482B
  8
0
 10
219.99999999999949
 20
50.000000000000647
 30
0.0
 40
25.000000000000359
 50
212.70994682309271
 51
218.45284387458531
  0
LINE
  5
482C
  8
0
 10
199.5137658631032
 20
37.497431828289621
 30
0.0
 11
198.9645754763757
 21
36.490339933553912
 31
0.0
  0
LINE
  5
482D
  8
0
 10
198.6557884268191
 20
60.973815759311229
 30
0.0
 11
197.5100463183926
 21
60.917966083441343
 31
0.0
  0
ARC
  5
482E
  8
0
 10
219.9999999999992
 20
50.000000000000199
 30
0.0
 40
24.99999999999952
 50
154.1052956602995
 51
159.8481927117937
  0
LINE
  5
482F
  8
0
 10
196.53042178804739
 20
58.612717257234351
 30
0.0
 11
197.28544544421689
 21
57.749129714514623
 31
0.0
  0
LINE
  5
4830
  8
0
 10
198.367003504953
 20
37.469498707341977
 30
0.0
 11
199.5137658631032
 21
37.497431828289621
 31
0.0
  0
ARC
  5
4831
  8
0
 10
219.9999999999992
 20
50.000000000000369
 30
0.0
 40
24.999999999999851
 50
204.33785379983681
 51
210.0807508513291
  0
LINE
  5
4832
  8
0
 10
197.91169159433969
 20
40.613486708236188
 30
0.0
 11
197.22171997153029
 21
39.697089782753601
 31
0.0
  0
LINE
  5
4833
  8
0
 10
197.28544544421689
 20
57.749129714514623
 30
0.0
 11
196.16004486574511
 21
57.527053819173553
 31
0.0
  0
ARC
  5
4834
  8
0
 10
220.00000000000739
 20
49.999999999997783
 30
0.0
 40
25.000000000008129
 50
162.47738868355589
 51
168.22028573504821
  0
LINE
  5
4835
  8
0
 10
195.52650675445989
 20
55.103736705642604
 30
0.0
 11
196.39922375609231
 21
54.359284423506381
 31
0.0
  0
LINE
  5
4836
  8
0
 10
196.77308276551699
 20
40.752821198738197
 30
0.0
 11
197.91169159433969
 21
40.613486708236152
 31
0.0
  0
ARC
  5
4837
  8
0
 10
220.00000000000489
 20
50.000000000001528
 30
0.0
 40
25.00000000000562
 50
195.96576077657929
 51
201.7086578280705
  0
LINE
  5
4838
  8
0
 10
196.78039127062129
 20
43.929598822599601
 30
0.0
 11
195.96434395897569
 21
43.123428275834023
 31
0.0
  0
LINE
  5
4839
  8
0
 10
196.3992237560924
 20
54.359284423506409
 30
0.0
 11
195.3181506670409
 21
53.975715470846211
 31
0.0
  0
ARC
  5
483A
  8
0
 10
220.00000000000199
 20
49.999999999999631
 30
0.0
 40
25.000000000002451
 50
170.84948170681159
 51
176.5923787583053
  0
LINE
  5
483B
  8
0
 10
195.04420173974029
 20
51.485978867023697
 30
0.0
 11
196.0160116391138
 21
50.876528553383707
 31
0.0
  0
LINE
  5
483C
  8
0
 10
195.6742034415168
 20
44.23323125179185
 30
0.0
 11
196.78039127062129
 21
43.92959882259958
 31
0.0
  0
ARC
  5
483D
  8
0
 10
219.99999999999699
 20
49.999999999999659
 30
0.0
 40
24.99999999999747
 50
187.59366775332381
 51
193.33656480481659
  0
LINE
  5
483E
  8
0
 10
196.1439765942408
 20
47.375090998930943
 30
0.0
 11
195.2192462254261
 21
46.696328956453563
 31
0.0
  0
LINE
  5
483F
  8
0
 10
196.0160116391138
 20
50.876528553383729
 30
0.0
 11
195.0023072354704
 21
50.339641649697057
 31
0.0
  0
ARC
  5
4840
  8
0
 10
220.0000000000023
 20
50.000000000000391
 30
0.0
 40
25.0000000000027
 50
179.22157473006769
 51
184.96447178156171
  0
LINE
  5
4841
  8
0
 10
195.0937862379235
 20
47.836549968736712
 30
0.0
 11
196.1439765942408
 21
47.375090998930943
 31
0.0
  0
CIRCLE
  5
4843
  8
0
 10
219.9999999999998
 20
49.999999999999972
 30
0.0
 40
24.00000000000027
  0
LINE
  5
4887
  8
1
 10
99.0
 20
50.000000000000092
 30
0.0
 11
172.0
 21
50.000000000000092
 31
0.0
  0
LINE
  5
4888
  8
0
 10
134.30000000000001
 20
56.666666666666742
 30
0.0
 11
134.0
 21
56.666666666666742
 31
0.0
  0
LINE
  5
4889
  8
0
 10
134.0
 20
43.333333333333407
 30
0.0
 11
134.30000000000001
 21
43.333333333333407
 31
0.0
  0
LINE
  5
488A
  8
0
 10
135.30000000000001
 20
60.000000000000078
 30
0.0
 11
134.30000000000001
 21
59.000000000000092
 31
0.0
  0
LINE
  5
488B
  8
0
 10
134.30000000000001
 20
41.000000000000078
 30
0.0
 11
135.30000000000001
 21
40.000000000000078
 31
0.0
  0
LINE
  5
488C
  8
0
 10
150.0
 20
60.000000000000078
 30
0.0
 11
135.30000000000001
 21
60.000000000000078
 31
0.0
  0
LINE
  5
488D
  8
0
 10
135.30000000000001
 20
40.000000000000078
 30
0.0
 11
150.0
 21
40.000000000000078
 31
0.0
  0
ARC
  5
488E
  8
0
 10
150.5
 20
27.500000000000089
 30
0.0
 40
0.5000000000000036
 50
180.0
 51
270.0
  0
ARC
  5
488F
  8
0
 10
150.5
 20
72.500000000000085
 30
0.0
 40
0.4999999999999964
 50
90.0
 51
180.0
  0
LINE
  5
4890
  8
0
 10
151.31999999999999
 20
73.000000000000085
 30
0.0
 11
150.5
 21
73.000000000000085
 31
0.0
  0
LINE
  5
4891
  8
0
 10
150.5
 20
27.000000000000089
 30
0.0
 11
151.31999999999999
 21
27.000000000000089
 31
0.0
  0
LINE
  5
4892
  8
0
 10
166.5
 20
73.000000000000085
 30
0.0
 11
165.68000000000001
 21
73.000000000000085
 31
0.0
  0
LINE
  5
4893
  8
0
 10
165.68000000000001
 20
27.000000000000089
 30
0.0
 11
166.5
 21
27.000000000000089
 31
0.0
  0
ARC
  5
4894
  8
0
 10
166.5
 20
27.500000000000071
 30
0.0
 40
0.4999999999999893
 50
270.0
 51
0.0
  0
ARC
  5
4895
  8
0
 10
166.5
 20
72.500000000000085
 30
0.0
 40
0.4999999999999929
 50
0.0
 51
90.0
  0
LINE
  5
4896
  8
0
 10
151.78630765815501
 20
75.000000000000142
 30
0.0
 11
151.31999999999999
 21
74.000000000000085
 31
0.0
  0
LINE
  5
4897
  8
0
 10
165.68000000000001
 20
74.000000000000085
 30
0.0
 11
165.21369234184499
 21
75.000000000000142
 31
0.0
  0
LINE
  5
4898
  8
0
 10
157.92264973081021
 20
75.000000000000085
 30
0.0
 11
155.48735026918979
 21
75.000000000000085
 31
0.0
  0
LINE
  5
4899
  8
0
 10
154.3326497308102
 20
75.000000000000085
 30
0.0
 11
151.78630765815521
 21
75.000000000000085
 31
0.0
  0
LINE
  5
489A
  8
0
 10
161.5126497308101
 20
75.000000000000085
 30
0.0
 11
159.07735026918979
 21
75.000000000000085
 31
0.0
  0
LINE
  5
489B
  8
0
 10
165.2136923418449
 20
75.000000000000085
 30
0.0
 11
162.6673502691898
 21
75.000000000000085
 31
0.0
  0
LINE
  5
489C
  8
0
 10
162.08999999999989
 20
74.000000000000085
 30
0.0
 11
161.5126497308103
 21
75.000000000000142
 31
0.0
  0
LINE
  5
489D
  8
0
 10
162.66735026918971
 20
75.000000000000142
 30
0.0
 11
162.09
 21
74.000000000000085
 31
0.0
  0
LINE
  5
489E
  8
0
 10
158.5
 20
74.000000000000085
 30
0.0
 11
157.92264973081029
 21
75.000000000000142
 31
0.0
  0
LINE
  5
489F
  8
0
 10
159.07735026918959
 20
75.000000000000142
 30
0.0
 11
158.5
 21
74.000000000000085
 31
0.0
  0
LINE
  5
48A0
  8
0
 10
154.91
 20
74.000000000000085
 30
0.0
 11
154.33264973081029
 21
75.000000000000142
 31
0.0
  0
LINE
  5
48A1
  8
0
 10
155.48735026918959
 20
75.000000000000142
 30
0.0
 11
154.91
 21
74.000000000000085
 31
0.0
  0
LINE
  5
48A2
  8
0
 10
134.0
 20
43.333333333333407
 30
0.0
 11
134.0
 21
56.666666666666771
 31
0.0
  0
LINE
  5
48A3
  8
0
 10
134.30000000000001
 20
41.000000000000078
 30
0.0
 11
134.30000000000001
 21
59.000000000000092
 31
0.0
  0
LINE
  5
48A4
  8
0
 10
135.30000000000001
 20
40.000000000000078
 30
0.0
 11
135.30000000000001
 21
60.000000000000078
 31
0.0
  0
LINE
  5
48A5
  8
0
 10
150.0
 20
27.500000000000089
 30
0.0
 11
150.0
 21
72.500000000000085
 31
0.0
  0
LINE
  5
48A6
  8
0
 10
150.5
 20
27.000000000000089
 30
0.0
 11
150.5
 21
73.000000000000085
 31
0.0
  0
LINE
  5
48A7
  8
0
 10
166.5
 20
27.000000000000089
 30
0.0
 11
166.5
 21
73.000000000000085
 31
0.0
  0
LINE
  5
48A8
  8
0
 10
167.0
 20
27.500000000000089
 30
0.0
 11
167.0
 21
72.500000000000085
 31
0.0
  0
LINE
  5
48A9
  8
0
 10
151.31999999999999
 20
26.000000000000082
 30
0.0
 11
151.31999999999999
 21
74.000000000000085
 31
0.0
  0
LINE
  5
48AA
  8
0
 10
165.68000000000001
 20
26.000000000000082
 30
0.0
 11
165.68000000000001
 21
74.000000000000085
 31
0.0
  0
LINE
  5
48AB
  8
0
 10
151.78630765815501
 20
25.189416030952451
 30
0.0
 11
151.31999999999999
 21
26.255759166197439
 31
0.0
  0
LINE
  5
48AC
  8
0
 10
151.78630765815501
 20
25.90104649752681
 30
0.0
 11
151.31999999999999
 21
27.017585602198348
 31
0.0
  0
LINE
  5
48AD
  8
0
 10
151.78630765815501
 20
27.126304318602951
 30
0.0
 11
151.31999999999999
 21
28.269242300164571
 31
0.0
  0
LINE
  5
48AE
  8
0
 10
151.78630765815501
 20
28.839075250956281
 30
0.0
 11
151.31999999999999
 21
29.984052370643031
 31
0.0
  0
LINE
  5
48AF
  8
0
 10
151.78630765815501
 20
31.002854555791298
 30
0.0
 11
151.31999999999999
 21
32.125467614149329
 31
0.0
  0
LINE
  5
48B0
  8
0
 10
151.78630765815501
 20
33.571525033871382
 30
0.0
 11
151.31999999999999
 21
34.647847482586712
 31
0.0
  0
LINE
  5
48B1
  8
0
 10
151.78630765815501
 20
36.490339933554083
 30
0.0
 11
151.31999999999999
 21
37.497431828289763
 31
0.0
  0
LINE
  5
48B2
  8
0
 10
151.78630765815501
 20
39.697089782753757
 30
0.0
 11
151.31999999999999
 21
40.613486708236351
 31
0.0
  0
LINE
  5
48B3
  8
0
 10
151.78630765815501
 20
43.1234282758342
 30
0.0
 11
151.31999999999999
 21
43.929598822599772
 31
0.0
  0
LINE
  5
48B4
  8
0
 10
151.78630765815501
 20
46.696328956453719
 30
0.0
 11
151.31999999999999
 21
47.375090998931107
 31
0.0
  0
LINE
  5
48B5
  8
0
 10
155.48735026918959
 20
50.339641649697228
 30
0.0
 11
157.92264973081041
 21
50.339641649697228
 31
0.0
  0
LINE
  5
48B6
  8
0
 10
155.48735026918959
 20
51.485978867023867
 30
0.0
 11
157.92264973081029
 21
51.485978867023867
 31
0.0
  0
LINE
  5
48B7
  8
0
 10
155.48735026918959
 20
53.975715470846382
 30
0.0
 11
157.92264973081041
 21
53.975715470846382
 31
0.0
  0
LINE
  5
48B8
  8
0
 10
155.48735026918959
 20
55.103736705642767
 30
0.0
 11
157.92264973081029
 21
55.103736705642767
 31
0.0
  0
LINE
  5
48B9
  8
0
 10
155.48735026918959
 20
57.527053819173723
 30
0.0
 11
157.92264973081041
 21
57.527053819173723
 31
0.0
  0
LINE
  5
48BA
  8
0
 10
155.48735026918959
 20
58.612717257234522
 30
0.0
 11
157.92264973081041
 21
58.612717257234522
 31
0.0
  0
LINE
  5
48BB
  8
0
 10
155.48735026918959
 20
60.917966083441513
 30
0.0
 11
157.92264973081029
 21
60.917966083441513
 31
0.0
  0
LINE
  5
48BC
  8
0
 10
155.48735026918959
 20
61.938132693459274
 30
0.0
 11
157.92264973081041
 21
61.938132693459274
 31
0.0
  0
LINE
  5
48BD
  8
0
 10
155.48735026918959
 20
64.076180855869978
 30
0.0
 11
157.92264973081029
 21
64.076180855869978
 31
0.0
  0
LINE
  5
48BE
  8
0
 10
155.48735026918959
 20
65.009107557714657
 30
0.0
 11
157.92264973081029
 21
65.009107557714657
 31
0.0
  0
LINE
  5
48BF
  8
0
 10
155.48735026918959
 20
66.934386271720058
 30
0.0
 11
157.92264973081029
 21
66.934386271720058
 31
0.0
  0
LINE
  5
48C0
  8
0
 10
155.48735026918959
 20
67.760189352442779
 30
0.0
 11
157.92264973081029
 21
67.760189352442779
 31
0.0
  0
LINE
  5
48C1
  8
0
 10
155.48735026918959
 20
69.431664644826895
 30
0.0
 11
157.92264973081041
 21
69.431664644826895
 31
0.0
  0
LINE
  5
48C2
  8
0
 10
155.48735026918959
 20
70.132743545480196
 30
0.0
 11
157.92264973081041
 21
70.132743545480196
 31
0.0
  0
LINE
  5
48C3
  8
0
 10
155.48735026918959
 20
71.514790822318133
 30
0.0
 11
157.92264973081029
 21
71.514790822318133
 31
0.0
  0
LINE
  5
48C4
  8
0
 10
155.48735026918959
 20
72.076203263312863
 30
0.0
 11
157.92264973081041
 21
72.076203263312863
 31
0.0
  0
LINE
  5
48C5
  8
0
 10
155.48735026918959
 20
73.139366586340444
 30
0.0
 11
157.92264973081029
 21
73.139366586340444
 31
0.0
  0
LINE
  5
48C6
  8
0
 10
155.48735026918959
 20
73.549147036193133
 30
0.0
 11
157.92264973081041
 21
73.549147036193133
 31
0.0
  0
LINE
  5
48C7
  8
0
 10
155.48735026918959
 20
74.270766924991364
 30
0.0
 11
157.92264973081029
 21
74.270766924991364
 31
0.0
  0
LINE
  5
48C8
  8
0
 10
155.48735026918959
 20
74.520181624853834
 30
0.0
 11
157.92264973081041
 21
74.520181624853834
 31
0.0
  0
LINE
  5
48C9
  8
0
 10
155.48735026918959
 20
74.884878004333387
 30
0.0
 11
157.92264973081041
 21
74.884878004333387
 31
0.0
  0
LINE
  5
48CA
  8
0
 10
155.48735026918959
 20
74.968611112899481
 30
0.0
 11
157.92264973081041
 21
74.968611112899481
 31
0.0
  0
LINE
  5
48CB
  8
0
 10
151.78630765815521
 20
74.968611112899481
 30
0.0
 11
151.78630765815521
 21
75.000000000000085
 31
0.0
  0
LINE
  5
48CC
  8
0
 10
165.2136923418449
 20
75.000000000000085
 30
0.0
 11
165.2136923418449
 21
74.968611112899481
 31
0.0
  0
LINE
  5
48CD
  8
0
 10
151.31999999999999
 20
73.935974807925334
 30
0.0
 11
151.78630765815501
 21
74.968611112899481
 31
0.0
  0
LINE
  5
48CE
  8
0
 10
151.78630765815501
 20
74.968611112899481
 30
0.0
 11
154.3326497308104
 21
74.968611112899481
 31
0.0
  0
LINE
  5
48CF
  8
0
 10
159.07735026918959
 20
74.968611112899481
 30
0.0
 11
161.51264973081041
 21
74.968611112899481
 31
0.0
  0
LINE
  5
48D0
  8
0
 10
162.6673502691896
 20
74.968611112899481
 30
0.0
 11
165.21369234184499
 21
74.968611112899481
 31
0.0
  0
LINE
  5
48D1
  8
0
 10
165.21369234184499
 20
74.968611112899481
 30
0.0
 11
165.68000000000001
 21
73.935974807925305
 31
0.0
  0
LINE
  5
48D2
  8
0
 10
151.78630765815501
 20
74.884878004333387
 30
0.0
 11
151.31999999999999
 21
73.935974807925334
 31
0.0
  0
LINE
  5
48D3
  8
0
 10
165.68000000000001
 20
73.935974807925305
 30
0.0
 11
165.21369234184499
 21
74.884878004333387
 31
0.0
  0
LINE
  5
48D4
  8
0
 10
151.78630765815319
 20
74.520181624853834
 30
0.0
 11
151.78630765815319
 21
74.884878004333387
 31
0.0
  0
LINE
  5
48D5
  8
0
 10
151.78630765815501
 20
74.884878004333387
 30
0.0
 11
154.3326497308104
 21
74.884878004333387
 31
0.0
  0
LINE
  5
48D6
  8
0
 10
159.07735026918959
 20
74.884878004333387
 30
0.0
 11
161.51264973081041
 21
74.884878004333387
 31
0.0
  0
LINE
  5
48D7
  8
0
 10
162.6673502691896
 20
74.884878004333387
 30
0.0
 11
165.21369234184499
 21
74.884878004333387
 31
0.0
  0
LINE
  5
48D8
  8
0
 10
165.21369234184669
 20
74.884878004333387
 30
0.0
 11
165.21369234184669
 21
74.520181624853834
 31
0.0
  0
LINE
  5
48D9
  8
0
 10
151.31999999999999
 20
73.425821061342333
 30
0.0
 11
151.78630765815501
 21
74.520181624853834
 31
0.0
  0
LINE
  5
48DA
  8
0
 10
151.78630765815501
 20
74.520181624853834
 30
0.0
 11
154.3326497308104
 21
74.520181624853834
 31
0.0
  0
LINE
  5
48DB
  8
0
 10
159.07735026918959
 20
74.520181624853834
 30
0.0
 11
161.51264973081041
 21
74.520181624853834
 31
0.0
  0
LINE
  5
48DC
  8
0
 10
162.6673502691896
 20
74.520181624853834
 30
0.0
 11
165.21369234184499
 21
74.520181624853834
 31
0.0
  0
LINE
  5
48DD
  8
0
 10
165.21369234184499
 20
74.520181624853834
 30
0.0
 11
165.68000000000001
 21
73.425821061342333
 31
0.0
  0
LINE
  5
48DE
  8
0
 10
151.31999999999999
 20
26.000000000000071
 30
0.0
 11
151.78630765815501
 21
25.006580086777522
 31
0.0
  0
LINE
  5
48DF
  8
0
 10
165.21369234184499
 20
25.006580086777522
 30
0.0
 11
165.68000000000001
 21
26.000000000000099
 31
0.0
  0
LINE
  5
48E0
  8
0
 10
155.48735026918959
 20
25.006580086777522
 30
0.0
 11
157.92264973081041
 21
25.006580086777522
 31
0.0
  0
LINE
  5
48E1
  8
0
 10
151.78630765815501
 20
25.006580086777522
 30
0.0
 11
154.3326497308104
 21
25.006580086777522
 31
0.0
  0
LINE
  5
48E2
  8
0
 10
151.7863076581547
 20
25.006580086777522
 30
0.0
 11
151.7863076581547
 21
25.189416030952451
 31
0.0
  0
LINE
  5
48E3
  8
0
 10
151.78630765815501
 20
25.189416030952451
 30
0.0
 11
154.3326497308104
 21
25.189416030952451
 31
0.0
  0
LINE
  5
48E4
  8
0
 10
159.07735026918959
 20
25.006580086777522
 30
0.0
 11
161.51264973081041
 21
25.006580086777522
 31
0.0
  0
LINE
  5
48E5
  8
0
 10
165.2136923418453
 20
25.189416030952451
 30
0.0
 11
165.2136923418453
 21
25.006580086777522
 31
0.0
  0
LINE
  5
48E6
  8
0
 10
162.6673502691896
 20
25.006580086777522
 30
0.0
 11
165.21369234184499
 21
25.006580086777522
 31
0.0
  0
LINE
  5
48E7
  8
0
 10
155.48735026918959
 20
25.189416030952451
 30
0.0
 11
157.92264973081029
 21
25.189416030952451
 31
0.0
  0
LINE
  5
48E8
  8
0
 10
159.07735026918959
 20
25.189416030952451
 30
0.0
 11
161.51264973081041
 21
25.189416030952451
 31
0.0
  0
LINE
  5
48E9
  8
0
 10
165.68000000000001
 20
26.255759166197471
 30
0.0
 11
165.21369234184499
 21
25.189416030952451
 31
0.0
  0
LINE
  5
48EA
  8
0
 10
162.6673502691896
 20
25.189416030952451
 30
0.0
 11
165.21369234184499
 21
25.189416030952451
 31
0.0
  0
LINE
  5
48EB
  8
0
 10
151.78630765815501
 20
74.270766924991364
 30
0.0
 11
151.31999999999999
 21
73.425821061342361
 31
0.0
  0
LINE
  5
48EC
  8
0
 10
165.68000000000001
 20
73.425821061342333
 30
0.0
 11
165.21369234184499
 21
74.270766924991364
 31
0.0
  0
LINE
  5
48ED
  8
0
 10
151.78630765815601
 20
73.549147036193133
 30
0.0
 11
151.78630765815601
 21
74.270766924991364
 31
0.0
  0
LINE
  5
48EE
  8
0
 10
151.78630765815501
 20
74.270766924991364
 30
0.0
 11
154.3326497308104
 21
74.270766924991364
 31
0.0
  0
LINE
  5
48EF
  8
0
 10
159.07735026918959
 20
74.270766924991364
 30
0.0
 11
161.51264973081041
 21
74.270766924991364
 31
0.0
  0
LINE
  5
48F0
  8
0
 10
162.6673502691896
 20
74.270766924991364
 30
0.0
 11
165.21369234184499
 21
74.270766924991364
 31
0.0
  0
LINE
  5
48F1
  8
0
 10
165.21369234184391
 20
74.270766924991364
 30
0.0
 11
165.21369234184391
 21
73.549147036193133
 31
0.0
  0
LINE
  5
48F2
  8
0
 10
151.31999999999999
 20
72.416386609581224
 30
0.0
 11
151.78630765815501
 21
73.549147036193133
 31
0.0
  0
LINE
  5
48F3
  8
0
 10
151.78630765815501
 20
73.549147036193133
 30
0.0
 11
154.3326497308104
 21
73.549147036193133
 31
0.0
  0
LINE
  5
48F4
  8
0
 10
159.07735026918959
 20
73.549147036193133
 30
0.0
 11
161.51264973081041
 21
73.549147036193133
 31
0.0
  0
LINE
  5
48F5
  8
0
 10
162.6673502691896
 20
73.549147036193133
 30
0.0
 11
165.21369234184499
 21
73.549147036193133
 31
0.0
  0
LINE
  5
48F6
  8
0
 10
165.21369234184499
 20
73.549147036193133
 30
0.0
 11
165.68000000000001
 21
72.416386609581224
 31
0.0
  0
LINE
  5
48F7
  8
0
 10
151.31999999999999
 20
26.255759166197439
 30
0.0
 11
151.78630765815501
 21
25.356435495721481
 31
0.0
  0
LINE
  5
48F8
  8
0
 10
165.21369234184499
 20
25.356435495721481
 30
0.0
 11
165.68000000000001
 21
26.255759166197471
 31
0.0
  0
LINE
  5
48F9
  8
0
 10
155.48735026918951
 20
25.356435495721481
 30
0.0
 11
157.92264973081041
 21
25.356435495721481
 31
0.0
  0
LINE
  5
48FA
  8
0
 10
151.78630765815501
 20
25.356435495721481
 30
0.0
 11
154.3326497308104
 21
25.356435495721481
 31
0.0
  0
LINE
  5
48FB
  8
0
 10
151.78630765815339
 20
25.356435495721481
 30
0.0
 11
151.78630765815339
 21
25.90104649752681
 31
0.0
  0
LINE
  5
48FC
  8
0
 10
151.78630765815501
 20
25.90104649752681
 30
0.0
 11
154.3326497308104
 21
25.90104649752681
 31
0.0
  0
LINE
  5
48FD
  8
0
 10
159.07735026918959
 20
25.356435495721481
 30
0.0
 11
161.51264973081041
 21
25.356435495721481
 31
0.0
  0
LINE
  5
48FE
  8
0
 10
165.21369234184661
 20
25.90104649752681
 30
0.0
 11
165.21369234184661
 21
25.356435495721481
 31
0.0
  0
LINE
  5
48FF
  8
0
 10
162.6673502691896
 20
25.356435495721481
 30
0.0
 11
165.21369234184499
 21
25.356435495721481
 31
0.0
  0
LINE
  5
4900
  8
0
 10
155.48735026918959
 20
25.90104649752681
 30
0.0
 11
157.92264973081029
 21
25.90104649752681
 31
0.0
  0
LINE
  5
4901
  8
0
 10
159.07735026918959
 20
25.90104649752681
 30
0.0
 11
161.51264973081041
 21
25.90104649752681
 31
0.0
  0
LINE
  5
4902
  8
0
 10
165.68000000000001
 20
27.017585602198348
 30
0.0
 11
165.21369234184499
 21
25.90104649752681
 31
0.0
  0
LINE
  5
4903
  8
0
 10
162.6673502691896
 20
25.90104649752681
 30
0.0
 11
165.21369234184499
 21
25.90104649752681
 31
0.0
  0
LINE
  5
4904
  8
0
 10
151.78630765815501
 20
73.139366586340444
 30
0.0
 11
151.31999999999999
 21
72.416386609581224
 31
0.0
  0
LINE
  5
4905
  8
0
 10
165.68000000000001
 20
72.416386609581224
 30
0.0
 11
165.21369234184499
 21
73.139366586340444
 31
0.0
  0
LINE
  5
4906
  8
0
 10
151.7863076581537
 20
72.076203263312863
 30
0.0
 11
151.7863076581537
 21
73.139366586340444
 31
0.0
  0
LINE
  5
4907
  8
0
 10
151.78630765815501
 20
73.139366586340444
 30
0.0
 11
154.3326497308104
 21
73.139366586340444
 31
0.0
  0
LINE
  5
4908
  8
0
 10
159.07735026918959
 20
73.139366586340444
 30
0.0
 11
161.51264973081041
 21
73.139366586340444
 31
0.0
  0
LINE
  5
4909
  8
0
 10
162.6673502691896
 20
73.139366586340444
 30
0.0
 11
165.21369234184499
 21
73.139366586340444
 31
0.0
  0
LINE
  5
490A
  8
0
 10
165.2136923418463
 20
73.139366586340444
 30
0.0
 11
165.2136923418463
 21
72.076203263312863
 31
0.0
  0
LINE
  5
490B
  8
0
 10
151.31999999999999
 20
70.929185795451474
 30
0.0
 11
151.78630765815501
 21
72.076203263312863
 31
0.0
  0
LINE
  5
490C
  8
0
 10
151.78630765815501
 20
72.076203263312863
 30
0.0
 11
154.3326497308104
 21
72.076203263312863
 31
0.0
  0
LINE
  5
490D
  8
0
 10
159.07735026918959
 20
72.076203263312863
 30
0.0
 11
161.51264973081041
 21
72.076203263312863
 31
0.0
  0
LINE
  5
490E
  8
0
 10
162.6673502691896
 20
72.076203263312863
 30
0.0
 11
165.21369234184499
 21
72.076203263312863
 31
0.0
  0
LINE
  5
490F
  8
0
 10
165.21369234184499
 20
72.076203263312863
 30
0.0
 11
165.68000000000001
 21
70.929185795451446
 31
0.0
  0
LINE
  5
4910
  8
0
 10
151.31999999999999
 20
27.017585602198348
 30
0.0
 11
151.78630765815501
 21
26.231525697144079
 31
0.0
  0
LINE
  5
4911
  8
0
 10
165.21369234184499
 20
26.231525697144079
 30
0.0
 11
165.68000000000001
 21
27.017585602198348
 31
0.0
  0
LINE
  5
4912
  8
0
 10
155.48735026918959
 20
26.231525697144079
 30
0.0
 11
157.92264973081041
 21
26.231525697144079
 31
0.0
  0
LINE
  5
4913
  8
0
 10
151.78630765815501
 20
26.231525697144079
 30
0.0
 11
154.3326497308104
 21
26.231525697144079
 31
0.0
  0
LINE
  5
4914
  8
0
 10
151.78630765815569
 20
26.231525697144079
 30
0.0
 11
151.78630765815569
 21
27.126304318602951
 31
0.0
  0
LINE
  5
4915
  8
0
 10
151.78630765815501
 20
27.126304318602951
 30
0.0
 11
154.3326497308104
 21
27.126304318602951
 31
0.0
  0
LINE
  5
4916
  8
0
 10
159.07735026918959
 20
26.231525697144079
 30
0.0
 11
161.51264973081041
 21
26.231525697144079
 31
0.0
  0
LINE
  5
4917
  8
0
 10
165.21369234184431
 20
27.126304318602951
 30
0.0
 11
165.21369234184431
 21
26.231525697144079
 31
0.0
  0
LINE
  5
4918
  8
0
 10
162.6673502691896
 20
26.231525697144079
 30
0.0
 11
165.21369234184499
 21
26.231525697144079
 31
0.0
  0
LINE
  5
4919
  8
0
 10
155.48735026918959
 20
27.126304318602951
 30
0.0
 11
157.92264973081029
 21
27.126304318602951
 31
0.0
  0
LINE
  5
491A
  8
0
 10
159.07735026918959
 20
27.126304318602951
 30
0.0
 11
161.51264973081041
 21
27.126304318602951
 31
0.0
  0
LINE
  5
491B
  8
0
 10
165.68000000000001
 20
28.269242300164588
 30
0.0
 11
165.21369234184499
 21
27.126304318602951
 31
0.0
  0
LINE
  5
491C
  8
0
 10
162.6673502691896
 20
27.126304318602951
 30
0.0
 11
165.21369234184499
 21
27.126304318602951
 31
0.0
  0
LINE
  5
491D
  8
0
 10
151.78630765815501
 20
71.514790822318133
 30
0.0
 11
151.31999999999999
 21
70.929185795451474
 31
0.0
  0
LINE
  5
491E
  8
0
 10
165.68000000000001
 20
70.929185795451474
 30
0.0
 11
165.21369234184499
 21
71.514790822318133
 31
0.0
  0
LINE
  5
491F
  8
0
 10
151.7863076581543
 20
70.132743545480196
 30
0.0
 11
151.7863076581543
 21
71.514790822318133
 31
0.0
  0
LINE
  5
4920
  8
0
 10
151.78630765815501
 20
71.514790822318133
 30
0.0
 11
154.3326497308104
 21
71.514790822318133
 31
0.0
  0
LINE
  5
4921
  8
0
 10
159.07735026918959
 20
71.514790822318133
 30
0.0
 11
161.51264973081041
 21
71.514790822318133
 31
0.0
  0
LINE
  5
4922
  8
0
 10
162.6673502691896
 20
71.514790822318133
 30
0.0
 11
165.21369234184499
 21
71.514790822318133
 31
0.0
  0
LINE
  5
4923
  8
0
 10
165.2136923418457
 20
71.514790822318133
 30
0.0
 11
165.2136923418457
 21
70.132743545480196
 31
0.0
  0
LINE
  5
4924
  8
0
 10
151.31999999999999
 20
68.995915722302186
 30
0.0
 11
151.78630765815501
 21
70.132743545480196
 31
0.0
  0
LINE
  5
4925
  8
0
 10
151.78630765815501
 20
70.132743545480196
 30
0.0
 11
154.3326497308104
 21
70.132743545480196
 31
0.0
  0
LINE
  5
4926
  8
0
 10
159.07735026918959
 20
70.132743545480196
 30
0.0
 11
161.51264973081041
 21
70.132743545480196
 31
0.0
  0
LINE
  5
4927
  8
0
 10
162.6673502691896
 20
70.132743545480196
 30
0.0
 11
165.21369234184499
 21
70.132743545480196
 31
0.0
  0
LINE
  5
4928
  8
0
 10
165.21369234184499
 20
70.132743545480196
 30
0.0
 11
165.68000000000001
 21
68.995915722302186
 31
0.0
  0
LINE
  5
4929
  8
0
 10
151.31999999999999
 20
28.269242300164571
 30
0.0
 11
151.78630765815501
 21
27.613199662690249
 31
0.0
  0
LINE
  5
492A
  8
0
 10
165.21369234184499
 20
27.613199662690249
 30
0.0
 11
165.68000000000001
 21
28.269242300164581
 31
0.0
  0
LINE
  5
492B
  8
0
 10
155.48735026918959
 20
27.613199662690249
 30
0.0
 11
157.92264973081041
 21
27.613199662690249
 31
0.0
  0
LINE
  5
492C
  8
0
 10
151.78630765815501
 20
27.613199662690249
 30
0.0
 11
154.3326497308104
 21
27.613199662690249
 31
0.0
  0
LINE
  5
492D
  8
0
 10
151.78630765815339
 20
27.613199662690249
 30
0.0
 11
151.78630765815339
 21
28.839075250956281
 31
0.0
  0
LINE
  5
492E
  8
0
 10
151.78630765815501
 20
28.839075250956281
 30
0.0
 11
154.3326497308104
 21
28.839075250956281
 31
0.0
  0
LINE
  5
492F
  8
0
 10
159.07735026918959
 20
27.613199662690249
 30
0.0
 11
161.51264973081041
 21
27.613199662690249
 31
0.0
  0
LINE
  5
4930
  8
0
 10
165.21369234184661
 20
28.839075250956281
 30
0.0
 11
165.21369234184661
 21
27.613199662690249
 31
0.0
  0
LINE
  5
4931
  8
0
 10
162.6673502691896
 20
27.613199662690249
 30
0.0
 11
165.21369234184499
 21
27.613199662690249
 31
0.0
  0
LINE
  5
4932
  8
0
 10
155.48735026918959
 20
28.839075250956281
 30
0.0
 11
157.92264973081029
 21
28.839075250956281
 31
0.0
  0
LINE
  5
4933
  8
0
 10
159.07735026918959
 20
28.839075250956281
 30
0.0
 11
161.51264973081041
 21
28.839075250956281
 31
0.0
  0
LINE
  5
4934
  8
0
 10
165.68000000000001
 20
29.984052370643042
 30
0.0
 11
165.21369234184499
 21
28.839075250956281
 31
0.0
  0
LINE
  5
4935
  8
0
 10
162.6673502691896
 20
28.839075250956281
 30
0.0
 11
165.21369234184499
 21
28.839075250956281
 31
0.0
  0
LINE
  5
4936
  8
0
 10
151.78630765815501
 20
69.431664644826895
 30
0.0
 11
151.31999999999999
 21
68.995915722302186
 31
0.0
  0
LINE
  5
4937
  8
0
 10
165.68000000000001
 20
68.995915722302186
 30
0.0
 11
165.21369234184499
 21
69.431664644826895
 31
0.0
  0
LINE
  5
4938
  8
0
 10
151.7863076581547
 20
67.760189352442779
 30
0.0
 11
151.7863076581547
 21
69.431664644826895
 31
0.0
  0
LINE
  5
4939
  8
0
 10
151.78630765815501
 20
69.431664644826895
 30
0.0
 11
154.3326497308104
 21
69.431664644826895
 31
0.0
  0
LINE
  5
493A
  8
0
 10
159.07735026918959
 20
69.431664644826895
 30
0.0
 11
161.51264973081041
 21
69.431664644826895
 31
0.0
  0
LINE
  5
493B
  8
0
 10
162.6673502691896
 20
69.431664644826895
 30
0.0
 11
165.21369234184499
 21
69.431664644826895
 31
0.0
  0
LINE
  5
493C
  8
0
 10
165.2136923418453
 20
69.431664644826895
 30
0.0
 11
165.2136923418453
 21
67.760189352442779
 31
0.0
  0
LINE
  5
493D
  8
0
 10
151.31999999999999
 20
66.657780685295279
 30
0.0
 11
151.78630765815501
 21
67.760189352442779
 31
0.0
  0
LINE
  5
493E
  8
0
 10
151.78630765815501
 20
67.760189352442779
 30
0.0
 11
154.3326497308104
 21
67.760189352442779
 31
0.0
  0
LINE
  5
493F
  8
0
 10
159.07735026918959
 20
67.760189352442779
 30
0.0
 11
161.51264973081041
 21
67.760189352442779
 31
0.0
  0
LINE
  5
4940
  8
0
 10
162.6673502691896
 20
67.760189352442779
 30
0.0
 11
165.21369234184499
 21
67.760189352442779
 31
0.0
  0
LINE
  5
4941
  8
0
 10
165.21369234184499
 20
67.760189352442779
 30
0.0
 11
165.68000000000001
 21
66.657780685295279
 31
0.0
  0
LINE
  5
4942
  8
0
 10
151.31999999999999
 20
29.98405237064302
 30
0.0
 11
151.78630765815501
 21
29.47200941057778
 31
0.0
  0
LINE
  5
4943
  8
0
 10
165.21369234184499
 20
29.47200941057778
 30
0.0
 11
165.68000000000001
 21
29.98405237064302
 31
0.0
  0
LINE
  5
4944
  8
0
 10
155.48735026918959
 20
29.47200941057778
 30
0.0
 11
157.92264973081029
 21
29.47200941057778
 31
0.0
  0
LINE
  5
4945
  8
0
 10
151.78630765815501
 20
29.47200941057778
 30
0.0
 11
154.3326497308104
 21
29.47200941057778
 31
0.0
  0
LINE
  5
4946
  8
0
 10
151.78630765815521
 20
29.47200941057778
 30
0.0
 11
151.78630765815521
 21
31.002854555791298
 31
0.0
  0
LINE
  5
4947
  8
0
 10
151.78630765815501
 20
31.002854555791298
 30
0.0
 11
154.3326497308104
 21
31.002854555791298
 31
0.0
  0
LINE
  5
4948
  8
0
 10
159.07735026918959
 20
29.47200941057778
 30
0.0
 11
161.51264973081041
 21
29.47200941057778
 31
0.0
  0
LINE
  5
4949
  8
0
 10
165.21369234184479
 20
31.002854555791298
 30
0.0
 11
165.21369234184479
 21
29.47200941057778
 31
0.0
  0
LINE
  5
494A
  8
0
 10
162.6673502691896
 20
29.47200941057778
 30
0.0
 11
165.21369234184499
 21
29.47200941057778
 31
0.0
  0
LINE
  5
494B
  8
0
 10
155.48735026918959
 20
31.002854555791298
 30
0.0
 11
157.92264973081029
 21
31.002854555791298
 31
0.0
  0
LINE
  5
494C
  8
0
 10
159.07735026918959
 20
31.002854555791298
 30
0.0
 11
161.51264973081041
 21
31.002854555791298
 31
0.0
  0
LINE
  5
494D
  8
0
 10
165.68000000000001
 20
32.125467614149343
 30
0.0
 11
165.21369234184499
 21
31.002854555791298
 31
0.0
  0
LINE
  5
494E
  8
0
 10
162.6673502691896
 20
31.002854555791298
 30
0.0
 11
165.21369234184499
 21
31.002854555791298
 31
0.0
  0
LINE
  5
494F
  8
0
 10
151.78630765815501
 20
66.934386271720058
 30
0.0
 11
151.31999999999999
 21
66.657780685295293
 31
0.0
  0
LINE
  5
4950
  8
0
 10
165.68000000000001
 20
66.657780685295293
 30
0.0
 11
165.21369234184499
 21
66.934386271720058
 31
0.0
  0
LINE
  5
4951
  8
0
 10
151.78630765815589
 20
65.009107557714657
 30
0.0
 11
151.78630765815589
 21
66.934386271720058
 31
0.0
  0
LINE
  5
4952
  8
0
 10
151.78630765815501
 20
66.934386271720058
 30
0.0
 11
154.3326497308104
 21
66.934386271720058
 31
0.0
  0
LINE
  5
4953
  8
0
 10
159.07735026918959
 20
66.934386271720058
 30
0.0
 11
161.51264973081041
 21
66.934386271720058
 31
0.0
  0
LINE
  5
4954
  8
0
 10
162.6673502691896
 20
66.934386271720058
 30
0.0
 11
165.21369234184499
 21
66.934386271720058
 31
0.0
  0
LINE
  5
4955
  8
0
 10
165.21369234184411
 20
66.934386271720058
 30
0.0
 11
165.21369234184411
 21
65.009107557714657
 31
0.0
  0
LINE
  5
4956
  8
0
 10
151.31999999999999
 20
63.964613973390946
 30
0.0
 11
151.78630765815501
 21
65.009107557714657
 31
0.0
  0
LINE
  5
4957
  8
0
 10
151.78630765815501
 20
65.009107557714657
 30
0.0
 11
154.3326497308104
 21
65.009107557714657
 31
0.0
  0
LINE
  5
4958
  8
0
 10
159.07735026918959
 20
65.009107557714657
 30
0.0
 11
161.51264973081041
 21
65.009107557714657
 31
0.0
  0
LINE
  5
4959
  8
0
 10
162.6673502691896
 20
65.009107557714657
 30
0.0
 11
165.21369234184499
 21
65.009107557714657
 31
0.0
  0
LINE
  5
495A
  8
0
 10
165.21369234184499
 20
65.009107557714657
 30
0.0
 11
165.68000000000001
 21
63.964613973390946
 31
0.0
  0
LINE
  5
495B
  8
0
 10
151.31999999999999
 20
32.125467614149322
 30
0.0
 11
151.78630765815501
 21
31.768337638203519
 31
0.0
  0
LINE
  5
495C
  8
0
 10
165.21369234184499
 20
31.768337638203519
 30
0.0
 11
165.68000000000001
 21
32.125467614149329
 31
0.0
  0
LINE
  5
495D
  8
0
 10
155.48735026918959
 20
31.768337638203519
 30
0.0
 11
157.92264973081041
 21
31.768337638203519
 31
0.0
  0
LINE
  5
495E
  8
0
 10
151.78630765815501
 20
31.768337638203519
 30
0.0
 11
154.3326497308104
 21
31.768337638203519
 31
0.0
  0
LINE
  5
495F
  8
0
 10
151.78630765815529
 20
31.768337638203519
 30
0.0
 11
151.78630765815529
 21
33.571525033871403
 31
0.0
  0
LINE
  5
4960
  8
0
 10
151.78630765815501
 20
33.571525033871403
 30
0.0
 11
154.3326497308104
 21
33.571525033871403
 31
0.0
  0
LINE
  5
4961
  8
0
 10
159.07735026918959
 20
31.768337638203519
 30
0.0
 11
161.51264973081041
 21
31.768337638203519
 31
0.0
  0
LINE
  5
4962
  8
0
 10
165.21369234184459
 20
33.571525033871403
 30
0.0
 11
165.21369234184459
 21
31.768337638203519
 31
0.0
  0
LINE
  5
4963
  8
0
 10
162.6673502691896
 20
31.768337638203519
 30
0.0
 11
165.21369234184499
 21
31.768337638203519
 31
0.0
  0
LINE
  5
4964
  8
0
 10
155.48735026918959
 20
33.571525033871403
 30
0.0
 11
157.92264973081029
 21
33.571525033871403
 31
0.0
  0
LINE
  5
4965
  8
0
 10
159.07735026918959
 20
33.571525033871403
 30
0.0
 11
161.51264973081041
 21
33.571525033871403
 31
0.0
  0
LINE
  5
4966
  8
0
 10
165.68000000000001
 20
34.647847482586727
 30
0.0
 11
165.21369234184499
 21
33.571525033871403
 31
0.0
  0
LINE
  5
4967
  8
0
 10
162.6673502691896
 20
33.571525033871403
 30
0.0
 11
165.21369234184499
 21
33.571525033871403
 31
0.0
  0
LINE
  5
4968
  8
0
 10
151.78630765815501
 20
64.076180855869978
 30
0.0
 11
151.31999999999999
 21
63.964613973390946
 31
0.0
  0
LINE
  5
4969
  8
0
 10
165.68000000000001
 20
63.964613973390946
 30
0.0
 11
165.21369234184499
 21
64.076180855869978
 31
0.0
  0
LINE
  5
496A
  8
0
 10
151.78630765815629
 20
61.938132693459274
 30
0.0
 11
151.78630765815629
 21
64.076180855869978
 31
0.0
  0
LINE
  5
496B
  8
0
 10
151.78630765815501
 20
64.076180855869978
 30
0.0
 11
154.3326497308104
 21
64.076180855869978
 31
0.0
  0
LINE
  5
496C
  8
0
 10
159.07735026918959
 20
64.076180855869978
 30
0.0
 11
161.51264973081041
 21
64.076180855869978
 31
0.0
  0
LINE
  5
496D
  8
0
 10
162.6673502691896
 20
64.076180855869978
 30
0.0
 11
165.21369234184499
 21
64.076180855869978
 31
0.0
  0
LINE
  5
496E
  8
0
 10
165.21369234184371
 20
64.076180855869978
 30
0.0
 11
165.21369234184371
 21
61.938132693459274
 31
0.0
  0
LINE
  5
496F
  8
0
 10
151.31999999999999
 20
60.973815759311407
 30
0.0
 11
151.78630765815501
 21
61.938132693459274
 31
0.0
  0
LINE
  5
4970
  8
0
 10
151.78630765815501
 20
61.938132693459274
 30
0.0
 11
154.3326497308104
 21
61.938132693459274
 31
0.0
  0
LINE
  5
4971
  8
0
 10
159.07735026918959
 20
61.938132693459274
 30
0.0
 11
161.51264973081041
 21
61.938132693459274
 31
0.0
  0
LINE
  5
4972
  8
0
 10
162.6673502691896
 20
61.938132693459274
 30
0.0
 11
165.21369234184499
 21
61.938132693459274
 31
0.0
  0
LINE
  5
4973
  8
0
 10
165.21369234184499
 20
61.938132693459274
 30
0.0
 11
165.68000000000001
 21
60.973815759311407
 31
0.0
  0
LINE
  5
4974
  8
0
 10
151.31999999999999
 20
34.647847482586712
 30
0.0
 11
151.7863076581549
 21
34.453242096166321
 31
0.0
  0
LINE
  5
4975
  8
0
 10
165.21369234184499
 20
34.453242096166321
 30
0.0
 11
165.68000000000001
 21
34.647847482586712
 31
0.0
  0
LINE
  5
4976
  8
0
 10
155.48735026918951
 20
34.453242096166321
 30
0.0
 11
157.92264973081041
 21
34.453242096166321
 31
0.0
  0
LINE
  5
4977
  8
0
 10
151.7863076581549
 20
34.453242096166321
 30
0.0
 11
154.3326497308104
 21
34.453242096166321
 31
0.0
  0
LINE
  5
4978
  8
0
 10
151.7863076581551
 20
34.453242096166321
 30
0.0
 11
151.7863076581551
 21
36.490339933554083
 31
0.0
  0
LINE
  5
4979
  8
0
 10
151.78630765815501
 20
36.490339933554083
 30
0.0
 11
154.3326497308104
 21
36.490339933554083
 31
0.0
  0
LINE
  5
497A
  8
0
 10
159.07735026918959
 20
34.453242096166321
 30
0.0
 11
161.51264973081041
 21
34.453242096166321
 31
0.0
  0
LINE
  5
497B
  8
0
 10
165.2136923418449
 20
36.490339933554083
 30
0.0
 11
165.2136923418449
 21
34.453242096166321
 31
0.0
  0
LINE
  5
497C
  8
0
 10
162.6673502691896
 20
34.453242096166321
 30
0.0
 11
165.21369234184499
 21
34.453242096166321
 31
0.0
  0
LINE
  5
497D
  8
0
 10
155.48735026918959
 20
36.490339933554083
 30
0.0
 11
157.92264973081029
 21
36.490339933554083
 31
0.0
  0
LINE
  5
497E
  8
0
 10
159.07735026918959
 20
36.490339933554083
 30
0.0
 11
161.51264973081041
 21
36.490339933554083
 31
0.0
  0
LINE
  5
497F
  8
0
 10
165.68000000000001
 20
37.497431828289791
 30
0.0
 11
165.21369234184499
 21
36.490339933554083
 31
0.0
  0
LINE
  5
4980
  8
0
 10
162.6673502691896
 20
36.490339933554083
 30
0.0
 11
165.21369234184499
 21
36.490339933554083
 31
0.0
  0
LINE
  5
4981
  8
0
 10
151.78630765815501
 20
60.917966083441513
 30
0.0
 11
151.31999999999999
 21
60.973815759311407
 31
0.0
  0
LINE
  5
4982
  8
0
 10
151.31999999999999
 20
60.973815759311407
 30
0.0
 11
165.68000000000001
 21
60.973815759311407
 31
0.0
  0
LINE
  5
4983
  8
0
 10
165.68000000000001
 20
60.973815759311407
 30
0.0
 11
165.21369234184499
 21
60.917966083441513
 31
0.0
  0
LINE
  5
4984
  8
0
 10
151.7863076581539
 20
58.612717257234522
 30
0.0
 11
151.7863076581539
 21
60.917966083441513
 31
0.0
  0
LINE
  5
4985
  8
0
 10
151.78630765815501
 20
60.917966083441513
 30
0.0
 11
154.3326497308104
 21
60.917966083441513
 31
0.0
  0
LINE
  5
4986
  8
0
 10
159.07735026918959
 20
60.917966083441513
 30
0.0
 11
161.51264973081041
 21
60.917966083441513
 31
0.0
  0
LINE
  5
4987
  8
0
 10
162.6673502691896
 20
60.917966083441513
 30
0.0
 11
165.21369234184499
 21
60.917966083441513
 31
0.0
  0
LINE
  5
4988
  8
0
 10
165.2136923418461
 20
60.917966083441513
 30
0.0
 11
165.2136923418461
 21
58.612717257234522
 31
0.0
  0
LINE
  5
4989
  8
0
 10
151.31999999999999
 20
57.749129714514787
 30
0.0
 11
151.78630765815501
 21
58.612717257234522
 31
0.0
  0
LINE
  5
498A
  8
0
 10
151.78630765815501
 20
58.612717257234522
 30
0.0
 11
154.3326497308104
 21
58.612717257234522
 31
0.0
  0
LINE
  5
498B
  8
0
 10
159.07735026918959
 20
58.612717257234522
 30
0.0
 11
161.51264973081041
 21
58.612717257234522
 31
0.0
  0
LINE
  5
498C
  8
0
 10
162.6673502691896
 20
58.612717257234522
 30
0.0
 11
165.21369234184499
 21
58.612717257234522
 31
0.0
  0
LINE
  5
498D
  8
0
 10
165.21369234184499
 20
58.612717257234522
 30
0.0
 11
165.68000000000001
 21
57.749129714514787
 31
0.0
  0
LINE
  5
498E
  8
0
 10
151.31999999999999
 20
37.497431828289791
 30
0.0
 11
151.7863076581549
 21
37.469498707342161
 31
0.0
  0
LINE
  5
498F
  8
0
 10
165.21369234184499
 20
37.469498707342161
 30
0.0
 11
165.68000000000001
 21
37.497431828289791
 31
0.0
  0
LINE
  5
4990
  8
0
 10
155.48735026918951
 20
37.469498707342161
 30
0.0
 11
157.92264973081041
 21
37.469498707342161
 31
0.0
  0
LINE
  5
4991
  8
0
 10
151.7863076581549
 20
37.469498707342161
 30
0.0
 11
154.3326497308104
 21
37.469498707342161
 31
0.0
  0
LINE
  5
4992
  8
0
 10
151.7863076581549
 20
37.469498707342161
 30
0.0
 11
151.7863076581549
 21
39.697089782753757
 31
0.0
  0
LINE
  5
4993
  8
0
 10
151.78630765815501
 20
39.697089782753757
 30
0.0
 11
154.3326497308104
 21
39.697089782753757
 31
0.0
  0
LINE
  5
4994
  8
0
 10
159.07735026918959
 20
37.469498707342161
 30
0.0
 11
161.51264973081041
 21
37.469498707342161
 31
0.0
  0
LINE
  5
4995
  8
0
 10
165.21369234184499
 20
39.697089782753757
 30
0.0
 11
165.21369234184499
 21
37.469498707342161
 31
0.0
  0
LINE
  5
4996
  8
0
 10
162.6673502691896
 20
37.469498707342161
 30
0.0
 11
165.21369234184499
 21
37.469498707342161
 31
0.0
  0
LINE
  5
4997
  8
0
 10
155.48735026918959
 20
39.697089782753757
 30
0.0
 11
157.92264973081029
 21
39.697089782753757
 31
0.0
  0
LINE
  5
4998
  8
0
 10
159.07735026918959
 20
39.697089782753757
 30
0.0
 11
161.51264973081041
 21
39.697089782753757
 31
0.0
  0
LINE
  5
4999
  8
0
 10
165.68000000000001
 20
40.613486708236358
 30
0.0
 11
165.21369234184499
 21
39.697089782753757
 31
0.0
  0
LINE
  5
499A
  8
0
 10
162.6673502691896
 20
39.697089782753757
 30
0.0
 11
165.21369234184499
 21
39.697089782753757
 31
0.0
  0
LINE
  5
499B
  8
0
 10
151.78630765815501
 20
57.527053819173723
 30
0.0
 11
151.31999999999999
 21
57.749129714514787
 31
0.0
  0
LINE
  5
499C
  8
0
 10
151.31999999999999
 20
57.749129714514787
 30
0.0
 11
165.68000000000001
 21
57.749129714514787
 31
0.0
  0
LINE
  5
499D
  8
0
 10
165.68000000000001
 20
57.749129714514787
 30
0.0
 11
165.21369234184499
 21
57.527053819173723
 31
0.0
  0
LINE
  5
499E
  8
0
 10
151.7863076581564
 20
55.103736705642767
 30
0.0
 11
151.7863076581564
 21
57.527053819173723
 31
0.0
  0
LINE
  5
499F
  8
0
 10
151.78630765815501
 20
57.527053819173723
 30
0.0
 11
154.3326497308104
 21
57.527053819173723
 31
0.0
  0
LINE
  5
49A0
  8
0
 10
159.07735026918959
 20
57.527053819173723
 30
0.0
 11
161.51264973081041
 21
57.527053819173723
 31
0.0
  0
LINE
  5
49A1
  8
0
 10
162.6673502691896
 20
57.527053819173723
 30
0.0
 11
165.21369234184499
 21
57.527053819173723
 31
0.0
  0
LINE
  5
49A2
  8
0
 10
165.21369234184351
 20
57.527053819173723
 30
0.0
 11
165.21369234184351
 21
55.103736705642767
 31
0.0
  0
LINE
  5
49A3
  8
0
 10
151.31999999999999
 20
54.359284423506551
 30
0.0
 11
151.78630765815501
 21
55.103736705642767
 31
0.0
  0
LINE
  5
49A4
  8
0
 10
151.78630765815501
 20
55.103736705642767
 30
0.0
 11
154.3326497308104
 21
55.103736705642767
 31
0.0
  0
LINE
  5
49A5
  8
0
 10
159.07735026918959
 20
55.103736705642767
 30
0.0
 11
161.51264973081041
 21
55.103736705642767
 31
0.0
  0
LINE
  5
49A6
  8
0
 10
162.6673502691896
 20
55.103736705642767
 30
0.0
 11
165.21369234184499
 21
55.103736705642767
 31
0.0
  0
LINE
  5
49A7
  8
0
 10
165.21369234184499
 20
55.103736705642767
 30
0.0
 11
165.68000000000001
 21
54.359284423506551
 31
0.0
  0
LINE
  5
49A8
  8
0
 10
151.31999999999999
 20
40.61348670823633
 30
0.0
 11
151.78630765815501
 21
40.752821198738367
 31
0.0
  0
LINE
  5
49A9
  8
0
 10
165.21369234184499
 20
40.752821198738367
 30
0.0
 11
165.68000000000001
 21
40.613486708236323
 31
0.0
  0
LINE
  5
49AA
  8
0
 10
151.31999999999999
 20
40.61348670823633
 30
0.0
 11
165.68000000000001
 21
40.61348670823633
 31
0.0
  0
LINE
  5
49AB
  8
0
 10
155.48735026918959
 20
40.752821198738367
 30
0.0
 11
157.92264973081029
 21
40.752821198738367
 31
0.0
  0
LINE
  5
49AC
  8
0
 10
151.78630765815501
 20
40.752821198738367
 30
0.0
 11
154.3326497308104
 21
40.752821198738367
 31
0.0
  0
LINE
  5
49AD
  8
0
 10
151.7863076581574
 20
40.752821198738367
 30
0.0
 11
151.7863076581574
 21
43.1234282758342
 31
0.0
  0
LINE
  5
49AE
  8
0
 10
151.78630765815501
 20
43.1234282758342
 30
0.0
 11
154.3326497308104
 21
43.1234282758342
 31
0.0
  0
LINE
  5
49AF
  8
0
 10
159.07735026918959
 20
40.752821198738367
 30
0.0
 11
161.51264973081041
 21
40.752821198738367
 31
0.0
  0
LINE
  5
49B0
  8
0
 10
165.2136923418426
 20
43.1234282758342
 30
0.0
 11
165.2136923418426
 21
40.752821198738367
 31
0.0
  0
LINE
  5
49B1
  8
0
 10
162.6673502691896
 20
40.752821198738367
 30
0.0
 11
165.21369234184499
 21
40.752821198738367
 31
0.0
  0
LINE
  5
49B2
  8
0
 10
155.48735026918959
 20
43.1234282758342
 30
0.0
 11
157.92264973081029
 21
43.1234282758342
 31
0.0
  0
LINE
  5
49B3
  8
0
 10
159.07735026918959
 20
43.1234282758342
 30
0.0
 11
161.51264973081041
 21
43.1234282758342
 31
0.0
  0
LINE
  5
49B4
  8
0
 10
165.68000000000001
 20
43.929598822599772
 30
0.0
 11
165.21369234184499
 21
43.1234282758342
 31
0.0
  0
LINE
  5
49B5
  8
0
 10
162.6673502691896
 20
43.1234282758342
 30
0.0
 11
165.21369234184499
 21
43.1234282758342
 31
0.0
  0
LINE
  5
49B6
  8
0
 10
151.78630765815501
 20
53.975715470846382
 30
0.0
 11
151.31999999999999
 21
54.359284423506573
 31
0.0
  0
LINE
  5
49B7
  8
0
 10
151.31999999999999
 20
54.359284423506573
 30
0.0
 11
165.68000000000001
 21
54.359284423506573
 31
0.0
  0
LINE
  5
49B8
  8
0
 10
165.68000000000001
 20
54.359284423506573
 30
0.0
 11
165.21369234184499
 21
53.975715470846382
 31
0.0
  0
LINE
  5
49B9
  8
0
 10
151.7863076581549
 20
51.485978867023867
 30
0.0
 11
151.7863076581549
 21
53.975715470846382
 31
0.0
  0
LINE
  5
49BA
  8
0
 10
151.78630765815501
 20
53.975715470846382
 30
0.0
 11
154.3326497308104
 21
53.975715470846382
 31
0.0
  0
LINE
  5
49BB
  8
0
 10
159.07735026918959
 20
53.975715470846382
 30
0.0
 11
161.51264973081041
 21
53.975715470846382
 31
0.0
  0
LINE
  5
49BC
  8
0
 10
162.6673502691896
 20
53.975715470846382
 30
0.0
 11
165.21369234184499
 21
53.975715470846382
 31
0.0
  0
LINE
  5
49BD
  8
0
 10
165.2136923418451
 20
53.975715470846382
 30
0.0
 11
165.2136923418451
 21
51.485978867023867
 31
0.0
  0
LINE
  5
49BE
  8
0
 10
151.31999999999999
 20
50.876528553383899
 30
0.0
 11
151.78630765815501
 21
51.485978867023867
 31
0.0
  0
LINE
  5
49BF
  8
0
 10
151.78630765815501
 20
51.485978867023867
 30
0.0
 11
154.3326497308104
 21
51.485978867023867
 31
0.0
  0
LINE
  5
49C0
  8
0
 10
159.07735026918959
 20
51.485978867023867
 30
0.0
 11
161.51264973081041
 21
51.485978867023867
 31
0.0
  0
LINE
  5
49C1
  8
0
 10
162.6673502691896
 20
51.485978867023867
 30
0.0
 11
165.21369234184499
 21
51.485978867023867
 31
0.0
  0
LINE
  5
49C2
  8
0
 10
165.21369234184499
 20
51.485978867023867
 30
0.0
 11
165.68000000000001
 21
50.876528553383871
 31
0.0
  0
LINE
  5
49C3
  8
0
 10
151.31999999999999
 20
43.92959882259975
 30
0.0
 11
151.78630765815501
 21
44.23323125179202
 31
0.0
  0
LINE
  5
49C4
  8
0
 10
165.21369234184499
 20
44.23323125179202
 30
0.0
 11
165.68000000000001
 21
43.92959882259975
 31
0.0
  0
LINE
  5
49C5
  8
0
 10
151.31999999999999
 20
43.92959882259975
 30
0.0
 11
165.68000000000001
 21
43.92959882259975
 31
0.0
  0
LINE
  5
49C6
  8
0
 10
155.48735026918959
 20
44.23323125179202
 30
0.0
 11
157.92264973081041
 21
44.23323125179202
 31
0.0
  0
LINE
  5
49C7
  8
0
 10
151.78630765815501
 20
44.23323125179202
 30
0.0
 11
154.3326497308104
 21
44.23323125179202
 31
0.0
  0
LINE
  5
49C8
  8
0
 10
151.78630765815379
 20
44.23323125179202
 30
0.0
 11
151.78630765815379
 21
46.696328956453719
 31
0.0
  0
LINE
  5
49C9
  8
0
 10
151.78630765815501
 20
46.696328956453719
 30
0.0
 11
154.3326497308104
 21
46.696328956453719
 31
0.0
  0
LINE
  5
49CA
  8
0
 10
159.07735026918959
 20
44.23323125179202
 30
0.0
 11
161.51264973081041
 21
44.23323125179202
 31
0.0
  0
LINE
  5
49CB
  8
0
 10
165.21369234184621
 20
46.696328956453719
 30
0.0
 11
165.21369234184621
 21
44.23323125179202
 31
0.0
  0
LINE
  5
49CC
  8
0
 10
162.6673502691896
 20
44.23323125179202
 30
0.0
 11
165.21369234184499
 21
44.23323125179202
 31
0.0
  0
LINE
  5
49CD
  8
0
 10
155.48735026918959
 20
46.696328956453719
 30
0.0
 11
157.92264973081029
 21
46.696328956453719
 31
0.0
  0
LINE
  5
49CE
  8
0
 10
159.07735026918959
 20
46.696328956453719
 30
0.0
 11
161.51264973081041
 21
46.696328956453719
 31
0.0
  0
LINE
  5
49CF
  8
0
 10
165.68000000000001
 20
47.375090998931107
 30
0.0
 11
165.21369234184499
 21
46.696328956453733
 31
0.0
  0
LINE
  5
49D0
  8
0
 10
162.6673502691896
 20
46.696328956453719
 30
0.0
 11
165.21369234184499
 21
46.696328956453719
 31
0.0
  0
LINE
  5
49D1
  8
0
 10
151.78630765815501
 20
50.339641649697228
 30
0.0
 11
151.31999999999999
 21
50.876528553383899
 31
0.0
  0
LINE
  5
49D2
  8
0
 10
151.31999999999999
 20
50.876528553383899
 30
0.0
 11
165.68000000000001
 21
50.876528553383899
 31
0.0
  0
LINE
  5
49D3
  8
0
 10
165.68000000000001
 20
50.876528553383899
 30
0.0
 11
165.21369234184499
 21
50.339641649697228
 31
0.0
  0
LINE
  5
49D4
  8
0
 10
151.78630765815549
 20
47.836549968736882
 30
0.0
 11
151.78630765815549
 21
50.339641649697228
 31
0.0
  0
LINE
  5
49D5
  8
0
 10
151.78630765815501
 20
50.339641649697228
 30
0.0
 11
154.3326497308104
 21
50.339641649697228
 31
0.0
  0
LINE
  5
49D6
  8
0
 10
159.07735026918959
 20
50.339641649697228
 30
0.0
 11
161.51264973081041
 21
50.339641649697228
 31
0.0
  0
LINE
  5
49D7
  8
0
 10
162.6673502691896
 20
50.339641649697228
 30
0.0
 11
165.21369234184499
 21
50.339641649697228
 31
0.0
  0
LINE
  5
49D8
  8
0
 10
165.21369234184439
 20
50.339641649697228
 30
0.0
 11
165.21369234184439
 21
47.836549968736882
 31
0.0
  0
LINE
  5
49D9
  8
0
 10
155.48735026918959
 20
47.836549968736882
 30
0.0
 11
157.92264973081041
 21
47.836549968736882
 31
0.0
  0
LINE
  5
49DA
  8
0
 10
151.31999999999999
 20
47.375090998931107
 30
0.0
 11
151.78630765815501
 21
47.836549968736882
 31
0.0
  0
LINE
  5
49DB
  8
0
 10
151.78630765815501
 20
47.836549968736882
 30
0.0
 11
154.3326497308104
 21
47.836549968736882
 31
0.0
  0
LINE
  5
49DC
  8
0
 10
159.07735026918959
 20
47.836549968736882
 30
0.0
 11
161.51264973081041
 21
47.836549968736882
 31
0.0
  0
LINE
  5
49DD
  8
0
 10
162.6673502691896
 20
47.836549968736882
 30
0.0
 11
165.21369234184499
 21
47.836549968736882
 31
0.0
  0
LINE
  5
49DE
  8
0
 10
165.21369234184499
 20
47.836549968736882
 30
0.0
 11
165.68000000000001
 21
47.375090998931107
 31
0.0
  0
LINE
  5
49DF
  8
0
 10
151.31999999999999
 20
47.375090998931093
 30
0.0
 11
165.68000000000001
 21
47.375090998931093
 31
0.0
  0
LINE
  5
49E0
  8
0
 10
161.5126497308101
 20
74.968611112899481
 30
0.0
 11
161.5126497308101
 21
75.000000000000085
 31
0.0
  0
LINE
  5
49E1
  8
0
 10
162.09
 20
73.935974807925305
 30
0.0
 11
161.51264973081041
 21
74.968611112899481
 31
0.0
  0
LINE
  5
49E2
  8
0
 10
161.51264973081251
 20
74.520181624853834
 30
0.0
 11
161.51264973081251
 21
74.884878004333387
 31
0.0
  0
LINE
  5
49E3
  8
0
 10
161.51264973081041
 20
74.884878004333387
 30
0.0
 11
162.08999999999989
 21
73.935974807925305
 31
0.0
  0
LINE
  5
49E4
  8
0
 10
162.08999999999989
 20
73.425821061342305
 30
0.0
 11
161.51264973081041
 21
74.520181624853834
 31
0.0
  0
LINE
  5
49E5
  8
0
 10
161.51264973080899
 20
73.549147036193133
 30
0.0
 11
161.51264973080899
 21
74.270766924991364
 31
0.0
  0
LINE
  5
49E6
  8
0
 10
161.51264973081041
 20
74.270766924991364
 30
0.0
 11
162.08999999999989
 21
73.425821061342333
 31
0.0
  0
LINE
  5
49E7
  8
0
 10
162.08999999999989
 20
72.416386609581224
 30
0.0
 11
161.51264973081041
 21
73.549147036193133
 31
0.0
  0
LINE
  5
49E8
  8
0
 10
161.512649730812
 20
72.076203263312863
 30
0.0
 11
161.512649730812
 21
73.139366586340444
 31
0.0
  0
LINE
  5
49E9
  8
0
 10
161.51264973081041
 20
73.139366586340444
 30
0.0
 11
162.08999999999989
 21
72.416386609581224
 31
0.0
  0
LINE
  5
49EA
  8
0
 10
162.08999999999989
 20
70.929185795451446
 30
0.0
 11
161.51264973081041
 21
72.076203263312863
 31
0.0
  0
LINE
  5
49EB
  8
0
 10
161.51264973081121
 20
70.132743545480196
 30
0.0
 11
161.51264973081121
 21
71.514790822318133
 31
0.0
  0
LINE
  5
49EC
  8
0
 10
161.51264973081041
 20
71.514790822318133
 30
0.0
 11
162.08999999999989
 21
70.929185795451446
 31
0.0
  0
LINE
  5
49ED
  8
0
 10
162.09
 20
68.995915722302158
 30
0.0
 11
161.51264973081041
 21
70.132743545480196
 31
0.0
  0
LINE
  5
49EE
  8
0
 10
161.51264973081069
 20
67.760189352442779
 30
0.0
 11
161.51264973081069
 21
69.431664644826895
 31
0.0
  0
LINE
  5
49EF
  8
0
 10
161.51264973081041
 20
69.431664644826895
 30
0.0
 11
162.08999999999989
 21
68.995915722302186
 31
0.0
  0
LINE
  5
49F0
  8
0
 10
162.08999999999989
 20
66.657780685295279
 30
0.0
 11
161.51264973081041
 21
67.760189352442779
 31
0.0
  0
LINE
  5
49F1
  8
0
 10
161.51264973080919
 20
65.009107557714657
 30
0.0
 11
161.51264973080919
 21
66.934386271720058
 31
0.0
  0
LINE
  5
49F2
  8
0
 10
161.51264973081041
 20
66.934386271720058
 30
0.0
 11
162.08999999999989
 21
66.657780685295293
 31
0.0
  0
LINE
  5
49F3
  8
0
 10
162.08999999999989
 20
63.964613973390918
 30
0.0
 11
161.51264973081041
 21
65.009107557714657
 31
0.0
  0
LINE
  5
49F4
  8
0
 10
161.5126497308087
 20
61.938132693459274
 30
0.0
 11
161.5126497308087
 21
64.076180855869978
 31
0.0
  0
LINE
  5
49F5
  8
0
 10
161.51264973081041
 20
64.076180855869978
 30
0.0
 11
162.08999999999989
 21
63.964613973390946
 31
0.0
  0
LINE
  5
49F6
  8
0
 10
162.08999999999989
 20
60.973815759311407
 30
0.0
 11
161.51264973081041
 21
61.938132693459274
 31
0.0
  0
LINE
  5
49F7
  8
0
 10
161.51264973081169
 20
58.612717257234522
 30
0.0
 11
161.51264973081169
 21
60.917966083441513
 31
0.0
  0
LINE
  5
49F8
  8
0
 10
161.51264973081041
 20
60.917966083441513
 30
0.0
 11
162.09
 21
60.973815759311407
 31
0.0
  0
LINE
  5
49F9
  8
0
 10
162.08999999999989
 20
57.749129714514787
 30
0.0
 11
161.51264973081041
 21
58.612717257234522
 31
0.0
  0
LINE
  5
49FA
  8
0
 10
161.51264973080859
 20
55.103736705642767
 30
0.0
 11
161.51264973080859
 21
57.527053819173723
 31
0.0
  0
LINE
  5
49FB
  8
0
 10
161.51264973081041
 20
57.527053819173723
 30
0.0
 11
162.08999999999989
 21
57.749129714514787
 31
0.0
  0
LINE
  5
49FC
  8
0
 10
162.08999999999989
 20
54.359284423506551
 30
0.0
 11
161.51264973081041
 21
55.103736705642767
 31
0.0
  0
LINE
  5
49FD
  8
0
 10
161.51264973081049
 20
51.485978867023867
 30
0.0
 11
161.51264973081049
 21
53.975715470846382
 31
0.0
  0
LINE
  5
49FE
  8
0
 10
161.51264973081041
 20
53.975715470846382
 30
0.0
 11
162.09
 21
54.359284423506573
 31
0.0
  0
LINE
  5
49FF
  8
0
 10
162.08999999999989
 20
50.876528553383871
 30
0.0
 11
161.51264973081041
 21
51.485978867023867
 31
0.0
  0
LINE
  5
4A00
  8
0
 10
161.51264973080961
 20
47.836549968736882
 30
0.0
 11
161.51264973080961
 21
50.339641649697228
 31
0.0
  0
LINE
  5
4A01
  8
0
 10
161.51264973081041
 20
50.339641649697228
 30
0.0
 11
162.08999999999989
 21
50.876528553383899
 31
0.0
  0
LINE
  5
4A02
  8
0
 10
162.08999999999989
 20
47.375090998931107
 30
0.0
 11
161.51264973081041
 21
47.836549968736882
 31
0.0
  0
LINE
  5
4A03
  8
0
 10
162.08999999999989
 20
43.929598822599743
 30
0.0
 11
161.51264973081041
 21
44.23323125179202
 31
0.0
  0
LINE
  5
4A04
  8
0
 10
161.5126497308118
 20
44.23323125179202
 30
0.0
 11
161.5126497308118
 21
46.696328956453719
 31
0.0
  0
LINE
  5
4A05
  8
0
 10
161.51264973081041
 20
46.696328956453719
 30
0.0
 11
162.08999999999989
 21
47.375090998931107
 31
0.0
  0
LINE
  5
4A06
  8
0
 10
162.08999999999989
 20
40.613486708236323
 30
0.0
 11
161.51264973081041
 21
40.752821198738367
 31
0.0
  0
LINE
  5
4A07
  8
0
 10
161.51264973080731
 20
40.752821198738367
 30
0.0
 11
161.51264973080731
 21
43.1234282758342
 31
0.0
  0
LINE
  5
4A08
  8
0
 10
161.51264973081041
 20
43.1234282758342
 30
0.0
 11
162.08999999999989
 21
43.929598822599772
 31
0.0
  0
LINE
  5
4A09
  8
0
 10
162.08999999999989
 20
37.497431828289791
 30
0.0
 11
161.51264973081041
 21
37.469498707342161
 31
0.0
  0
LINE
  5
4A0A
  8
0
 10
161.51264973081041
 20
37.469498707342161
 30
0.0
 11
161.51264973081041
 21
39.697089782753757
 31
0.0
  0
LINE
  5
4A0B
  8
0
 10
161.51264973081041
 20
39.697089782753757
 30
0.0
 11
162.08999999999989
 21
40.613486708236358
 31
0.0
  0
LINE
  5
4A0C
  8
0
 10
162.08999999999989
 20
34.647847482586712
 30
0.0
 11
161.51264973081041
 21
34.453242096166321
 31
0.0
  0
LINE
  5
4A0D
  8
0
 10
161.51264973081021
 20
34.453242096166321
 30
0.0
 11
161.51264973081021
 21
36.490339933554083
 31
0.0
  0
LINE
  5
4A0E
  8
0
 10
161.51264973081041
 20
36.490339933554083
 30
0.0
 11
162.08999999999989
 21
37.497431828289791
 31
0.0
  0
LINE
  5
4A0F
  8
0
 10
162.08999999999989
 20
32.125467614149329
 30
0.0
 11
161.51264973081041
 21
31.768337638203519
 31
0.0
  0
LINE
  5
4A10
  8
0
 10
161.5126497308099
 20
31.768337638203519
 30
0.0
 11
161.5126497308099
 21
33.571525033871403
 31
0.0
  0
LINE
  5
4A11
  8
0
 10
161.51264973081041
 20
33.571525033871403
 30
0.0
 11
162.08999999999989
 21
34.647847482586727
 31
0.0
  0
LINE
  5
4A12
  8
0
 10
162.08999999999989
 20
29.98405237064302
 30
0.0
 11
161.51264973081041
 21
29.47200941057778
 31
0.0
  0
LINE
  5
4A13
  8
0
 10
161.5126497308101
 20
29.47200941057778
 30
0.0
 11
161.5126497308101
 21
31.002854555791298
 31
0.0
  0
LINE
  5
4A14
  8
0
 10
161.51264973081041
 20
31.002854555791298
 30
0.0
 11
162.08999999999989
 21
32.125467614149343
 31
0.0
  0
LINE
  5
4A15
  8
0
 10
162.08999999999989
 20
28.269242300164581
 30
0.0
 11
161.51264973081041
 21
27.613199662690249
 31
0.0
  0
LINE
  5
4A16
  8
0
 10
161.5126497308124
 20
27.613199662690249
 30
0.0
 11
161.5126497308124
 21
28.839075250956281
 31
0.0
  0
LINE
  5
4A17
  8
0
 10
161.51264973081041
 20
28.839075250956281
 30
0.0
 11
162.08999999999989
 21
29.984052370643042
 31
0.0
  0
LINE
  5
4A18
  8
0
 10
162.08999999999989
 20
27.017585602198348
 30
0.0
 11
161.51264973081041
 21
26.231525697144079
 31
0.0
  0
LINE
  5
4A19
  8
0
 10
161.5126497308095
 20
26.231525697144079
 30
0.0
 11
161.5126497308095
 21
27.126304318602951
 31
0.0
  0
LINE
  5
4A1A
  8
0
 10
161.51264973081041
 20
27.126304318602951
 30
0.0
 11
162.08999999999989
 21
28.269242300164588
 31
0.0
  0
LINE
  5
4A1B
  8
0
 10
162.08999999999989
 20
26.255759166197471
 30
0.0
 11
161.51264973081041
 21
25.356435495721481
 31
0.0
  0
LINE
  5
4A1C
  8
0
 10
161.5126497308124
 20
25.356435495721481
 30
0.0
 11
161.5126497308124
 21
25.90104649752681
 31
0.0
  0
LINE
  5
4A1D
  8
0
 10
161.51264973081041
 20
25.90104649752681
 30
0.0
 11
162.08999999999989
 21
27.01758560219837
 31
0.0
  0
LINE
  5
4A1E
  8
0
 10
162.08999999999989
 20
26.000000000000099
 30
0.0
 11
161.51264973081041
 21
25.006580086777522
 31
0.0
  0
LINE
  5
4A1F
  8
0
 10
161.51264973081069
 20
25.006580086777522
 30
0.0
 11
161.51264973081069
 21
25.189416030952451
 31
0.0
  0
LINE
  5
4A20
  8
0
 10
161.51264973081041
 20
25.189416030952451
 30
0.0
 11
162.08999999999989
 21
26.255759166197471
 31
0.0
  0
LINE
  5
4A21
  8
0
 10
162.6673502691892
 20
25.189416030952451
 30
0.0
 11
162.6673502691892
 21
25.006580086777522
 31
0.0
  0
LINE
  5
4A22
  8
0
 10
162.6673502691896
 20
25.006580086777522
 30
0.0
 11
162.08999999999989
 21
26.000000000000099
 31
0.0
  0
LINE
  5
4A23
  8
0
 10
162.08999999999989
 20
26.255759166197471
 30
0.0
 11
162.6673502691896
 21
25.189416030952451
 31
0.0
  0
LINE
  5
4A24
  8
0
 10
162.66735026918761
 20
25.90104649752681
 30
0.0
 11
162.66735026918761
 21
25.356435495721481
 31
0.0
  0
LINE
  5
4A25
  8
0
 10
162.6673502691896
 20
25.356435495721481
 30
0.0
 11
162.08999999999989
 21
26.255759166197471
 31
0.0
  0
LINE
  5
4A26
  8
0
 10
162.08999999999989
 20
27.01758560219837
 30
0.0
 11
162.6673502691896
 21
25.90104649752681
 31
0.0
  0
LINE
  5
4A27
  8
0
 10
162.66735026919051
 20
27.126304318602951
 30
0.0
 11
162.66735026919051
 21
26.231525697144079
 31
0.0
  0
LINE
  5
4A28
  8
0
 10
162.6673502691896
 20
26.231525697144079
 30
0.0
 11
162.08999999999989
 21
27.017585602198348
 31
0.0
  0
LINE
  5
4A29
  8
0
 10
162.08999999999989
 20
28.269242300164588
 30
0.0
 11
162.6673502691896
 21
27.126304318602951
 31
0.0
  0
LINE
  5
4A2A
  8
0
 10
162.66735026918761
 20
28.839075250956281
 30
0.0
 11
162.66735026918761
 21
27.613199662690249
 31
0.0
  0
LINE
  5
4A2B
  8
0
 10
162.6673502691896
 20
27.613199662690249
 30
0.0
 11
162.08999999999989
 21
28.269242300164581
 31
0.0
  0
LINE
  5
4A2C
  8
0
 10
162.08999999999989
 20
29.984052370643042
 30
0.0
 11
162.6673502691896
 21
28.839075250956281
 31
0.0
  0
LINE
  5
4A2D
  8
0
 10
162.66735026918991
 20
31.002854555791298
 30
0.0
 11
162.66735026918991
 21
29.47200941057778
 31
0.0
  0
LINE
  5
4A2E
  8
0
 10
162.6673502691896
 20
29.47200941057778
 30
0.0
 11
162.08999999999989
 21
29.98405237064302
 31
0.0
  0
LINE
  5
4A2F
  8
0
 10
162.08999999999989
 20
32.125467614149343
 30
0.0
 11
162.6673502691896
 21
31.002854555791298
 31
0.0
  0
LINE
  5
4A30
  8
0
 10
162.66735026919
 20
33.571525033871403
 30
0.0
 11
162.66735026919
 21
31.768337638203519
 31
0.0
  0
LINE
  5
4A31
  8
0
 10
162.6673502691896
 20
31.768337638203519
 30
0.0
 11
162.08999999999989
 21
32.125467614149329
 31
0.0
  0
LINE
  5
4A32
  8
0
 10
162.08999999999989
 20
34.647847482586727
 30
0.0
 11
162.6673502691896
 21
33.571525033871403
 31
0.0
  0
LINE
  5
4A33
  8
0
 10
162.6673502691898
 20
36.490339933554083
 30
0.0
 11
162.6673502691898
 21
34.453242096166321
 31
0.0
  0
LINE
  5
4A34
  8
0
 10
162.6673502691896
 20
34.453242096166321
 30
0.0
 11
162.08999999999989
 21
34.647847482586712
 31
0.0
  0
LINE
  5
4A35
  8
0
 10
162.08999999999989
 20
37.497431828289791
 30
0.0
 11
162.6673502691896
 21
36.490339933554083
 31
0.0
  0
LINE
  5
4A36
  8
0
 10
162.66735026918951
 20
39.697089782753757
 30
0.0
 11
162.66735026918951
 21
37.469498707342161
 31
0.0
  0
LINE
  5
4A37
  8
0
 10
162.6673502691896
 20
37.46949870734214
 30
0.0
 11
162.08999999999989
 21
37.497431828289791
 31
0.0
  0
LINE
  5
4A38
  8
0
 10
162.08999999999989
 20
40.613486708236358
 30
0.0
 11
162.6673502691896
 21
39.697089782753757
 31
0.0
  0
LINE
  5
4A39
  8
0
 10
162.66735026919261
 20
43.1234282758342
 30
0.0
 11
162.66735026919261
 21
40.752821198738367
 31
0.0
  0
LINE
  5
4A3A
  8
0
 10
162.6673502691896
 20
40.752821198738367
 30
0.0
 11
162.08999999999989
 21
40.613486708236323
 31
0.0
  0
LINE
  5
4A3B
  8
0
 10
162.08999999999989
 20
43.929598822599772
 30
0.0
 11
162.6673502691896
 21
43.1234282758342
 31
0.0
  0
LINE
  5
4A3C
  8
0
 10
162.66735026918809
 20
46.696328956453719
 30
0.0
 11
162.66735026918809
 21
44.23323125179202
 31
0.0
  0
LINE
  5
4A3D
  8
0
 10
162.6673502691896
 20
44.23323125179202
 30
0.0
 11
162.08999999999989
 21
43.929598822599743
 31
0.0
  0
LINE
  5
4A3E
  8
0
 10
162.08999999999989
 20
26.000000000000099
 30
0.0
 11
162.08999999999989
 21
74.000000000000085
 31
0.0
  0
LINE
  5
4A3F
  8
0
 10
162.08999999999989
 20
47.375090998931107
 30
0.0
 11
162.6673502691896
 21
46.696328956453719
 31
0.0
  0
LINE
  5
4A40
  8
0
 10
162.08999999999989
 20
50.876528553383899
 30
0.0
 11
162.6673502691896
 21
50.339641649697228
 31
0.0
  0
LINE
  5
4A41
  8
0
 10
162.66735026919031
 20
50.339641649697228
 30
0.0
 11
162.66735026919031
 21
47.836549968736882
 31
0.0
  0
LINE
  5
4A42
  8
0
 10
162.6673502691896
 20
47.836549968736882
 30
0.0
 11
162.08999999999989
 21
47.375090998931107
 31
0.0
  0
LINE
  5
4A43
  8
0
 10
162.09
 20
54.359284423506573
 30
0.0
 11
162.6673502691896
 21
53.975715470846382
 31
0.0
  0
LINE
  5
4A44
  8
0
 10
162.66735026918951
 20
53.975715470846382
 30
0.0
 11
162.66735026918951
 21
51.485978867023867
 31
0.0
  0
LINE
  5
4A45
  8
0
 10
162.6673502691896
 20
51.485978867023867
 30
0.0
 11
162.08999999999989
 21
50.876528553383871
 31
0.0
  0
LINE
  5
4A46
  8
0
 10
162.08999999999989
 20
57.749129714514787
 30
0.0
 11
162.6673502691896
 21
57.527053819173723
 31
0.0
  0
LINE
  5
4A47
  8
0
 10
162.66735026919139
 20
57.527053819173723
 30
0.0
 11
162.66735026919139
 21
55.103736705642767
 31
0.0
  0
LINE
  5
4A48
  8
0
 10
162.6673502691896
 20
55.103736705642767
 30
0.0
 11
162.08999999999989
 21
54.359284423506551
 31
0.0
  0
LINE
  5
4A49
  8
0
 10
162.09
 20
60.973815759311407
 30
0.0
 11
162.6673502691896
 21
60.917966083441513
 31
0.0
  0
LINE
  5
4A4A
  8
0
 10
162.6673502691882
 20
60.917966083441513
 30
0.0
 11
162.6673502691882
 21
58.612717257234522
 31
0.0
  0
LINE
  5
4A4B
  8
0
 10
162.6673502691896
 20
58.612717257234522
 30
0.0
 11
162.08999999999989
 21
57.749129714514787
 31
0.0
  0
LINE
  5
4A4C
  8
0
 10
162.08999999999989
 20
63.964613973390946
 30
0.0
 11
162.6673502691896
 21
64.076180855869978
 31
0.0
  0
LINE
  5
4A4D
  8
0
 10
162.6673502691913
 20
64.076180855869978
 30
0.0
 11
162.6673502691913
 21
61.938132693459274
 31
0.0
  0
LINE
  5
4A4E
  8
0
 10
162.6673502691896
 20
61.938132693459274
 30
0.0
 11
162.08999999999989
 21
60.973815759311407
 31
0.0
  0
LINE
  5
4A4F
  8
0
 10
162.08999999999989
 20
66.657780685295293
 30
0.0
 11
162.6673502691896
 21
66.934386271720058
 31
0.0
  0
LINE
  5
4A50
  8
0
 10
162.66735026919071
 20
66.934386271720058
 30
0.0
 11
162.66735026919071
 21
65.009107557714657
 31
0.0
  0
LINE
  5
4A51
  8
0
 10
162.6673502691896
 20
65.009107557714657
 30
0.0
 11
162.08999999999989
 21
63.964613973390918
 31
0.0
  0
LINE
  5
4A52
  8
0
 10
162.08999999999989
 20
68.995915722302186
 30
0.0
 11
162.6673502691896
 21
69.431664644826895
 31
0.0
  0
LINE
  5
4A53
  8
0
 10
162.6673502691892
 20
69.431664644826895
 30
0.0
 11
162.6673502691892
 21
67.760189352442779
 31
0.0
  0
LINE
  5
4A54
  8
0
 10
162.6673502691896
 20
67.760189352442779
 30
0.0
 11
162.08999999999989
 21
66.657780685295279
 31
0.0
  0
LINE
  5
4A55
  8
0
 10
162.08999999999989
 20
70.929185795451446
 30
0.0
 11
162.6673502691896
 21
71.514790822318133
 31
0.0
  0
LINE
  5
4A56
  8
0
 10
162.6673502691888
 20
71.514790822318133
 30
0.0
 11
162.6673502691888
 21
70.132743545480196
 31
0.0
  0
LINE
  5
4A57
  8
0
 10
162.6673502691896
 20
70.132743545480196
 30
0.0
 11
162.09
 21
68.995915722302186
 31
0.0
  0
LINE
  5
4A58
  8
0
 10
162.08999999999989
 20
72.416386609581224
 30
0.0
 11
162.6673502691896
 21
73.139366586340444
 31
0.0
  0
LINE
  5
4A59
  8
0
 10
162.66735026918801
 20
73.139366586340444
 30
0.0
 11
162.66735026918801
 21
72.076203263312863
 31
0.0
  0
LINE
  5
4A5A
  8
0
 10
162.6673502691896
 20
72.076203263312863
 30
0.0
 11
162.08999999999989
 21
70.929185795451446
 31
0.0
  0
LINE
  5
4A5B
  8
0
 10
162.08999999999989
 20
73.425821061342333
 30
0.0
 11
162.6673502691896
 21
74.270766924991364
 31
0.0
  0
LINE
  5
4A5C
  8
0
 10
162.66735026919091
 20
74.270766924991364
 30
0.0
 11
162.66735026919091
 21
73.549147036193133
 31
0.0
  0
LINE
  5
4A5D
  8
0
 10
162.6673502691896
 20
73.549147036193133
 30
0.0
 11
162.08999999999989
 21
72.416386609581224
 31
0.0
  0
LINE
  5
4A5E
  8
0
 10
162.08999999999989
 20
73.935974807925305
 30
0.0
 11
162.6673502691896
 21
74.884878004333387
 31
0.0
  0
LINE
  5
4A5F
  8
0
 10
162.66735026918741
 20
74.884878004333387
 30
0.0
 11
162.66735026918741
 21
74.520181624853834
 31
0.0
  0
LINE
  5
4A60
  8
0
 10
162.6673502691896
 20
74.520181624853834
 30
0.0
 11
162.08999999999989
 21
73.425821061342305
 31
0.0
  0
LINE
  5
4A61
  8
0
 10
162.6673502691898
 20
75.000000000000085
 30
0.0
 11
162.6673502691898
 21
74.968611112899481
 31
0.0
  0
LINE
  5
4A62
  8
0
 10
162.6673502691896
 20
74.968611112899453
 30
0.0
 11
162.09
 21
73.935974807925305
 31
0.0
  0
LINE
  5
4A63
  8
0
 10
157.92264973081021
 20
74.968611112899481
 30
0.0
 11
157.92264973081021
 21
75.000000000000085
 31
0.0
  0
LINE
  5
4A64
  8
0
 10
158.5
 20
73.935974807925305
 30
0.0
 11
157.92264973081041
 21
74.968611112899481
 31
0.0
  0
LINE
  5
4A65
  8
0
 10
157.92264973081251
 20
74.520181624853834
 30
0.0
 11
157.92264973081251
 21
74.884878004333387
 31
0.0
  0
LINE
  5
4A66
  8
0
 10
157.92264973081029
 20
74.884878004333387
 30
0.0
 11
158.5
 21
73.935974807925334
 31
0.0
  0
LINE
  5
4A67
  8
0
 10
158.5
 20
73.425821061342333
 30
0.0
 11
157.92264973081029
 21
74.520181624853834
 31
0.0
  0
LINE
  5
4A68
  8
0
 10
157.9226497308091
 20
73.549147036193133
 30
0.0
 11
157.9226497308091
 21
74.270766924991364
 31
0.0
  0
LINE
  5
4A69
  8
0
 10
157.92264973081029
 20
74.270766924991364
 30
0.0
 11
158.5
 21
73.425821061342333
 31
0.0
  0
LINE
  5
4A6A
  8
0
 10
158.5
 20
72.416386609581252
 30
0.0
 11
157.92264973081041
 21
73.549147036193133
 31
0.0
  0
LINE
  5
4A6B
  8
0
 10
157.922649730812
 20
72.076203263312863
 30
0.0
 11
157.922649730812
 21
73.139366586340444
 31
0.0
  0
LINE
  5
4A6C
  8
0
 10
157.92264973081029
 20
73.139366586340444
 30
0.0
 11
158.5
 21
72.416386609581224
 31
0.0
  0
LINE
  5
4A6D
  8
0
 10
158.5
 20
70.929185795451474
 30
0.0
 11
157.92264973081041
 21
72.076203263312863
 31
0.0
  0
LINE
  5
4A6E
  8
0
 10
157.9226497308112
 20
70.132743545480196
 30
0.0
 11
157.9226497308112
 21
71.514790822318133
 31
0.0
  0
LINE
  5
4A6F
  8
0
 10
157.92264973081029
 20
71.514790822318133
 30
0.0
 11
158.5
 21
70.929185795451474
 31
0.0
  0
LINE
  5
4A70
  8
0
 10
158.5
 20
68.995915722302186
 30
0.0
 11
157.92264973081041
 21
70.132743545480196
 31
0.0
  0
LINE
  5
4A71
  8
0
 10
157.92264973081069
 20
67.760189352442779
 30
0.0
 11
157.92264973081069
 21
69.431664644826895
 31
0.0
  0
LINE
  5
4A72
  8
0
 10
157.92264973081041
 20
69.431664644826895
 30
0.0
 11
158.5
 21
68.995915722302186
 31
0.0
  0
LINE
  5
4A73
  8
0
 10
158.5
 20
66.657780685295293
 30
0.0
 11
157.92264973081029
 21
67.760189352442779
 31
0.0
  0
LINE
  5
4A74
  8
0
 10
157.92264973080921
 20
65.009107557714657
 30
0.0
 11
157.92264973080921
 21
66.934386271720058
 31
0.0
  0
LINE
  5
4A75
  8
0
 10
157.92264973081029
 20
66.934386271720058
 30
0.0
 11
158.5
 21
66.657780685295293
 31
0.0
  0
LINE
  5
4A76
  8
0
 10
158.5
 20
63.964613973390946
 30
0.0
 11
157.92264973081029
 21
65.009107557714657
 31
0.0
  0
LINE
  5
4A77
  8
0
 10
157.9226497308087
 20
61.938132693459274
 30
0.0
 11
157.9226497308087
 21
64.076180855869978
 31
0.0
  0
LINE
  5
4A78
  8
0
 10
157.92264973081029
 20
64.076180855869978
 30
0.0
 11
158.5
 21
63.964613973390982
 31
0.0
  0
LINE
  5
4A79
  8
0
 10
158.5
 20
60.973815759311442
 30
0.0
 11
157.92264973081041
 21
61.938132693459274
 31
0.0
  0
LINE
  5
4A7A
  8
0
 10
157.92264973081171
 20
58.612717257234522
 30
0.0
 11
157.92264973081171
 21
60.917966083441513
 31
0.0
  0
LINE
  5
4A7B
  8
0
 10
157.92264973081029
 20
60.917966083441513
 30
0.0
 11
158.5
 21
60.973815759311407
 31
0.0
  0
LINE
  5
4A7C
  8
0
 10
158.5
 20
57.749129714514787
 30
0.0
 11
157.92264973081041
 21
58.612717257234522
 31
0.0
  0
LINE
  5
4A7D
  8
0
 10
157.92264973080859
 20
55.103736705642767
 30
0.0
 11
157.92264973080859
 21
57.527053819173723
 31
0.0
  0
LINE
  5
4A7E
  8
0
 10
157.92264973081041
 20
57.527053819173723
 30
0.0
 11
158.5
 21
57.749129714514787
 31
0.0
  0
LINE
  5
4A7F
  8
0
 10
158.5
 20
54.359284423506551
 30
0.0
 11
157.92264973081029
 21
55.103736705642767
 31
0.0
  0
LINE
  5
4A80
  8
0
 10
157.92264973081049
 20
51.485978867023867
 30
0.0
 11
157.92264973081049
 21
53.975715470846382
 31
0.0
  0
LINE
  5
4A81
  8
0
 10
157.92264973081041
 20
53.975715470846382
 30
0.0
 11
158.5
 21
54.359284423506573
 31
0.0
  0
LINE
  5
4A82
  8
0
 10
158.5
 20
50.876528553383899
 30
0.0
 11
157.92264973081029
 21
51.485978867023867
 31
0.0
  0
LINE
  5
4A83
  8
0
 10
157.92264973080961
 20
47.836549968736882
 30
0.0
 11
157.92264973080961
 21
50.339641649697228
 31
0.0
  0
LINE
  5
4A84
  8
0
 10
157.92264973081041
 20
50.339641649697228
 30
0.0
 11
158.5
 21
50.876528553383899
 31
0.0
  0
LINE
  5
4A85
  8
0
 10
158.5
 20
47.375090998931121
 30
0.0
 11
157.92264973081041
 21
47.836549968736882
 31
0.0
  0
LINE
  5
4A86
  8
0
 10
158.5
 20
43.92959882259975
 30
0.0
 11
157.92264973081041
 21
44.23323125179202
 31
0.0
  0
LINE
  5
4A87
  8
0
 10
157.92264973081191
 20
44.23323125179202
 30
0.0
 11
157.92264973081191
 21
46.696328956453719
 31
0.0
  0
LINE
  5
4A88
  8
0
 10
157.92264973081029
 20
46.696328956453719
 30
0.0
 11
158.5
 21
47.375090998931093
 31
0.0
  0
LINE
  5
4A89
  8
0
 10
158.5
 20
40.61348670823633
 30
0.0
 11
157.92264973081029
 21
40.752821198738367
 31
0.0
  0
LINE
  5
4A8A
  8
0
 10
157.92264973080739
 20
40.752821198738367
 30
0.0
 11
157.92264973080739
 21
43.1234282758342
 31
0.0
  0
LINE
  5
4A8B
  8
0
 10
157.92264973081029
 20
43.1234282758342
 30
0.0
 11
158.5
 21
43.92959882259975
 31
0.0
  0
LINE
  5
4A8C
  8
0
 10
158.5
 20
37.497431828289791
 30
0.0
 11
157.92264973081041
 21
37.46949870734214
 31
0.0
  0
LINE
  5
4A8D
  8
0
 10
157.92264973081041
 20
37.469498707342161
 30
0.0
 11
157.92264973081041
 21
39.697089782753757
 31
0.0
  0
LINE
  5
4A8E
  8
0
 10
157.92264973081029
 20
39.697089782753757
 30
0.0
 11
158.5
 21
40.613486708236351
 31
0.0
  0
LINE
  5
4A8F
  8
0
 10
158.5
 20
34.647847482586712
 30
0.0
 11
157.92264973081041
 21
34.453242096166321
 31
0.0
  0
LINE
  5
4A90
  8
0
 10
157.92264973081021
 20
34.453242096166321
 30
0.0
 11
157.92264973081021
 21
36.490339933554083
 31
0.0
  0
LINE
  5
4A91
  8
0
 10
157.92264973081029
 20
36.490339933554083
 30
0.0
 11
158.5
 21
37.497431828289763
 31
0.0
  0
LINE
  5
4A92
  8
0
 10
158.5
 20
32.125467614149322
 30
0.0
 11
157.92264973081041
 21
31.768337638203519
 31
0.0
  0
LINE
  5
4A93
  8
0
 10
157.92264973080989
 20
31.768337638203519
 30
0.0
 11
157.92264973080989
 21
33.571525033871403
 31
0.0
  0
LINE
  5
4A94
  8
0
 10
157.92264973081029
 20
33.571525033871382
 30
0.0
 11
158.5
 21
34.647847482586712
 31
0.0
  0
LINE
  5
4A95
  8
0
 10
158.5
 20
29.98405237064302
 30
0.0
 11
157.92264973081029
 21
29.47200941057778
 31
0.0
  0
LINE
  5
4A96
  8
0
 10
157.92264973081009
 20
29.47200941057778
 30
0.0
 11
157.92264973081009
 21
31.002854555791298
 31
0.0
  0
LINE
  5
4A97
  8
0
 10
157.92264973081029
 20
31.002854555791298
 30
0.0
 11
158.5
 21
32.125467614149329
 31
0.0
  0
LINE
  5
4A98
  8
0
 10
158.5
 20
28.269242300164571
 30
0.0
 11
157.92264973081041
 21
27.613199662690249
 31
0.0
  0
LINE
  5
4A99
  8
0
 10
157.9226497308124
 20
27.613199662690249
 30
0.0
 11
157.9226497308124
 21
28.839075250956281
 31
0.0
  0
LINE
  5
4A9A
  8
0
 10
157.92264973081029
 20
28.839075250956281
 30
0.0
 11
158.5
 21
29.984052370643031
 31
0.0
  0
LINE
  5
4A9B
  8
0
 10
158.5
 20
27.017585602198348
 30
0.0
 11
157.92264973081041
 21
26.231525697144079
 31
0.0
  0
LINE
  5
4A9C
  8
0
 10
157.9226497308095
 20
26.231525697144079
 30
0.0
 11
157.9226497308095
 21
27.126304318602951
 31
0.0
  0
LINE
  5
4A9D
  8
0
 10
157.92264973081029
 20
27.126304318602951
 30
0.0
 11
158.5
 21
28.269242300164571
 31
0.0
  0
LINE
  5
4A9E
  8
0
 10
158.5
 20
26.255759166197439
 30
0.0
 11
157.92264973081041
 21
25.356435495721481
 31
0.0
  0
LINE
  5
4A9F
  8
0
 10
157.9226497308124
 20
25.356435495721481
 30
0.0
 11
157.9226497308124
 21
25.90104649752681
 31
0.0
  0
LINE
  5
4AA0
  8
0
 10
157.92264973081029
 20
25.90104649752681
 30
0.0
 11
158.5
 21
27.017585602198348
 31
0.0
  0
LINE
  5
4AA1
  8
0
 10
158.5
 20
26.000000000000099
 30
0.0
 11
157.92264973081041
 21
25.006580086777522
 31
0.0
  0
LINE
  5
4AA2
  8
0
 10
157.92264973081069
 20
25.006580086777522
 30
0.0
 11
157.92264973081069
 21
25.189416030952451
 31
0.0
  0
LINE
  5
4AA3
  8
0
 10
157.92264973081029
 20
25.189416030952451
 30
0.0
 11
158.5
 21
26.255759166197439
 31
0.0
  0
LINE
  5
4AA4
  8
0
 10
159.07735026918931
 20
25.189416030952451
 30
0.0
 11
159.07735026918931
 21
25.006580086777522
 31
0.0
  0
LINE
  5
4AA5
  8
0
 10
159.07735026918959
 20
25.006580086777522
 30
0.0
 11
158.5
 21
26.000000000000071
 31
0.0
  0
LINE
  5
4AA6
  8
0
 10
158.5
 20
26.255759166197439
 30
0.0
 11
159.07735026918959
 21
25.189416030952451
 31
0.0
  0
LINE
  5
4AA7
  8
0
 10
159.0773502691876
 20
25.90104649752681
 30
0.0
 11
159.0773502691876
 21
25.356435495721481
 31
0.0
  0
LINE
  5
4AA8
  8
0
 10
159.07735026918959
 20
25.356435495721481
 30
0.0
 11
158.5
 21
26.255759166197439
 31
0.0
  0
LINE
  5
4AA9
  8
0
 10
158.5
 20
27.017585602198348
 30
0.0
 11
159.07735026918959
 21
25.90104649752681
 31
0.0
  0
LINE
  5
4AAA
  8
0
 10
159.0773502691905
 20
27.126304318602951
 30
0.0
 11
159.0773502691905
 21
26.231525697144079
 31
0.0
  0
LINE
  5
4AAB
  8
0
 10
159.07735026918959
 20
26.231525697144079
 30
0.0
 11
158.5
 21
27.017585602198341
 31
0.0
  0
LINE
  5
4AAC
  8
0
 10
158.5
 20
28.269242300164571
 30
0.0
 11
159.07735026918959
 21
27.126304318602951
 31
0.0
  0
LINE
  5
4AAD
  8
0
 10
159.07735026918749
 20
28.839075250956281
 30
0.0
 11
159.07735026918749
 21
27.613199662690249
 31
0.0
  0
LINE
  5
4AAE
  8
0
 10
159.07735026918959
 20
27.613199662690249
 30
0.0
 11
158.5
 21
28.269242300164571
 31
0.0
  0
LINE
  5
4AAF
  8
0
 10
158.5
 20
29.984052370643031
 30
0.0
 11
159.07735026918959
 21
28.839075250956281
 31
0.0
  0
LINE
  5
4AB0
  8
0
 10
159.07735026918991
 20
31.002854555791298
 30
0.0
 11
159.07735026918991
 21
29.47200941057778
 31
0.0
  0
LINE
  5
4AB1
  8
0
 10
159.07735026918959
 20
29.47200941057778
 30
0.0
 11
158.5
 21
29.98405237064302
 31
0.0
  0
LINE
  5
4AB2
  8
0
 10
158.5
 20
32.125467614149329
 30
0.0
 11
159.07735026918959
 21
31.002854555791298
 31
0.0
  0
LINE
  5
4AB3
  8
0
 10
159.07735026918999
 20
33.571525033871403
 30
0.0
 11
159.07735026918999
 21
31.768337638203519
 31
0.0
  0
LINE
  5
4AB4
  8
0
 10
159.07735026918959
 20
31.768337638203519
 30
0.0
 11
158.5
 21
32.125467614149322
 31
0.0
  0
LINE
  5
4AB5
  8
0
 10
158.5
 20
34.647847482586712
 30
0.0
 11
159.07735026918959
 21
33.571525033871382
 31
0.0
  0
LINE
  5
4AB6
  8
0
 10
159.07735026918971
 20
36.490339933554083
 30
0.0
 11
159.07735026918971
 21
34.453242096166321
 31
0.0
  0
LINE
  5
4AB7
  8
0
 10
159.07735026918959
 20
34.453242096166321
 30
0.0
 11
158.5
 21
34.647847482586712
 31
0.0
  0
LINE
  5
4AB8
  8
0
 10
158.5
 20
37.497431828289763
 30
0.0
 11
159.07735026918959
 21
36.490339933554083
 31
0.0
  0
LINE
  5
4AB9
  8
0
 10
159.07735026918951
 20
39.697089782753757
 30
0.0
 11
159.07735026918951
 21
37.469498707342161
 31
0.0
  0
LINE
  5
4ABA
  8
0
 10
159.07735026918959
 20
37.46949870734214
 30
0.0
 11
158.5
 21
37.497431828289791
 31
0.0
  0
LINE
  5
4ABB
  8
0
 10
158.5
 20
40.613486708236351
 30
0.0
 11
159.07735026918959
 21
39.697089782753757
 31
0.0
  0
LINE
  5
4ABC
  8
0
 10
159.07735026919261
 20
43.1234282758342
 30
0.0
 11
159.07735026919261
 21
40.752821198738367
 31
0.0
  0
LINE
  5
4ABD
  8
0
 10
159.07735026918959
 20
40.752821198738367
 30
0.0
 11
158.5
 21
40.61348670823633
 31
0.0
  0
LINE
  5
4ABE
  8
0
 10
158.5
 20
43.92959882259975
 30
0.0
 11
159.07735026918959
 21
43.1234282758342
 31
0.0
  0
LINE
  5
4ABF
  8
0
 10
159.07735026918809
 20
46.696328956453719
 30
0.0
 11
159.07735026918809
 21
44.23323125179202
 31
0.0
  0
LINE
  5
4AC0
  8
0
 10
159.07735026918959
 20
44.23323125179202
 30
0.0
 11
158.5
 21
43.92959882259975
 31
0.0
  0
LINE
  5
4AC1
  8
0
 10
158.5
 20
47.375090998931093
 30
0.0
 11
159.07735026918959
 21
46.696328956453719
 31
0.0
  0
LINE
  5
4AC2
  8
0
 10
158.5
 20
50.876528553383899
 30
0.0
 11
159.07735026918959
 21
50.339641649697228
 31
0.0
  0
LINE
  5
4AC3
  8
0
 10
159.0773502691903
 20
50.339641649697228
 30
0.0
 11
159.0773502691903
 21
47.836549968736882
 31
0.0
  0
LINE
  5
4AC4
  8
0
 10
159.07735026918959
 20
47.836549968736882
 30
0.0
 11
158.5
 21
47.375090998931121
 31
0.0
  0
LINE
  5
4AC5
  8
0
 10
158.5
 20
54.359284423506573
 30
0.0
 11
159.07735026918959
 21
53.975715470846382
 31
0.0
  0
LINE
  5
4AC6
  8
0
 10
159.0773502691894
 20
53.975715470846382
 30
0.0
 11
159.0773502691894
 21
51.485978867023867
 31
0.0
  0
LINE
  5
4AC7
  8
0
 10
159.07735026918959
 20
51.485978867023867
 30
0.0
 11
158.5
 21
50.876528553383899
 31
0.0
  0
LINE
  5
4AC8
  8
0
 10
158.5
 20
57.749129714514787
 30
0.0
 11
159.07735026918959
 21
57.527053819173723
 31
0.0
  0
LINE
  5
4AC9
  8
0
 10
159.0773502691913
 20
57.527053819173723
 30
0.0
 11
159.0773502691913
 21
55.103736705642767
 31
0.0
  0
LINE
  5
4ACA
  8
0
 10
159.07735026918959
 20
55.103736705642767
 30
0.0
 11
158.5
 21
54.359284423506551
 31
0.0
  0
LINE
  5
4ACB
  8
0
 10
158.5
 20
60.973815759311407
 30
0.0
 11
159.07735026918959
 21
60.917966083441513
 31
0.0
  0
LINE
  5
4ACC
  8
0
 10
159.07735026918829
 20
60.917966083441513
 30
0.0
 11
159.07735026918829
 21
58.612717257234522
 31
0.0
  0
LINE
  5
4ACD
  8
0
 10
159.07735026918959
 20
58.612717257234522
 30
0.0
 11
158.5
 21
57.749129714514787
 31
0.0
  0
LINE
  5
4ACE
  8
0
 10
158.5
 20
26.000000000000082
 30
0.0
 11
158.5
 21
74.000000000000085
 31
0.0
  0
LINE
  5
4ACF
  8
0
 10
158.5
 20
63.964613973390982
 30
0.0
 11
159.07735026918959
 21
64.076180855869978
 31
0.0
  0
LINE
  5
4AD0
  8
0
 10
159.07735026919119
 20
64.076180855869978
 30
0.0
 11
159.07735026919119
 21
61.938132693459274
 31
0.0
  0
LINE
  5
4AD1
  8
0
 10
159.07735026918959
 20
61.938132693459274
 30
0.0
 11
158.5
 21
60.973815759311442
 31
0.0
  0
LINE
  5
4AD2
  8
0
 10
158.5
 20
66.657780685295293
 30
0.0
 11
159.07735026918959
 21
66.934386271720058
 31
0.0
  0
LINE
  5
4AD3
  8
0
 10
159.0773502691907
 20
66.934386271720058
 30
0.0
 11
159.0773502691907
 21
65.009107557714657
 31
0.0
  0
LINE
  5
4AD4
  8
0
 10
159.07735026918959
 20
65.009107557714657
 30
0.0
 11
158.5
 21
63.964613973390946
 31
0.0
  0
LINE
  5
4AD5
  8
0
 10
158.5
 20
68.995915722302186
 30
0.0
 11
159.07735026918959
 21
69.431664644826895
 31
0.0
  0
LINE
  5
4AD6
  8
0
 10
159.0773502691892
 20
69.431664644826895
 30
0.0
 11
159.0773502691892
 21
67.760189352442779
 31
0.0
  0
LINE
  5
4AD7
  8
0
 10
159.07735026918959
 20
67.760189352442779
 30
0.0
 11
158.5
 21
66.657780685295293
 31
0.0
  0
LINE
  5
4AD8
  8
0
 10
158.5
 20
70.929185795451474
 30
0.0
 11
159.07735026918959
 21
71.514790822318133
 31
0.0
  0
LINE
  5
4AD9
  8
0
 10
159.0773502691888
 20
71.514790822318133
 30
0.0
 11
159.0773502691888
 21
70.132743545480196
 31
0.0
  0
LINE
  5
4ADA
  8
0
 10
159.07735026918959
 20
70.132743545480196
 30
0.0
 11
158.5
 21
68.995915722302186
 31
0.0
  0
LINE
  5
4ADB
  8
0
 10
158.5
 20
72.416386609581224
 30
0.0
 11
159.07735026918959
 21
73.139366586340444
 31
0.0
  0
LINE
  5
4ADC
  8
0
 10
159.077350269188
 20
73.139366586340444
 30
0.0
 11
159.077350269188
 21
72.076203263312863
 31
0.0
  0
LINE
  5
4ADD
  8
0
 10
159.07735026918959
 20
72.076203263312863
 30
0.0
 11
158.5
 21
70.929185795451474
 31
0.0
  0
LINE
  5
4ADE
  8
0
 10
158.5
 20
73.425821061342333
 30
0.0
 11
159.07735026918959
 21
74.270766924991364
 31
0.0
  0
LINE
  5
4ADF
  8
0
 10
159.0773502691909
 20
74.270766924991364
 30
0.0
 11
159.0773502691909
 21
73.549147036193133
 31
0.0
  0
LINE
  5
4AE0
  8
0
 10
159.07735026918959
 20
73.549147036193133
 30
0.0
 11
158.5
 21
72.416386609581252
 31
0.0
  0
LINE
  5
4AE1
  8
0
 10
158.5
 20
73.935974807925334
 30
0.0
 11
159.07735026918959
 21
74.884878004333387
 31
0.0
  0
LINE
  5
4AE2
  8
0
 10
159.07735026918741
 20
74.884878004333387
 30
0.0
 11
159.07735026918741
 21
74.520181624853834
 31
0.0
  0
LINE
  5
4AE3
  8
0
 10
159.07735026918959
 20
74.520181624853834
 30
0.0
 11
158.5
 21
73.425821061342333
 31
0.0
  0
LINE
  5
4AE4
  8
0
 10
159.07735026918979
 20
75.000000000000085
 30
0.0
 11
159.07735026918979
 21
74.968611112899481
 31
0.0
  0
LINE
  5
4AE5
  8
0
 10
159.07735026918959
 20
74.968611112899481
 30
0.0
 11
158.5
 21
73.935974807925334
 31
0.0
  0
LINE
  5
4AE6
  8
0
 10
154.3326497308102
 20
74.968611112899481
 30
0.0
 11
154.3326497308102
 21
75.000000000000085
 31
0.0
  0
LINE
  5
4AE7
  8
0
 10
154.91
 20
73.935974807925362
 30
0.0
 11
154.3326497308104
 21
74.968611112899481
 31
0.0
  0
LINE
  5
4AE8
  8
0
 10
154.33264973081259
 20
74.520181624853834
 30
0.0
 11
154.33264973081259
 21
74.884878004333387
 31
0.0
  0
LINE
  5
4AE9
  8
0
 10
154.3326497308104
 20
74.884878004333387
 30
0.0
 11
154.91
 21
73.935974807925334
 31
0.0
  0
LINE
  5
4AEA
  8
0
 10
154.91
 20
73.425821061342361
 30
0.0
 11
154.3326497308104
 21
74.520181624853834
 31
0.0
  0
LINE
  5
4AEB
  8
0
 10
154.33264973080901
 20
73.549147036193133
 30
0.0
 11
154.33264973080901
 21
74.270766924991364
 31
0.0
  0
LINE
  5
4AEC
  8
0
 10
154.3326497308104
 20
74.270766924991364
 30
0.0
 11
154.91
 21
73.425821061342361
 31
0.0
  0
LINE
  5
4AED
  8
0
 10
154.91
 20
72.416386609581252
 30
0.0
 11
154.3326497308104
 21
73.549147036193133
 31
0.0
  0
LINE
  5
4AEE
  8
0
 10
154.33264973081199
 20
72.076203263312863
 30
0.0
 11
154.33264973081199
 21
73.139366586340444
 31
0.0
  0
LINE
  5
4AEF
  8
0
 10
154.3326497308104
 20
73.139366586340444
 30
0.0
 11
154.91
 21
72.416386609581252
 31
0.0
  0
LINE
  5
4AF0
  8
0
 10
154.91
 20
70.929185795451474
 30
0.0
 11
154.3326497308104
 21
72.076203263312863
 31
0.0
  0
LINE
  5
4AF1
  8
0
 10
154.3326497308112
 20
70.132743545480196
 30
0.0
 11
154.3326497308112
 21
71.514790822318133
 31
0.0
  0
LINE
  5
4AF2
  8
0
 10
154.3326497308104
 20
71.514790822318133
 30
0.0
 11
154.91
 21
70.929185795451474
 31
0.0
  0
LINE
  5
4AF3
  8
0
 10
154.91
 20
68.995915722302215
 30
0.0
 11
154.3326497308104
 21
70.132743545480196
 31
0.0
  0
LINE
  5
4AF4
  8
0
 10
154.3326497308108
 20
67.760189352442779
 30
0.0
 11
154.3326497308108
 21
69.431664644826895
 31
0.0
  0
LINE
  5
4AF5
  8
0
 10
154.3326497308104
 20
69.431664644826895
 30
0.0
 11
154.91
 21
68.995915722302186
 31
0.0
  0
LINE
  5
4AF6
  8
0
 10
154.91
 20
66.657780685295293
 30
0.0
 11
154.3326497308104
 21
67.760189352442779
 31
0.0
  0
LINE
  5
4AF7
  8
0
 10
154.33264973080921
 20
65.009107557714657
 30
0.0
 11
154.33264973080921
 21
66.934386271720058
 31
0.0
  0
LINE
  5
4AF8
  8
0
 10
154.3326497308104
 20
66.934386271720058
 30
0.0
 11
154.91
 21
66.657780685295293
 31
0.0
  0
LINE
  5
4AF9
  8
0
 10
154.91
 20
63.964613973390982
 30
0.0
 11
154.3326497308104
 21
65.009107557714657
 31
0.0
  0
LINE
  5
4AFA
  8
0
 10
154.3326497308087
 20
61.938132693459274
 30
0.0
 11
154.3326497308087
 21
64.076180855869978
 31
0.0
  0
LINE
  5
4AFB
  8
0
 10
154.3326497308104
 20
64.076180855869978
 30
0.0
 11
154.91
 21
63.964613973390982
 31
0.0
  0
LINE
  5
4AFC
  8
0
 10
154.91
 20
60.973815759311442
 30
0.0
 11
154.3326497308104
 21
61.938132693459274
 31
0.0
  0
LINE
  5
4AFD
  8
0
 10
154.33264973081171
 20
58.612717257234522
 30
0.0
 11
154.33264973081171
 21
60.917966083441513
 31
0.0
  0
LINE
  5
4AFE
  8
0
 10
154.3326497308104
 20
60.917966083441513
 30
0.0
 11
154.91
 21
60.973815759311407
 31
0.0
  0
LINE
  5
4AFF
  8
0
 10
154.91
 20
57.749129714514822
 30
0.0
 11
154.3326497308104
 21
58.612717257234522
 31
0.0
  0
LINE
  5
4B00
  8
0
 10
154.33264973080861
 20
55.103736705642767
 30
0.0
 11
154.33264973080861
 21
57.527053819173723
 31
0.0
  0
LINE
  5
4B01
  8
0
 10
154.3326497308104
 20
57.527053819173723
 30
0.0
 11
154.91
 21
57.749129714514787
 31
0.0
  0
LINE
  5
4B02
  8
0
 10
154.91
 20
54.359284423506573
 30
0.0
 11
154.3326497308104
 21
55.103736705642802
 31
0.0
  0
LINE
  5
4B03
  8
0
 10
154.33264973081049
 20
51.485978867023867
 30
0.0
 11
154.33264973081049
 21
53.975715470846382
 31
0.0
  0
LINE
  5
4B04
  8
0
 10
154.3326497308104
 20
53.975715470846382
 30
0.0
 11
154.91
 21
54.359284423506573
 31
0.0
  0
LINE
  5
4B05
  8
0
 10
154.91
 20
50.876528553383899
 30
0.0
 11
154.3326497308104
 21
51.485978867023867
 31
0.0
  0
LINE
  5
4B06
  8
0
 10
154.33264973080969
 20
47.836549968736882
 30
0.0
 11
154.33264973080969
 21
50.339641649697228
 31
0.0
  0
LINE
  5
4B07
  8
0
 10
154.3326497308104
 20
50.339641649697228
 30
0.0
 11
154.91
 21
50.876528553383899
 31
0.0
  0
LINE
  5
4B08
  8
0
 10
154.91
 20
47.375090998931121
 30
0.0
 11
154.3326497308104
 21
47.836549968736882
 31
0.0
  0
LINE
  5
4B09
  8
0
 10
154.91
 20
43.92959882259975
 30
0.0
 11
154.3326497308104
 21
44.23323125179202
 31
0.0
  0
LINE
  5
4B0A
  8
0
 10
154.3326497308118
 20
44.23323125179202
 30
0.0
 11
154.3326497308118
 21
46.696328956453719
 31
0.0
  0
LINE
  5
4B0B
  8
0
 10
154.3326497308104
 20
46.696328956453719
 30
0.0
 11
154.91
 21
47.375090998931093
 31
0.0
  0
LINE
  5
4B0C
  8
0
 10
154.91
 20
40.61348670823633
 30
0.0
 11
154.3326497308104
 21
40.752821198738367
 31
0.0
  0
LINE
  5
4B0D
  8
0
 10
154.3326497308073
 20
40.752821198738367
 30
0.0
 11
154.3326497308073
 21
43.1234282758342
 31
0.0
  0
LINE
  5
4B0E
  8
0
 10
154.3326497308104
 20
43.1234282758342
 30
0.0
 11
154.91
 21
43.92959882259975
 31
0.0
  0
LINE
  5
4B0F
  8
0
 10
154.91
 20
37.497431828289791
 30
0.0
 11
154.3326497308104
 21
37.469498707342161
 31
0.0
  0
LINE
  5
4B10
  8
0
 10
154.33264973081049
 20
37.469498707342161
 30
0.0
 11
154.33264973081049
 21
39.697089782753757
 31
0.0
  0
LINE
  5
4B11
  8
0
 10
154.3326497308104
 20
39.697089782753757
 30
0.0
 11
154.91
 21
40.61348670823633
 31
0.0
  0
LINE
  5
4B12
  8
0
 10
154.91
 20
34.647847482586712
 30
0.0
 11
154.3326497308104
 21
34.453242096166321
 31
0.0
  0
LINE
  5
4B13
  8
0
 10
154.3326497308102
 20
34.453242096166321
 30
0.0
 11
154.3326497308102
 21
36.490339933554083
 31
0.0
  0
LINE
  5
4B14
  8
0
 10
154.3326497308104
 20
36.490339933554083
 30
0.0
 11
154.91
 21
37.497431828289763
 31
0.0
  0
LINE
  5
4B15
  8
0
 10
154.91
 20
32.125467614149322
 30
0.0
 11
154.3326497308104
 21
31.768337638203519
 31
0.0
  0
LINE
  5
4B16
  8
0
 10
154.33264973080989
 20
31.768337638203519
 30
0.0
 11
154.33264973080989
 21
33.571525033871403
 31
0.0
  0
LINE
  5
4B17
  8
0
 10
154.3326497308104
 20
33.571525033871403
 30
0.0
 11
154.91
 21
34.647847482586698
 31
0.0
  0
LINE
  5
4B18
  8
0
 10
154.91
 20
29.98405237064302
 30
0.0
 11
154.3326497308104
 21
29.47200941057778
 31
0.0
  0
LINE
  5
4B19
  8
0
 10
154.33264973081009
 20
29.47200941057778
 30
0.0
 11
154.33264973081009
 21
31.002854555791298
 31
0.0
  0
LINE
  5
4B1A
  8
0
 10
154.3326497308104
 20
31.002854555791298
 30
0.0
 11
154.91
 21
32.125467614149322
 31
0.0
  0
LINE
  5
4B1B
  8
0
 10
154.91
 20
28.269242300164571
 30
0.0
 11
154.3326497308104
 21
27.613199662690249
 31
0.0
  0
LINE
  5
4B1C
  8
0
 10
154.33264973081239
 20
27.613199662690249
 30
0.0
 11
154.33264973081239
 21
28.839075250956281
 31
0.0
  0
LINE
  5
4B1D
  8
0
 10
154.3326497308104
 20
28.839075250956281
 30
0.0
 11
154.91
 21
29.98405237064302
 31
0.0
  0
LINE
  5
4B1E
  8
0
 10
154.91
 20
27.017585602198341
 30
0.0
 11
154.3326497308104
 21
26.231525697144079
 31
0.0
  0
LINE
  5
4B1F
  8
0
 10
154.33264973080949
 20
26.231525697144079
 30
0.0
 11
154.33264973080949
 21
27.126304318602951
 31
0.0
  0
LINE
  5
4B20
  8
0
 10
154.3326497308104
 20
27.126304318602951
 30
0.0
 11
154.91
 21
28.269242300164571
 31
0.0
  0
LINE
  5
4B21
  8
0
 10
154.91
 20
26.255759166197439
 30
0.0
 11
154.3326497308104
 21
25.356435495721481
 31
0.0
  0
LINE
  5
4B22
  8
0
 10
154.33264973081239
 20
25.356435495721481
 30
0.0
 11
154.33264973081239
 21
25.90104649752681
 31
0.0
  0
LINE
  5
4B23
  8
0
 10
154.3326497308104
 20
25.90104649752681
 30
0.0
 11
154.91
 21
27.017585602198341
 31
0.0
  0
LINE
  5
4B24
  8
0
 10
154.91
 20
26.000000000000071
 30
0.0
 11
154.3326497308104
 21
25.006580086777522
 31
0.0
  0
LINE
  5
4B25
  8
0
 10
154.33264973081069
 20
25.006580086777522
 30
0.0
 11
154.33264973081069
 21
25.189416030952451
 31
0.0
  0
LINE
  5
4B26
  8
0
 10
154.3326497308104
 20
25.189416030952451
 30
0.0
 11
154.91
 21
26.255759166197439
 31
0.0
  0
LINE
  5
4B27
  8
0
 10
155.48735026918919
 20
25.189416030952451
 30
0.0
 11
155.48735026918919
 21
25.006580086777522
 31
0.0
  0
LINE
  5
4B28
  8
0
 10
155.48735026918959
 20
25.006580086777522
 30
0.0
 11
154.91
 21
26.000000000000071
 31
0.0
  0
LINE
  5
4B29
  8
0
 10
154.91
 20
26.255759166197439
 30
0.0
 11
155.48735026918959
 21
25.189416030952451
 31
0.0
  0
LINE
  5
4B2A
  8
0
 10
155.4873502691876
 20
25.90104649752681
 30
0.0
 11
155.4873502691876
 21
25.356435495721481
 31
0.0
  0
LINE
  5
4B2B
  8
0
 10
155.48735026918951
 20
25.356435495721481
 30
0.0
 11
154.91
 21
26.255759166197439
 31
0.0
  0
LINE
  5
4B2C
  8
0
 10
154.91
 20
27.017585602198341
 30
0.0
 11
155.48735026918959
 21
25.90104649752681
 31
0.0
  0
LINE
  5
4B2D
  8
0
 10
155.48735026919039
 20
27.126304318602951
 30
0.0
 11
155.48735026919039
 21
26.231525697144079
 31
0.0
  0
LINE
  5
4B2E
  8
0
 10
155.48735026918959
 20
26.231525697144079
 30
0.0
 11
154.91
 21
27.017585602198341
 31
0.0
  0
LINE
  5
4B2F
  8
0
 10
154.91
 20
28.269242300164571
 30
0.0
 11
155.48735026918959
 21
27.126304318602951
 31
0.0
  0
LINE
  5
4B30
  8
0
 10
155.4873502691876
 20
28.839075250956281
 30
0.0
 11
155.4873502691876
 21
27.613199662690249
 31
0.0
  0
LINE
  5
4B31
  8
0
 10
155.48735026918959
 20
27.613199662690249
 30
0.0
 11
154.91
 21
28.269242300164571
 31
0.0
  0
LINE
  5
4B32
  8
0
 10
154.91
 20
29.98405237064302
 30
0.0
 11
155.48735026918959
 21
28.839075250956281
 31
0.0
  0
LINE
  5
4B33
  8
0
 10
155.48735026918979
 20
31.002854555791298
 30
0.0
 11
155.48735026918979
 21
29.47200941057778
 31
0.0
  0
LINE
  5
4B34
  8
0
 10
155.48735026918959
 20
29.47200941057778
 30
0.0
 11
154.91
 21
29.98405237064302
 31
0.0
  0
LINE
  5
4B35
  8
0
 10
154.91
 20
32.125467614149322
 30
0.0
 11
155.48735026918959
 21
31.002854555791298
 31
0.0
  0
LINE
  5
4B36
  8
0
 10
155.48735026918999
 20
33.571525033871403
 30
0.0
 11
155.48735026918999
 21
31.768337638203519
 31
0.0
  0
LINE
  5
4B37
  8
0
 10
155.48735026918959
 20
31.768337638203519
 30
0.0
 11
154.91
 21
32.125467614149322
 31
0.0
  0
LINE
  5
4B38
  8
0
 10
154.91
 20
34.647847482586698
 30
0.0
 11
155.48735026918959
 21
33.571525033871403
 31
0.0
  0
LINE
  5
4B39
  8
0
 10
155.48735026918979
 20
36.490339933554083
 30
0.0
 11
155.48735026918979
 21
34.453242096166321
 31
0.0
  0
LINE
  5
4B3A
  8
0
 10
155.48735026918951
 20
34.453242096166321
 30
0.0
 11
154.91
 21
34.647847482586712
 31
0.0
  0
LINE
  5
4B3B
  8
0
 10
154.91
 20
37.497431828289763
 30
0.0
 11
155.48735026918959
 21
36.490339933554083
 31
0.0
  0
LINE
  5
4B3C
  8
0
 10
155.48735026918951
 20
39.697089782753757
 30
0.0
 11
155.48735026918951
 21
37.469498707342161
 31
0.0
  0
LINE
  5
4B3D
  8
0
 10
155.48735026918951
 20
37.469498707342161
 30
0.0
 11
154.91
 21
37.497431828289791
 31
0.0
  0
LINE
  5
4B3E
  8
0
 10
154.91
 20
40.61348670823633
 30
0.0
 11
155.48735026918959
 21
39.697089782753757
 31
0.0
  0
LINE
  5
4B3F
  8
0
 10
155.4873502691926
 20
43.1234282758342
 30
0.0
 11
155.4873502691926
 21
40.752821198738367
 31
0.0
  0
LINE
  5
4B40
  8
0
 10
155.48735026918959
 20
40.752821198738367
 30
0.0
 11
154.91
 21
40.61348670823633
 31
0.0
  0
LINE
  5
4B41
  8
0
 10
154.91
 20
43.92959882259975
 30
0.0
 11
155.48735026918959
 21
43.1234282758342
 31
0.0
  0
LINE
  5
4B42
  8
0
 10
155.48735026918811
 20
46.696328956453719
 30
0.0
 11
155.48735026918811
 21
44.23323125179202
 31
0.0
  0
LINE
  5
4B43
  8
0
 10
155.48735026918959
 20
44.23323125179202
 30
0.0
 11
154.91
 21
43.92959882259975
 31
0.0
  0
LINE
  5
4B44
  8
0
 10
154.91
 20
47.375090998931093
 30
0.0
 11
155.48735026918959
 21
46.696328956453719
 31
0.0
  0
LINE
  5
4B45
  8
0
 10
154.91
 20
50.876528553383899
 30
0.0
 11
155.48735026918959
 21
50.339641649697228
 31
0.0
  0
LINE
  5
4B46
  8
0
 10
155.4873502691903
 20
50.339641649697228
 30
0.0
 11
155.4873502691903
 21
47.836549968736882
 31
0.0
  0
LINE
  5
4B47
  8
0
 10
155.48735026918959
 20
47.836549968736882
 30
0.0
 11
154.91
 21
47.375090998931121
 31
0.0
  0
LINE
  5
4B48
  8
0
 10
154.91
 20
54.359284423506573
 30
0.0
 11
155.48735026918959
 21
53.975715470846382
 31
0.0
  0
LINE
  5
4B49
  8
0
 10
155.48735026918939
 20
53.975715470846382
 30
0.0
 11
155.48735026918939
 21
51.485978867023867
 31
0.0
  0
LINE
  5
4B4A
  8
0
 10
155.48735026918959
 20
51.485978867023867
 30
0.0
 11
154.91
 21
50.876528553383899
 31
0.0
  0
LINE
  5
4B4B
  8
0
 10
154.91
 20
57.749129714514787
 30
0.0
 11
155.48735026918959
 21
57.527053819173723
 31
0.0
  0
LINE
  5
4B4C
  8
0
 10
155.4873502691913
 20
57.527053819173723
 30
0.0
 11
155.4873502691913
 21
55.103736705642767
 31
0.0
  0
LINE
  5
4B4D
  8
0
 10
155.48735026918959
 20
55.103736705642802
 30
0.0
 11
154.91
 21
54.359284423506573
 31
0.0
  0
LINE
  5
4B4E
  8
0
 10
154.91
 20
60.973815759311407
 30
0.0
 11
155.48735026918959
 21
60.917966083441513
 31
0.0
  0
LINE
  5
4B4F
  8
0
 10
155.4873502691882
 20
60.917966083441513
 30
0.0
 11
155.4873502691882
 21
58.612717257234522
 31
0.0
  0
LINE
  5
4B50
  8
0
 10
155.48735026918959
 20
58.612717257234522
 30
0.0
 11
154.91
 21
57.749129714514822
 31
0.0
  0
LINE
  5
4B51
  8
0
 10
154.91
 20
26.000000000000071
 30
0.0
 11
154.91
 21
74.000000000000085
 31
0.0
  0
LINE
  5
4B52
  8
0
 10
154.91
 20
63.964613973390982
 30
0.0
 11
155.48735026918959
 21
64.076180855869978
 31
0.0
  0
LINE
  5
4B53
  8
0
 10
155.48735026919121
 20
64.076180855869978
 30
0.0
 11
155.48735026919121
 21
61.938132693459274
 31
0.0
  0
LINE
  5
4B54
  8
0
 10
155.48735026918959
 20
61.938132693459274
 30
0.0
 11
154.91
 21
60.973815759311442
 31
0.0
  0
LINE
  5
4B55
  8
0
 10
154.91
 20
66.657780685295293
 30
0.0
 11
155.48735026918959
 21
66.934386271720058
 31
0.0
  0
LINE
  5
4B56
  8
0
 10
155.4873502691907
 20
66.934386271720058
 30
0.0
 11
155.4873502691907
 21
65.009107557714657
 31
0.0
  0
LINE
  5
4B57
  8
0
 10
155.48735026918959
 20
65.009107557714657
 30
0.0
 11
154.91
 21
63.964613973390982
 31
0.0
  0
LINE
  5
4B58
  8
0
 10
154.91
 20
68.995915722302186
 30
0.0
 11
155.48735026918959
 21
69.431664644826895
 31
0.0
  0
LINE
  5
4B59
  8
0
 10
155.48735026918919
 20
69.431664644826895
 30
0.0
 11
155.48735026918919
 21
67.760189352442779
 31
0.0
  0
LINE
  5
4B5A
  8
0
 10
155.48735026918959
 20
67.760189352442779
 30
0.0
 11
154.91
 21
66.657780685295293
 31
0.0
  0
LINE
  5
4B5B
  8
0
 10
154.91
 20
70.929185795451474
 30
0.0
 11
155.48735026918959
 21
71.514790822318133
 31
0.0
  0
LINE
  5
4B5C
  8
0
 10
155.48735026918871
 20
71.514790822318133
 30
0.0
 11
155.48735026918871
 21
70.132743545480196
 31
0.0
  0
LINE
  5
4B5D
  8
0
 10
155.48735026918959
 20
70.132743545480196
 30
0.0
 11
154.91
 21
68.995915722302215
 31
0.0
  0
LINE
  5
4B5E
  8
0
 10
154.91
 20
72.416386609581252
 30
0.0
 11
155.48735026918959
 21
73.139366586340444
 31
0.0
  0
LINE
  5
4B5F
  8
0
 10
155.487350269188
 20
73.139366586340444
 30
0.0
 11
155.487350269188
 21
72.076203263312863
 31
0.0
  0
LINE
  5
4B60
  8
0
 10
155.48735026918959
 20
72.076203263312863
 30
0.0
 11
154.91
 21
70.929185795451474
 31
0.0
  0
LINE
  5
4B61
  8
0
 10
154.91
 20
73.425821061342361
 30
0.0
 11
155.48735026918959
 21
74.270766924991364
 31
0.0
  0
LINE
  5
4B62
  8
0
 10
155.4873502691909
 20
74.270766924991364
 30
0.0
 11
155.4873502691909
 21
73.549147036193133
 31
0.0
  0
LINE
  5
4B63
  8
0
 10
155.48735026918959
 20
73.549147036193133
 30
0.0
 11
154.91
 21
72.416386609581252
 31
0.0
  0
LINE
  5
4B64
  8
0
 10
154.91
 20
73.935974807925334
 30
0.0
 11
155.48735026918959
 21
74.884878004333387
 31
0.0
  0
LINE
  5
4B65
  8
0
 10
155.4873502691874
 20
74.884878004333387
 30
0.0
 11
155.4873502691874
 21
74.520181624853834
 31
0.0
  0
LINE
  5
4B66
  8
0
 10
155.48735026918959
 20
74.520181624853834
 30
0.0
 11
154.91
 21
73.425821061342361
 31
0.0
  0
LINE
  5
4B67
  8
0
 10
155.48735026918979
 20
75.000000000000085
 30
0.0
 11
155.48735026918979
 21
74.968611112899481
 31
0.0
  0
LINE
  5
4B68
  8
0
 10
155.48735026918959
 20
74.968611112899481
 30
0.0
 11
154.91
 21
73.935974807925362
 31
0.0
  0
LINE
  5
4B7B
  8
1
 10
19.999999999998991
 20
50.000000000000078
 30
0.0
 11
79.999999999998622
 21
50.000000000000078
 31
0.0
  0
LINE
  5
4B7C
  8
1
 10
49.999999999999773
 20
20.00000000000027
 30
0.0
 11
49.999999999999773
 21
79.999999999999901
 31
0.0
  0
CIRCLE
  5
4B7D
  8
0
 10
49.999999999998799
 20
49.999999999999922
 30
0.0
 40
23.0
  0
CIRCLE
  5
4B7E
  8
0
 10
49.999999999998799
 20
49.999999999999922
 30
0.0
 40
10.000000000000171
  0
CIRCLE
  5
4B7F
  8
0
 10
49.999999999998799
 20
49.999999999999922
 30
0.0
 40
6.6666666666668561
  0
LINE
  5
4B80
  8
0
 10
73.983988360884553
 20
50.876528553383707
 30
0.0
 11
74.955798260258064
 21
51.485978867023682
 31
0.0
  0
ARC
  5
4B81
  8
0
 10
49.999999999996703
 20
49.999999999999602
 30
0.0
 40
25.000000000002121
 50
3.4076212416945988
 51
9.1505182931883695
  0
LINE
  5
4B82
  8
0
 10
74.997692764527926
 20
50.339641649697057
 30
0.0
 11
73.983988360884553
 21
50.876528553383729
 31
0.0
  0
LINE
  5
4B83
  8
0
 10
74.681849332957484
 20
53.975715470846183
 30
0.0
 11
73.600776243905955
 21
54.359284423506409
 31
0.0
  0
ARC
  5
4B84
  8
0
 10
49.999999999994877
 20
49.999999999999801
 30
0.0
 40
25.000000000003869
 50
355.03552821843988
 51
0.7784252699322863
  0
LINE
  5
4B85
  8
0
 10
73.856023405757526
 20
47.375090998930901
 30
0.0
 11
74.906213762074856
 21
47.836549968736691
 31
0.0
  0
LINE
  5
4B86
  8
0
 10
73.600776243906012
 20
54.359284423506352
 30
0.0
 11
74.473493245538464
 21
55.103736705642604
 31
0.0
  0
ARC
  5
4B87
  8
0
 10
49.999999999988688
 20
49.999999999996959
 30
0.0
 40
25.000000000010491
 50
11.779714264953361
 51
17.522611316443811
  0
LINE
  5
4B88
  8
0
 10
73.839955134253216
 20
57.52705381917351
 30
0.0
 11
72.714554555781433
 21
57.749129714514623
 31
0.0
  0
LINE
  5
4B89
  8
0
 10
74.78075377457219
 20
46.696328956453563
 30
0.0
 11
73.856023405757526
 21
47.375090998930943
 31
0.0
  0
ARC
  5
4B8A
  8
0
 10
49.999999999997549
 20
50.000000000000227
 30
0.0
 40
25.000000000001279
 50
346.66343519518313
 51
352.40633224667607
  0
LINE
  5
4B8B
  8
0
 10
73.219608729377001
 20
43.929598822599559
 30
0.0
 11
74.325796558481557
 21
44.233231251791828
 31
0.0
  0
LINE
  5
4B8C
  8
0
 10
72.714554555781433
 20
57.749129714514602
 30
0.0
 11
73.469578211950875
 21
58.612717257234351
 31
0.0
  0
ARC
  5
4B8D
  8
0
 10
49.999999999993861
 20
49.999999999998153
 30
0.0
 40
25.000000000005269
 50
20.151807288206811
 51
25.894704339699839
  0
LINE
  5
4B8E
  8
0
 10
72.489953681605698
 20
60.917966083441343
 30
0.0
 11
71.344211573179223
 21
60.973815759311272
 31
0.0
  0
LINE
  5
4B8F
  8
0
 10
74.035656041022534
 20
43.123428275834023
 30
0.0
 11
73.219608729377001
 21
43.92959882259958
 31
0.0
  0
ARC
  5
4B90
  8
0
 10
50.000000000000959
 20
49.999999999999091
 30
0.0
 40
24.999999999997691
 50
338.29134217192723
 51
344.03423922342262
  0
LINE
  5
4B91
  8
0
 10
72.088308405658609
 20
40.613486708236152
 30
0.0
 11
73.22691723448122
 21
40.752821198738197
 31
0.0
  0
LINE
  5
4B92
  8
0
 10
71.34421157317928
 20
60.973815759311201
 30
0.0
 11
71.965449865488949
 21
61.938132693459089
 31
0.0
  0
ARC
  5
4B93
  8
0
 10
49.999999999998522
 20
50.000000000000313
 30
0.0
 40
25.00000000000006
 50
28.523900311461091
 51
34.266797362955209
  0
LINE
  5
4B94
  8
0
 10
70.660617912172754
 20
64.076180855869836
 30
0.0
 11
69.518953777652371
 21
63.964613973390811
 31
0.0
  0
LINE
  5
4B95
  8
0
 10
72.778280028468089
 20
39.697089782753579
 30
0.0
 11
72.088308405658609
 21
40.613486708236188
 31
0.0
  0
ARC
  5
4B96
  8
0
 10
49.99999999999698
 20
50.000000000000938
 30
0.0
 40
25.0000000000021
 50
329.91924914867047
 51
335.6621462001649
  0
LINE
  5
4B97
  8
0
 10
70.486234136895121
 20
37.497431828289557
 30
0.0
 11
71.632996495045333
 21
37.469498707341941
 31
0.0
  0
LINE
  5
4B98
  8
0
 10
69.518953777652371
 20
63.964613973390748
 30
0.0
 11
69.993166090464683
 21
65.009107557714486
 31
0.0
  0
ARC
  5
4B99
  8
0
 10
49.999999999999488
 20
50.000000000000227
 30
0.0
 40
24.999999999999279
 50
36.895993334718149
 51
42.638890386212488
  0
LINE
  5
4B9A
  8
0
 10
68.390936941878124
 20
66.934386271719887
 30
0.0
 11
67.277683370190687
 21
66.657780685295137
 31
0.0
  0
LINE
  5
4B9B
  8
0
 10
71.035424523622623
 20
36.490339933553912
 30
0.0
 11
70.486234136895121
 21
37.497431828289614
 31
0.0
  0
ARC
  5
4B9C
  8
0
 10
50.000000000001762
 20
49.999999999997932
 30
0.0
 40
24.999999999996461
 50
321.54715612541662
 51
327.2900531769078
  0
LINE
  5
4B9D
  8
0
 10
68.447531354683576
 20
34.647847482586513
 30
0.0
 11
69.57800599344921
 21
34.453242096166107
 31
0.0
  0
LINE
  5
4B9E
  8
0
 10
67.277683370190744
 20
66.657780685295108
 30
0.0
 11
67.594762691361893
 21
67.76018935244258
 31
0.0
  0
ARC
  5
4B9F
  8
0
 10
49.999999999998572
 20
49.999999999998863
 30
0.0
 40
25.000000000000909
 50
45.268086357975818
 51
51.010983409469738
  0
LINE
  5
4BA0
  8
0
 10
65.729285080096588
 20
69.431664644826697
 30
0.0
 11
64.668169138347196
 21
68.995915722301987
 31
0.0
  0
LINE
  5
4BA1
  8
0
 10
68.844235465713041
 20
33.571525033871239
 30
0.0
 11
68.447531354683576
 21
34.647847482586542
 31
0.0
  0
ARC
  5
4BA2
  8
0
 10
49.999999999999432
 20
49.999999999999119
 30
0.0
 40
24.999999999999009
 50
313.17506310215862
 51
318.91796015365361
  0
LINE
  5
4BA3
  8
0
 10
66.015651469332511
 20
32.125467614149152
 30
0.0
 11
67.105744284462105
 21
31.76833763820332
 31
0.0
  0
LINE
  5
4BA4
  8
0
 10
64.668169138347196
 20
68.995915722301987
 30
0.0
 11
64.821357472643797
 21
70.132743545480025
 31
0.0
  0
ARC
  5
4BA5
  8
0
 10
49.999999999998749
 20
50.000000000000227
 30
0.0
 40
24.99999999999979
 50
53.640179381228492
 51
59.383076432722198
  0
LINE
  5
4BA6
  8
0
 10
62.73239081523456
 20
71.514790822317963
 30
0.0
 11
61.746028347464801
 21
70.929185795451303
 31
0.0
  0
LINE
  5
4BA7
  8
0
 10
66.251414245275384
 20
31.002854555791121
 30
0.0
 11
66.015651469332568
 21
32.125467614149159
 31
0.0
  0
ARC
  5
4BA8
  8
0
 10
49.999999999994202
 20
50.00000000000594
 30
0.0
 40
25.000000000007589
 50
304.80297007890601
 51
310.54586713039771
  0
LINE
  5
4BA9
  8
0
 10
63.242425778489462
 20
29.984052370642839
 30
0.0
 11
64.268903334193396
 21
29.472009410577609
 31
0.0
  0
LINE
  5
4BAA
  8
0
 10
61.746028347464907
 20
70.929185795451275
 30
0.0
 11
61.732060751499318
 21
72.076203263312664
 31
0.0
  0
ARC
  5
4BAB
  8
0
 10
50.000000000001307
 20
50.000000000005343
 30
0.0
 40
24.999999999994031
 50
62.012272404483959
 51
67.755169455980166
  0
LINE
  5
4BAC
  8
0
 10
59.464127745488838
 20
73.139366586340287
 30
0.0
 11
58.573541355225977
 21
72.416386609581053
 31
0.0
  0
LINE
  5
4BAD
  8
0
 10
63.312222345096018
 20
28.839075250956121
 30
0.0
 11
63.242425778489519
 21
29.984052370642861
 31
0.0
  0
ARC
  5
4BAE
  8
0
 10
49.999999999997783
 20
50.000000000001499
 30
0.0
 40
25.00000000000189
 50
296.43087705564949
 51
302.1737741071413
  0
LINE
  5
4BAF
  8
0
 10
60.18696077301837
 20
28.2692423001644
 30
0.0
 11
61.127945482315972
 21
27.61319966269005
 31
0.0
  0
LINE
  5
4BB0
  8
0
 10
58.573541355226041
 20
72.416386609581053
 30
0.0
 11
58.392715524056477
 21
73.549147036193006
 31
0.0
  0
ARC
  5
4BB1
  8
0
 10
49.999999999998238
 20
49.999999999997669
 30
0.0
 40
25.000000000002331
 50
70.384365427742324
 51
76.127262479236734
  0
LINE
  5
4BB2
  8
0
 10
55.994153223995511
 20
74.270766924991165
 30
0.0
 11
55.21832421395618
 21
73.425821061342162
 31
0.0
  0
LINE
  5
4BB3
  8
0
 10
60.089303537648668
 20
27.126304318602791
 30
0.0
 11
60.18696077301837
 21
28.269242300164411
 31
0.0
  0
ARC
  5
4BB4
  8
0
 10
49.99999999999897
 20
49.999999999998778
 30
0.0
 40
24.999999999998849
 50
288.05878403239387
 51
293.80168108388699
  0
LINE
  5
4BB5
  8
0
 10
56.914378384764461
 20
27.017585602198182
 30
0.0
 11
57.749814792267948
 21
26.231525697143908
 31
0.0
  0
LINE
  5
4BB6
  8
0
 10
55.218324213956237
 20
73.425821061342134
 30
0.0
 11
54.874494136233231
 21
74.520181624853677
 31
0.0
  0
ARC
  5
4BB7
  8
0
 10
49.999999999999538
 20
50.000000000003439
 30
0.0
 40
24.999999999996412
 50
78.756458450997471
 51
84.499355502493231
  0
LINE
  5
4BB8
  8
0
 10
52.396423733283143
 20
74.884878004333174
 30
0.0
 11
51.751887551860591
 21
73.935974807925135
 31
0.0
  0
LINE
  5
4BB9
  8
0
 10
56.65134874184286
 20
25.901046497526639
 30
0.0
 11
56.914378384764518
 21
27.017585602198182
 31
0.0
  0
ARC
  5
4BBA
  8
0
 10
49.99999999999784
 20
50.000000000003972
 30
0.0
 40
25.000000000004189
 50
279.68669100913718
 51
285.42958806062882
  0
LINE
  5
4BBB
  8
0
 10
53.494428025638911
 20
26.255759166197269
 30
0.0
 11
54.206510254765419
 21
25.35643549572125
 31
0.0
  0
LINE
  5
4BBC
  8
0
 10
51.751887551860591
 20
73.935974807925135
 30
0.0
 11
51.252381368750207
 21
74.968611112899339
 31
0.0
  0
ARC
  5
4BBD
  8
0
 10
49.99999999999914
 20
50.00000000000103
 30
0.0
 40
24.999999999998881
 50
87.128551474254493
 51
92.871448525748747
  0
LINE
  5
4BBE
  8
0
 10
48.747618631247398
 20
74.96861111289931
 30
0.0
 11
48.248112448137022
 21
73.935974807925135
 31
0.0
  0
LINE
  5
4BBF
  8
0
 10
53.071631995345278
 20
25.189416030952259
 30
0.0
 11
53.49442802563896
 21
26.25575916619729
 31
0.0
  0
ARC
  5
4BC0
  8
0
 10
49.999999999998863
 20
50.00000000000162
 30
0.0
 40
25.000000000001691
 50
271.3145979858798
 51
277.05749503737258
  0
LINE
  5
4BC1
  8
0
 10
49.999999999998799
 20
25.999999999999929
 30
0.0
 11
50.573551254316158
 21
25.00658008677734
 31
0.0
  0
LINE
  5
4BC2
  8
0
 10
48.248112448137022
 20
73.935974807925135
 30
0.0
 11
47.60357626671447
 21
74.884878004333217
 31
0.0
  0
ARC
  5
4BC3
  8
0
 10
49.999999999998288
 20
50.00000000000307
 30
0.0
 40
24.999999999996799
 50
95.500644497510024
 51
101.2435415490025
  0
LINE
  5
4BC4
  8
0
 10
45.125505863764367
 20
74.520181624853677
 30
0.0
 11
44.781675786041433
 21
73.425821061342162
 31
0.0
  0
LINE
  5
4BC5
  8
0
 10
49.426448745681398
 20
25.006580086777351
 30
0.0
 11
49.999999999998799
 21
25.999999999999929
 31
0.0
  0
ARC
  5
4BC6
  8
0
 10
49.999999999998643
 20
49.99999999999843
 30
0.0
 40
24.999999999998511
 50
262.94250496262401
 51
268.6854020141202
  0
LINE
  5
4BC7
  8
0
 10
46.505571974358652
 20
26.25575916619729
 30
0.0
 11
46.92836800465232
 21
25.18941603095227
 31
0.0
  0
LINE
  5
4BC8
  8
0
 10
44.781675786041433
 20
73.425821061342162
 30
0.0
 11
44.005846776002087
 21
74.270766924991193
 31
0.0
  0
ARC
  5
4BC9
  8
0
 10
50.000000000000171
 20
49.999999999996867
 30
0.0
 40
25.0000000000033
 50
103.87273752076661
 51
109.6156345722577
  0
LINE
  5
4BCA
  8
0
 10
41.607284475941178
 20
73.549147036192963
 30
0.0
 11
41.426458644771621
 21
72.416386609581053
 31
0.0
  0
LINE
  5
4BCB
  8
0
 10
45.793489745232193
 20
25.356435495721321
 30
0.0
 11
46.505571974358702
 21
26.25575916619729
 31
0.0
  0
ARC
  5
4BCC
  8
0
 10
49.999999999997783
 20
49.99999999999784
 30
0.0
 40
24.99999999999774
 50
254.57041193937121
 51
260.31330899086612
  0
LINE
  5
4BCD
  8
0
 10
43.085621615233087
 20
27.017585602198182
 30
0.0
 11
43.348651258154753
 21
25.901046497526639
 31
0.0
  0
LINE
  5
4BCE
  8
0
 10
41.426458644771621
 20
72.416386609581053
 30
0.0
 11
40.535872254508767
 21
73.139366586340287
 31
0.0
  0
ARC
  5
4BCF
  8
0
 10
49.999999999997151
 20
50.000000000003467
 30
0.0
 40
24.999999999996088
 50
112.24483054401981
 51
117.98772759551601
  0
LINE
  5
4BD0
  8
0
 10
38.267939248498287
 20
72.076203263312692
 30
0.0
 11
38.253971652532762
 21
70.929185795451275
 31
0.0
  0
LINE
  5
4BD1
  8
0
 10
42.25018520772965
 20
26.231525697143908
 30
0.0
 11
43.085621615233087
 21
27.017585602198182
 31
0.0
  0
ARC
  5
4BD2
  8
0
 10
50.0
 20
50.000000000003183
 30
0.0
 40
25.000000000003471
 50
246.1983189161131
 51
251.9412159676061
  0
LINE
  5
4BD3
  8
0
 10
39.813039226979242
 20
28.269242300164422
 30
0.0
 11
39.910696462348938
 21
27.126304318602781
 31
0.0
  0
LINE
  5
4BD4
  8
0
 10
38.253971652532762
 20
70.929185795451303
 30
0.0
 11
37.267609184763053
 21
71.514790822317963
 31
0.0
  0
ARC
  5
4BD5
  8
0
 10
49.99999999999698
 20
50.000000000002807
 30
0.0
 40
24.999999999996579
 50
120.61692356727779
 51
126.35982061877149
  0
LINE
  5
4BD6
  8
0
 10
35.178642527353823
 20
70.132743545480025
 30
0.0
 11
35.331830861650417
 21
68.995915722302016
 31
0.0
  0
LINE
  5
4BD7
  8
0
 10
38.872054517681647
 20
27.613199662690079
 30
0.0
 11
39.813039226979242
 21
28.269242300164411
 31
0.0
  0
ARC
  5
4BD8
  8
0
 10
49.999999999996248
 20
49.999999999995651
 30
0.0
 40
24.99999999999503
 50
237.82622589285879
 51
243.56912294435389
  0
LINE
  5
4BD9
  8
0
 10
36.757574221508087
 20
29.984052370642871
 30
0.0
 11
36.687777654901602
 21
28.839075250956121
 31
0.0
  0
LINE
  5
4BDA
  8
0
 10
35.331830861650417
 20
68.995915722302016
 30
0.0
 11
34.270714919901032
 21
69.431664644826725
 31
0.0
  0
ARC
  5
4BDB
  8
0
 10
49.999999999997328
 20
50.000000000001528
 30
0.0
 40
24.999999999997801
 50
128.9890165905303
 51
134.73191364202441
  0
LINE
  5
4BDC
  8
0
 10
32.405237308635719
 20
67.760189352442609
 30
0.0
 11
32.722316629806933
 21
66.657780685295108
 31
0.0
  0
LINE
  5
4BDD
  8
0
 10
35.731096665804223
 20
29.472009410577609
 30
0.0
 11
36.75757422150815
 21
29.984052370642839
 31
0.0
  0
ARC
  5
4BDE
  8
0
 10
49.999999999999829
 20
50.000000000000988
 30
0.0
 40
25.000000000001489
 50
229.45413286960229
 51
235.1970299210941
  0
LINE
  5
4BDF
  8
0
 10
33.984348530665038
 20
32.125467614149173
 30
0.0
 11
33.748585754722228
 21
31.002854555791131
 31
0.0
  0
LINE
  5
4BE0
  8
0
 10
32.722316629806933
 20
66.657780685295137
 30
0.0
 11
31.609063058119489
 21
66.934386271719887
 31
0.0
  0
ARC
  5
4BE1
  8
0
 10
50.0
 20
49.999999999998863
 30
0.0
 40
25.00000000000162
 50
137.36110961378989
 51
143.10400666528179
  0
LINE
  5
4BE2
  8
0
 10
30.006833909532929
 20
65.009107557714486
 30
0.0
 11
30.481046222345238
 21
63.964613973390783
 31
0.0
  0
LINE
  5
4BE3
  8
0
 10
32.894255715535451
 20
31.768337638203349
 30
0.0
 11
33.984348530665038
 21
32.125467614149159
 31
0.0
  0
ARC
  5
4BE4
  8
0
 10
50.000000000002728
 20
50.00000000000378
 30
0.0
 40
25.000000000005478
 50
221.08203984634679
 51
226.82493689784141
  0
LINE
  5
4BE5
  8
0
 10
31.55246864531404
 20
34.647847482586563
 30
0.0
 11
31.155764534284572
 21
33.571525033871232
 31
0.0
  0
LINE
  5
4BE6
  8
0
 10
30.481046222345238
 20
63.964613973390783
 30
0.0
 11
29.339382087824902
 21
64.076180855869808
 31
0.0
  0
ARC
  5
4BE7
  8
0
 10
50.000000000001421
 20
49.99999999999855
 30
0.0
 40
25.00000000000291
 50
145.73320263704471
 51
151.47609968853649
  0
LINE
  5
4BE8
  8
0
 10
28.03455013450867
 20
61.938132693459089
 30
0.0
 11
28.65578842681839
 21
60.973815759311229
 31
0.0
  0
LINE
  5
4BE9
  8
0
 10
30.421994006548399
 20
34.45324209616615
 30
0.0
 11
31.55246864531404
 21
34.647847482586542
 31
0.0
  0
ARC
  5
4BEA
  8
0
 10
49.999999999998749
 20
50.000000000000647
 30
0.0
 40
25.000000000000359
 50
212.70994682309291
 51
218.4528438745856
  0
LINE
  5
4BEB
  8
0
 10
29.513765863102488
 20
37.497431828289621
 30
0.0
 11
28.964575476374989
 21
36.490339933553912
 31
0.0
  0
LINE
  5
4BEC
  8
0
 10
28.65578842681839
 20
60.973815759311229
 30
0.0
 11
27.510046318391922
 21
60.917966083441343
 31
0.0
  0
ARC
  5
4BED
  8
0
 10
49.999999999998408
 20
50.000000000000199
 30
0.0
 40
24.99999999999952
 50
154.10529566029939
 51
159.8481927117939
  0
LINE
  5
4BEE
  8
0
 10
26.530421788046741
 20
58.612717257234351
 30
0.0
 11
27.28544544421618
 21
57.749129714514623
 31
0.0
  0
LINE
  5
4BEF
  8
0
 10
28.367003504952269
 20
37.469498707341977
 30
0.0
 11
29.513765863102488
 21
37.497431828289621
 31
0.0
  0
ARC
  5
4BF0
  8
0
 10
49.999999999998472
 20
50.000000000000369
 30
0.0
 40
24.999999999999851
 50
204.33785379983689
 51
210.0807508513295
  0
LINE
  5
4BF1
  8
0
 10
27.911691594339011
 20
40.613486708236188
 30
0.0
 11
27.221719971529581
 21
39.697089782753601
 31
0.0
  0
LINE
  5
4BF2
  8
0
 10
27.28544544421618
 20
57.749129714514623
 30
0.0
 11
26.1600448657444
 21
57.527053819173553
 31
0.0
  0
ARC
  5
4BF3
  8
0
 10
50.000000000006651
 20
49.999999999997783
 30
0.0
 40
25.000000000008129
 50
162.47738868355589
 51
168.22028573504821
  0
LINE
  5
4BF4
  8
0
 10
25.526506754459149
 20
55.103736705642604
 30
0.0
 11
26.399223756091601
 21
54.359284423506381
 31
0.0
  0
LINE
  5
4BF5
  8
0
 10
26.773082765516339
 20
40.752821198738197
 30
0.0
 11
27.911691594339011
 21
40.613486708236152
 31
0.0
  0
ARC
  5
4BF6
  8
0
 10
50.000000000004199
 20
50.000000000001528
 30
0.0
 40
25.00000000000562
 50
195.96576077657949
 51
201.7086578280703
  0
LINE
  5
4BF7
  8
0
 10
26.780391270620608
 20
43.929598822599601
 30
0.0
 11
25.964343958975011
 21
43.123428275834023
 31
0.0
  0
LINE
  5
4BF8
  8
0
 10
26.399223756091661
 20
54.359284423506409
 30
0.0
 11
25.318150667040129
 21
53.975715470846211
 31
0.0
  0
ARC
  5
4BF9
  8
0
 10
50.000000000001251
 20
49.999999999999631
 30
0.0
 40
25.000000000002451
 50
170.84948170681139
 51
176.5923787583053
  0
LINE
  5
4BFA
  8
0
 10
25.044201739739549
 20
51.485978867023697
 30
0.0
 11
26.01601163911306
 21
50.876528553383707
 31
0.0
  0
LINE
  5
4BFB
  8
0
 10
25.674203441516109
 20
44.23323125179185
 30
0.0
 11
26.780391270620608
 21
43.92959882259958
 31
0.0
  0
ARC
  5
4BFC
  8
0
 10
49.999999999996298
 20
49.999999999999659
 30
0.0
 40
24.99999999999747
 50
187.59366775332381
 51
193.3365648048169
  0
LINE
  5
4BFD
  8
0
 10
26.14397659424009
 20
47.375090998930943
 30
0.0
 11
25.219246225425419
 21
46.696328956453563
 31
0.0
  0
LINE
  5
4BFE
  8
0
 10
26.01601163911306
 20
50.876528553383729
 30
0.0
 11
25.00230723546969
 21
50.339641649697057
 31
0.0
  0
ARC
  5
4BFF
  8
0
 10
50.000000000001528
 20
50.000000000000391
 30
0.0
 40
25.0000000000027
 50
179.22157473006769
 51
184.96447178156171
  0
LINE
  5
4C00
  8
0
 10
25.09378623792276
 20
47.836549968736712
 30
0.0
 11
26.14397659424009
 21
47.375090998930943
 31
0.0
  0
CIRCLE
  5
4C01
  8
0
 10
49.999999999999091
 20
49.999999999999972
 30
0.0
 40
24.00000000000027
  0
CIRCLE
  5
4C0C
  8
0
 10
49.999999999998799
 20
50.000000000000078
 30
0.0
 40
4.9999999999999956
  0
CIRCLE
  5
4C0D
  8
3
 10
49.999999999999829
 20
50.000000000000078
 30
0.0
 40
4.1879999999999882
  0
LINE
  5
530F
  8
0
 10
104.92
 20
55.000000000000078
 30
0.0
 11
104.0
 21
54.080000000000098
 31
0.0
  0
LINE
  5
5310
  8
0
 10
104.0
 20
45.920000000000073
 30
0.0
 11
104.92
 21
45.000000000000078
 31
0.0
  0
LINE
  5
5311
  8
0
 10
134.0
 20
55.000000000000078
 30
0.0
 11
104.92
 21
55.000000000000078
 31
0.0
  0
LINE
  5
5312
  8
0
 10
104.92
 20
45.000000000000078
 30
0.0
 11
134.0
 21
45.000000000000078
 31
0.0
  0
LINE
  5
55DA
  8
0
 10
104.0
 20
45.920000000000073
 30
0.0
 11
104.0
 21
54.080000000000098
 31
0.0
  0
LINE
  5
55DB
  8
0
 10
104.92
 20
45.000000000000078
 30
0.0
 11
104.92
 21
55.000000000000078
 31
0.0
  0
LINE
  5
55DC
  8
3
 10
104.108
 20
54.188000000000159
 30
0.0
 11
133.0
 21
54.188000000000159
 31
0.0
  0
LINE
  5
55DD
  8
3
 10
133.8826086956521
 20
55.000000000000078
 30
0.0
 11
133.0
 21
54.188000000000159
 31
0.0
  0
LINE
  5
55DE
  8
0
 10
133.0
 20
55.000000000000078
 30
0.0
 11
133.0
 21
45.000000000000078
 31
0.0
  0
LINE
  5
55DF
  8
3
 10
104.108
 20
45.811999999999983
 30
0.0
 11
133.0
 21
45.811999999999983
 31
0.0
  0
LINE
  5
55E0
  8
3
 10
133.8826086956521
 20
45.000000000000057
 30
0.0
 11
133.0
 21
45.811999999999983
 31
0.0
  0
TEXT
  5
5662
  8
0
 62
     3
 10
0.0
 20
0.0
 30
0.0
 40
10.0
  1
GK50AX30N-YE
  7
STANDARD1
  0
ENDSEC
  0
EOF
