  0
SECTION
  2
HEADER
  9
$ACADVER
  1
AC1009
  9
$INSBASE
 10
0.0
 20
0.0
 30
0.0
  9
$EXTMIN
 10
0.0
 20
-2.960436562073669
 30
0.0
  9
$EXTMAX
 10
194.75000000000051
 20
74.750000000000057
 30
0.0
  9
$LIMMIN
 10
0.0
 20
0.0
  9
$LIMMAX
 10
187.5
 20
135.0
  9
$ORTHOMODE
 70
     1
  9
$REGENMODE
 70
     1
  9
$FILLMODE
 70
     1
  9
$QTEXTMODE
 70
     0
  9
$MIRRTEXT
 70
     0
  9
$DRAGMODE
 70
     2
  9
$LTSCALE
 40
5.0
  9
$OSMODE
 70
    37
  9
$ATTMODE
 70
     1
  9
$TEXTSIZE
 40
2.5000000000000488
  9
$TRACEWID
 40
0.05
  9
$TEXTSTYLE
  7
STANDARD
  9
$CLAYER
  8
0
  9
$CELTYPE
  6
BYLAYER
  9
$CECOLOR
 62
   256
  9
$DIMSCALE
 40
0.5
  9
$DIMASZ
 40
3.0
  9
$DIMEXO
 40
2.0
  9
$DIMDLI
 40
0.38
  9
$DIMRND
 40
0.0
  9
$DIMDLE
 40
0.0
  9
$DIMEXE
 40
2.0
  9
$DIMTP
 40
0.0
  9
$DIMTM
 40
0.0
  9
$DIMTXT
 40
3.2000000000000002
  9
$DIMCEN
 40
0.0
  9
$DIMTSZ
 40
0.0
  9
$DIMTOL
 70
     0
  9
$DIMLIM
 70
     0
  9
$DIMTIH
 70
     0
  9
$DIMTOH
 70
     0
  9
$DIMSE1
 70
     0
  9
$DIMSE2
 70
     0
  9
$DIMTAD
 70
     1
  9
$DIMZIN
 70
     0
  9
$DIMBLK
  1

  9
$DIMASO
 70
     1
  9
$DIMSHO
 70
     0
  9
$DIMPOST
  1

  9
$DIMAPOST
  1

  9
$DIMALT
 70
     0
  9
$DIMALTD
 70
     2
  9
$DIMALTF
 40
25.399999999999999
  9
$DIMLFAC
 40
1.0
  9
$DIMTOFL
 70
     1
  9
$DIMTVP
 40
1.6000000000000001
  9
$DIMTIX
 70
     1
  9
$DIMSOXD
 70
     0
  9
$DIMSAH
 70
     0
  9
$DIMBLK1
  1

  9
$DIMBLK2
  1

  9
$DIMSTYLE
  2
STANDARD
  9
$DIMCLRD
 70
     0
  9
$DIMCLRE
 70
     0
  9
$DIMCLRT
 70
     0
  9
$DIMTFAC
 40
1.0
  9
$DIMGAP
 40
0.09
  9
$LUNITS
 70
     2
  9
$LUPREC
 70
     1
  9
$SKETCHINC
 40
0.1
  9
$FILLETRAD
 40
0.0
  9
$AUNITS
 70
     0
  9
$AUPREC
 70
     1
  9
$MENU
  1
E:\r13\win\SUPPORT\ACAD
  9
$ELEVATION
 40
0.0
  9
$PELEVATION
 40
0.0
  9
$THICKNESS
 40
0.0
  9
$LIMCHECK
 70
     0
  9
$BLIPMODE
 70
     0
  9
$CHAMFERA
 40
0.0
  9
$CHAMFERB
 40
0.0
  9
$SKPOLY
 70
     0
  9
$TDCREATE
 40
2449839.787418982
  9
$TDUPDATE
 40
2457162.6026976961
  9
$TDINDWG
 40
0.3448231597
  9
$TDUSRTIMER
 40
0.3448231597
  9
$USRTIMER
 70
     1
  9
$ANGBASE
 50
0.0
  9
$ANGDIR
 70
     0
  9
$PDMODE
 70
     0
  9
$PDSIZE
 40
0.0
  9
$PLINEWID
 40
0.0
  9
$COORDS
 70
     1
  9
$SPLFRAME
 70
     0
  9
$SPLINETYPE
 70
     6
  9
$SPLINESEGS
 70
     8
  9
$ATTDIA
 70
     0
  9
$ATTREQ
 70
     1
  9
$HANDLING
 70
     1
  9
$HANDSEED
  5
28FD
  9
$SURFTAB1
 70
     6
  9
$SURFTAB2
 70
     6
  9
$SURFTYPE
 70
     6
  9
$SURFU
 70
     6
  9
$SURFV
 70
     6
  9
$UCSNAME
  2

  9
$UCSORG
 10
0.0
 20
0.0
 30
0.0
  9
$UCSXDIR
 10
1.0
 20
0.0
 30
0.0
  9
$UCSYDIR
 10
0.0
 20
1.0
 30
0.0
  9
$PUCSNAME
  2

  9
$PUCSORG
 10
0.0
 20
0.0
 30
0.0
  9
$PUCSXDIR
 10
1.0
 20
0.0
 30
0.0
  9
$PUCSYDIR
 10
0.0
 20
1.0
 30
0.0
  9
$USERI1
 70
     0
  9
$USERI2
 70
     1
  9
$USERI3
 70
     1
  9
$USERI4
 70
     0
  9
$USERI5
 70
     0
  9
$USERR1
 40
0.0
  9
$USERR2
 40
0.0
  9
$USERR3
 40
0.0
  9
$USERR4
 40
0.0
  9
$USERR5
 40
0.0
  9
$WORLDVIEW
 70
     1
  9
$SHADEDGE
 70
     3
  9
$SHADEDIF
 70
    70
  9
$TILEMODE
 70
     1
  9
$MAXACTVP
 70
    16
  9
$PLIMCHECK
 70
     0
  9
$PEXTMIN
 10
1.0000000000000000E+020
 20
1.0000000000000000E+020
 30
1.0000000000000000E+020
  9
$PEXTMAX
 10
-1.0000000000000000E+020
 20
-1.0000000000000000E+020
 30
-1.0000000000000000E+020
  9
$PLIMMIN
 10
0.0
 20
0.0
  9
$PLIMMAX
 10
12.0
 20
9.0
  9
$UNITMODE
 70
     0
  9
$VISRETAIN
 70
     0
  9
$PLINEGEN
 70
     0
  9
$PSLTSCALE
 70
     0
  0
ENDSEC
  0
SECTION
  2
TABLES
  0
TABLE
  2
VPORT
 70
     1
  0
VPORT
  2
*ACTIVE
 70
     0
 10
0.0
 20
0.0
 11
1.0
 21
1.0
 12
245.1950156837934
 22
135.0
 13
0.0
 23
0.0
 14
5.0
 24
5.0
 15
5.0
 25
5.0
 16
0.0
 26
0.0
 36
1.0
 17
0.0
 27
0.0
 37
0.0
 40
270.0233057387166
 41
1.816239316239316
 42
50.0
 43
0.0
 44
0.0
 50
0.0
 51
0.0
 71
     0
 72
   500
 73
     1
 74
     0
 75
     0
 76
     0
 77
     0
 78
     2
  0
ENDTAB
  0
TABLE
  2
LTYPE
 70
     3
  0
LTYPE
  2
CONTINUOUS
 70
     0
  3
Solid Line
 72
    65
 73
     0
 40
0.0
  0
LTYPE
  2
CENTER
 70
     0
  3
____ _ ____ _ ____ _ ____ _ ____ _ ____ _ ____
 72
    65
 73
     4
 40
2.0
 49
1.25
 49
-0.25
 49
0.25
 49
-0.25
  0
LTYPE
  2
PHANTOM2
 70
     0
  3
___ _ _ ___ _ _ ___ _ _ ___ _ _
 72
    65
 73
     6
 40
1.25
 49
0.625
 49
-0.125
 49
0.125
 49
-0.125
 49
0.125
 49
-0.125
  0
ENDTAB
  0
TABLE
  2
LAYER
 70
     3
  0
LAYER
  2
0
 70
     0
 62
     7
  6
CONTINUOUS
  0
LAYER
  2
1
 70
     0
 62
     1
  6
CENTER
  0
LAYER
  2
3
 70
     0
 62
     3
  6
CONTINUOUS
  0
ENDTAB
  0
TABLE
  2
STYLE
 70
     2
  0
STYLE
  2
STANDARD
 70
     0
 40
0.0
 41
1.0
 50
0.0
 71
     0
 42
2.5000000000000488
  3
TXT
  4
BIGFONT
  0
STYLE
  2
STANDARD1
 70
     0
 40
0.0
 41
1.0
 50
0.0
 71
     0
 42
3.0
  3
txt
  4

  0
ENDTAB
  0
TABLE
  2
VIEW
 70
     2
  0
VIEW
  2
ALL
 70
     0
 40
135.0
 10
110.4957983193277
 20
67.5
 41
0.0
 11
0.0
 21
0.0
 31
1.0
 12
0.0
 22
0.0
 32
0.0
 42
0.0
 43
0.0
 44
0.0
 50
0.0
 71
     0
  0
VIEW
  2
OLE1
 70
     0
 40
63.825144965398117
 10
233.6237691698706
 20
4.175601147383162
 41
113.79500935111911
 11
0.0
 21
0.0
 31
1.0
 12
0.0
 22
0.0
 32
0.0
 42
50.0
 43
0.0
 44
0.0
 50
0.0
 71
     0
  0
ENDTAB
  0
TABLE
  2
UCS
 70
     0
  0
ENDTAB
  0
TABLE
  2
APPID
 70
     6
  0
APPID
  2
ACAD
 70
     0
  0
APPID
  2
ACAD_EXEMPT_FROM_CAD_STANDARDS
 70
     0
  0
APPID
  2
ACAD_MLEADERVER
 70
     0
  0
APPID
  2
ACAD_DSTYLE_DIMJAG
 70
     0
  0
APPID
  2
ACAD_DSTYLE_DIMTALN
 70
     0
  0
APPID
  2
ACAD_NAV_VCDISPLAY
 70
     0
  0
ENDTAB
  0
TABLE
  2
DIMSTYLE
 70
     1
  0
DIMSTYLE
  2
STANDARD
 70
     0
  3

  4

  5

  6

  7

 40
1.0
 41
0.18
 42
0.0625
 43
0.38
 44
0.18
 45
0.0
 46
0.0
 47
0.0
 48
0.0
140
0.18
141
0.09
142
0.0
143
25.399999999999999
144
1.0
145
0.0
146
1.0
147
0.09
 71
     0
 72
     0
 73
     1
 74
     1
 75
     0
 76
     0
 77
     0
 78
     0
170
     0
171
     2
172
     0
173
     0
174
     0
175
     0
176
     0
177
     0
178
     0
  0
ENDTAB
  0
ENDSEC
  0
SECTION
  2
BLOCKS
  0
BLOCK
  8
0
  2
$MODEL_SPACE
 70
     0
 10
0.0
 20
0.0
 30
0.0
  3
$MODEL_SPACE
  1

  0
ENDBLK
  5
85E
  8
0
  0
BLOCK
 67
     1
  8
0
  2
$PAPER_SPACE
 70
     0
 10
0.0
 20
0.0
 30
0.0
  3
$PAPER_SPACE
  1

  0
ENDBLK
  5
85C
 67
     1
  8
0
  0
ENDSEC
  0
SECTION
  2
ENTITIES
  0
LINE
  5
1E0C
  8
1
 10
145.25000000000051
 20
50.000000000000092
 30
0.0
 11
194.75000000000051
 21
50.000000000000078
 31
0.0
  0
LINE
  5
1E0D
  8
1
 10
170.00000000000051
 20
25.250000000000131
 30
0.0
 11
170.00000000000051
 21
74.750000000000057
 31
0.0
  0
CIRCLE
  5
1E0E
  8
0
 10
170.00000000000011
 20
50.000000000000057
 30
0.0
 40
17.75
  0
CIRCLE
  5
1E10
  8
0
 10
170.00000000000011
 20
50.000000000000057
 30
0.0
 40
9.4939393939393923
  0
CIRCLE
  5
1E11
  8
0
 10
170.00000000000011
 20
50.000000000000057
 30
0.0
 40
7.7272727272727266
  0
LINE
  5
1E12
  8
0
 10
189.74169895743401
 20
49.427442339970582
 30
0.0
 11
188.75000000000011
 21
50.000000000000057
 31
0.0
  0
LINE
  5
1E13
  8
0
 10
188.75000000000011
 20
50.000000000000043
 30
0.0
 11
189.7416989574339
 21
50.572557660029503
 31
0.0
  0
ARC
  5
1E14
  8
0
 10
169.99999999999801
 20
50.000000000000341
 30
0.0
 40
19.750000000002149
 50
351.07301707475608
 51
358.33874763112522
  0
ARC
  5
1E15
  8
0
 10
170.00000000000469
 20
50.000000000000419
 30
0.0
 40
19.74999999999541
 50
1.661252368873118
 51
8.9269829252446478
  0
LINE
  5
1E16
  8
0
 10
188.43074561907329
 20
46.554696540939339
 30
0.0
 11
189.51076621116789
 21
46.93528111351862
 31
0.0
  0
LINE
  5
1E17
  8
0
 10
189.51076621116789
 20
53.064718886481472
 30
0.0
 11
188.43074561907329
 21
53.445303459060739
 31
0.0
  0
LINE
  5
1E18
  8
0
 10
189.3003518232627
 20
45.809663557864781
 30
0.0
 11
188.43074561907329
 21
46.554696540939339
 31
0.0
  0
LINE
  5
1E19
  8
0
 10
188.43074561907329
 20
53.445303459060739
 30
0.0
 11
189.3003518232627
 21
54.190336442135319
 31
0.0
  0
ARC
  5
1E1A
  8
0
 10
170.00000000000091
 20
49.99999999999968
 30
0.0
 40
19.749999999999119
 50
340.48478178063863
 51
347.7505123370085
  0
LINE
  5
1E1B
  8
0
 10
187.4838543013318
 20
43.22671875899092
 30
0.0
 11
188.61541772216529
 21
43.402369892961701
 31
0.0
  0
ARC
  5
1E1C
  8
0
 10
169.9999999999971
 20
49.999999999999517
 30
0.0
 40
19.750000000003059
 50
12.249487662991539
 51
19.515218219359099
  0
LINE
  5
1E1D
  8
0
 10
188.61541772216529
 20
56.597630107038398
 30
0.0
 11
187.4838543013318
 21
56.773281241009187
 31
0.0
  0
LINE
  5
1E1E
  8
0
 10
188.20175435597079
 20
42.334581657541278
 30
0.0
 11
187.4838543013318
 21
43.226718758990913
 31
0.0
  0
LINE
  5
1E1F
  8
0
 10
187.4838543013318
 20
56.773281241009158
 30
0.0
 11
188.20175435597079
 21
57.665418342458821
 31
0.0
  0
ARC
  5
1E20
  8
0
 10
169.99999999999869
 20
50.000000000000647
 30
0.0
 40
19.750000000001538
 50
329.8965464865218
 51
337.16227704289071
  0
LINE
  5
1E21
  8
0
 10
185.94157129493041
 20
40.129396946049617
 30
0.0
 11
187.0861435093671
 21
40.094133052714852
 31
0.0
  0
ARC
  5
1E22
  8
0
 10
169.99999999999841
 20
49.999999999999517
 30
0.0
 40
19.750000000001808
 50
22.8377229571093
 51
30.10345351347819
  0
LINE
  5
1E23
  8
0
 10
187.0861435093671
 20
59.905866947285261
 30
0.0
 11
185.94157129493041
 21
59.870603053950511
 31
0.0
  0
LINE
  5
1E24
  8
0
 10
186.4833179746845
 20
39.120536385214237
 30
0.0
 11
185.94157129493041
 21
40.129396946049638
 31
0.0
  0
LINE
  5
1E25
  8
0
 10
185.94157129493041
 20
59.870603053950468
 30
0.0
 11
186.4833179746845
 21
60.879463614785827
 31
0.0
  0
ARC
  5
1E26
  8
0
 10
169.99999999999949
 20
50.000000000000767
 30
0.0
 40
19.750000000000991
 50
319.30831119240452
 51
326.57404174877252
  0
LINE
  5
1E27
  8
0
 10
183.85641719788751
 20
37.3682066816271
 30
0.0
 11
184.97502117192781
 21
37.123228630579902
 31
0.0
  0
ARC
  5
1E28
  8
0
 10
169.99999999999861
 20
49.999999999998863
 30
0.0
 40
19.750000000001918
 50
33.425958251227499
 51
40.691688807595114
  0
LINE
  5
1E29
  8
0
 10
184.97502117192781
 20
62.87677136942019
 30
0.0
 11
183.85641719788751
 21
62.631793318372992
 31
0.0
  0
LINE
  5
1E2A
  8
0
 10
184.20356196933119
 20
36.276978197810372
 30
0.0
 11
183.85641719788751
 21
37.368206681627122
 31
0.0
  0
LINE
  5
1E2B
  8
0
 10
183.85641719788751
 20
62.631793318372992
 30
0.0
 11
184.20356196933119
 21
63.72302180218972
 31
0.0
  0
ARC
  5
1E2C
  8
0
 10
169.9999999999996
 20
50.000000000000853
 30
0.0
 40
19.750000000000941
 50
308.72007589828593
 51
315.98580645465557
  0
LINE
  5
1E2D
  8
0
 10
181.29939943211119
 20
35.03717698849556
 30
0.0
 11
182.35394244903679
 21
34.590827213445579
 31
0.0
  0
ARC
  5
1E2E
  8
0
 10
169.9999999999992
 20
49.999999999999041
 30
0.0
 40
19.750000000001371
 50
44.014193545344327
 51
51.27992410171408
  0
LINE
  5
1E2F
  8
0
 10
182.35394244903679
 20
65.409172786554535
 30
0.0
 11
181.29939943211119
 21
64.962823011504554
 31
0.0
  0
LINE
  5
1E30
  8
0
 10
181.44012069640721
 20
33.90074105892954
 30
0.0
 11
181.29939943211119
 21
35.03717698849556
 31
0.0
  0
LINE
  5
1E31
  8
0
 10
181.29939943211119
 20
64.962823011504526
 30
0.0
 11
181.44012069640721
 21
66.099258941070559
 31
0.0
  0
ARC
  5
1E32
  8
0
 10
169.9999999999998
 20
50.000000000000668
 30
0.0
 40
19.7500000000007
 50
298.13184060416859
 51
305.39757116053642
  0
LINE
  5
1E33
  8
0
 10
178.35759417081019
 20
33.215688287092632
 30
0.0
 11
179.3121650329646
 21
32.583166694291627
 31
0.0
  0
ARC
  5
1E34
  8
0
 10
170.0000000000004
 20
49.999999999999822
 30
0.0
 40
19.75000000000005
 50
54.602428839463578
 51
61.868159395831498
  0
LINE
  5
1E35
  8
0
 10
179.3121650329646
 20
67.416833305708423
 30
0.0
 11
178.35759417081019
 21
66.784311712907453
 31
0.0
  0
LINE
  5
1E36
  8
0
 10
178.2870998340795
 20
32.072744874354044
 30
0.0
 11
178.35759417081019
 21
33.215688287092647
 31
0.0
  0
LINE
  5
1E37
  8
0
 10
178.35759417081019
 20
66.784311712907453
 30
0.0
 11
178.2870998340795
 21
67.927255125646042
 31
0.0
  0
ARC
  5
1E38
  8
0
 10
169.99999999999949
 20
50.000000000002018
 30
0.0
 40
19.750000000002071
 50
287.54360531005051
 51
294.80933586641908
  0
LINE
  5
1E39
  8
0
 10
175.1311810638517
 20
31.96576919050969
 30
0.0
 11
175.9532730054058
 21
31.168615544174489
 31
0.0
  0
ARC
  5
1E3A
  8
0
 10
170.00000000000051
 20
50.000000000000817
 30
0.0
 40
19.74999999999914
 50
65.19066413358091
 51
72.456394689949505
  0
LINE
  5
1E3B
  8
0
 10
175.9532730054058
 20
68.831384455825585
 30
0.0
 11
175.1311810638517
 21
68.034230809490424
 31
0.0
  0
LINE
  5
1E3C
  8
0
 10
174.85187172618299
 20
30.855239861709791
 30
0.0
 11
175.1311810638517
 21
31.96576919050969
 31
0.0
  0
LINE
  5
1E3D
  8
0
 10
175.1311810638517
 20
68.034230809490424
 30
0.0
 11
174.85187172618299
 21
69.144760138290295
 31
0.0
  0
ARC
  5
1E3E
  8
0
 10
169.9999999999996
 20
50.000000000003332
 30
0.0
 40
19.750000000003311
 50
276.95537001593459
 51
284.22110057230111
  0
LINE
  5
1E3F
  8
0
 10
171.73003173993709
 20
31.329984194468171
 30
0.0
 11
172.39164940581179
 21
30.395344605944281
 31
0.0
  0
ARC
  5
1E40
  8
0
 10
169.99999999999989
 20
49.999999999997833
 30
0.0
 40
19.75000000000222
 50
75.77889942769886
 51
83.044629984065423
  0
LINE
  5
1E41
  8
0
 10
172.39164940581179
 20
69.604655394055811
 30
0.0
 11
171.73003173993709
 21
68.67001580553196
 31
0.0
  0
LINE
  5
1E42
  8
0
 10
171.2514189458301
 20
30.289686693966161
 30
0.0
 11
171.73003173993709
 21
31.32998419446816
 31
0.0
  0
LINE
  5
1E43
  8
0
 10
171.73003173993709
 20
68.67001580553196
 30
0.0
 11
171.2514189458301
 21
69.710313306033981
 31
0.0
  0
ARC
  5
1E44
  8
0
 10
170.0
 20
50.000000000001407
 30
0.0
 40
19.750000000001339
 50
266.36713472181469
 51
273.63286527818531
  0
LINE
  5
1E45
  8
0
 10
168.26996826006319
 20
31.329984194468171
 30
0.0
 11
168.74858105417019
 21
30.289686693966139
 31
0.0
  0
ARC
  5
1E46
  8
0
 10
170.0000000000002
 20
49.999999999997769
 30
0.0
 40
19.750000000002281
 50
86.367134721814693
 51
93.632865278185278
  0
LINE
  5
1E47
  8
0
 10
168.74858105417019
 20
69.710313306033953
 30
0.0
 11
168.26996826006319
 21
68.67001580553196
 31
0.0
  0
LINE
  5
1E48
  8
0
 10
167.60835059418849
 20
30.395344605944281
 30
0.0
 11
168.26996826006319
 21
31.329984194468171
 31
0.0
  0
LINE
  5
1E49
  8
0
 10
168.26996826006319
 20
68.67001580553196
 30
0.0
 11
167.60835059418849
 21
69.60465539405584
 31
0.0
  0
ARC
  5
1E4A
  8
0
 10
170.0
 20
49.999999999999282
 30
0.0
 40
19.749999999999218
 50
255.7788994276988
 51
263.04462998406871
  0
LINE
  5
1E4B
  8
0
 10
164.86881893614861
 20
31.965769190509711
 30
0.0
 11
165.14812827381729
 21
30.855239861709808
 31
0.0
  0
ARC
  5
1E4C
  8
0
 10
170.00000000000031
 20
49.999999999998899
 30
0.0
 40
19.750000000001151
 50
96.955370015931294
 51
104.2211005723011
  0
LINE
  5
1E4D
  8
0
 10
165.14812827381729
 20
69.144760138290295
 30
0.0
 11
164.86881893614861
 21
68.034230809490424
 31
0.0
  0
LINE
  5
1E4E
  8
0
 10
164.04672699459451
 20
31.168615544174489
 30
0.0
 11
164.86881893614861
 21
31.96576919050969
 31
0.0
  0
LINE
  5
1E4F
  8
0
 10
164.86881893614861
 20
68.034230809490424
 30
0.0
 11
164.04672699459451
 21
68.831384455825628
 31
0.0
  0
ARC
  5
1E50
  8
0
 10
170.00000000000119
 20
50.000000000002622
 30
0.0
 40
19.750000000002782
 50
245.1906641335809
 51
252.45639468994949
  0
LINE
  5
1E51
  8
0
 10
161.64240582919001
 20
33.215688287092647
 30
0.0
 11
161.7129001659207
 21
32.072744874354044
 31
0.0
  0
ARC
  5
1E52
  8
0
 10
170.00000000000031
 20
49.999999999999503
 30
0.0
 40
19.750000000000551
 50
107.54360531005049
 51
114.8093358664191
  0
LINE
  5
1E53
  8
0
 10
161.7129001659207
 20
67.92725512564607
 30
0.0
 11
161.64240582919001
 21
66.784311712907481
 31
0.0
  0
LINE
  5
1E54
  8
0
 10
160.68783496703571
 20
32.583166694291648
 30
0.0
 11
161.64240582919001
 21
33.215688287092647
 31
0.0
  0
LINE
  5
1E55
  8
0
 10
161.64240582919001
 20
66.784311712907481
 30
0.0
 11
160.68783496703571
 21
67.416833305708479
 31
0.0
  0
ARC
  5
1E56
  8
0
 10
169.99999999999841
 20
49.999999999997449
 30
0.0
 40
19.749999999996891
 50
234.60242883946341
 51
241.8681593958315
  0
LINE
  5
1E57
  8
0
 10
158.7006005678891
 20
35.037176988495581
 30
0.0
 11
158.55987930359311
 21
33.900741058929547
 31
0.0
  0
ARC
  5
1E58
  8
0
 10
170.00000000000139
 20
49.999999999998089
 30
0.0
 40
19.75000000000232
 50
118.1318406041686
 51
125.3975711605364
  0
LINE
  5
1E59
  8
0
 10
158.55987930359311
 20
66.099258941070559
 30
0.0
 11
158.7006005678891
 21
64.962823011504554
 31
0.0
  0
LINE
  5
1E5A
  8
0
 10
157.64605755096349
 20
34.590827213445579
 30
0.0
 11
158.7006005678891
 21
35.037176988495581
 31
0.0
  0
LINE
  5
1E5B
  8
0
 10
158.7006005678891
 20
64.962823011504554
 30
0.0
 11
157.64605755096349
 21
65.409172786554535
 31
0.0
  0
ARC
  5
1E5C
  8
0
 10
170.00000000000031
 20
50.000000000000071
 30
0.0
 40
19.750000000000099
 50
224.014193545344
 51
231.2799241017141
  0
LINE
  5
1E5D
  8
0
 10
156.1435828021128
 20
37.368206681627122
 30
0.0
 11
155.79643803066909
 21
36.276978197810386
 31
0.0
  0
ARC
  5
1E5E
  8
0
 10
170.00000000000151
 20
49.99999999999882
 30
0.0
 40
19.750000000001819
 50
128.7200758982859
 51
135.98580645465589
  0
LINE
  5
1E5F
  8
0
 10
155.79643803066909
 20
63.72302180218972
 30
0.0
 11
156.1435828021128
 21
62.631793318373013
 31
0.0
  0
LINE
  5
1E60
  8
0
 10
155.02497882807251
 20
37.123228630579924
 30
0.0
 11
156.1435828021128
 21
37.368206681627122
 31
0.0
  0
LINE
  5
1E61
  8
0
 10
156.1435828021128
 20
62.631793318373013
 30
0.0
 11
155.02497882807251
 21
62.87677136942019
 31
0.0
  0
ARC
  5
1E62
  8
0
 10
170.00000000000159
 20
50.00000000000108
 30
0.0
 40
19.75000000000178
 50
213.42595825122751
 51
220.69168880759511
  0
LINE
  5
1E63
  8
0
 10
154.0584287050699
 20
40.129396946049638
 30
0.0
 11
153.51668202531579
 21
39.120536385214272
 31
0.0
  0
ARC
  5
1E64
  8
0
 10
169.9999999999992
 20
50.000000000000782
 30
0.0
 40
19.749999999998849
 50
139.30831119240449
 51
146.57404174877399
  0
LINE
  5
1E65
  8
0
 10
153.51668202531579
 20
60.879463614785863
 30
0.0
 11
154.0584287050699
 21
59.870603053950468
 31
0.0
  0
LINE
  5
1E66
  8
0
 10
152.91385649063321
 20
40.094133052714881
 30
0.0
 11
154.0584287050699
 21
40.129396946049653
 31
0.0
  0
LINE
  5
1E67
  8
0
 10
154.0584287050699
 20
59.870603053950468
 30
0.0
 11
152.91385649063321
 21
59.905866947285261
 31
0.0
  0
ARC
  5
1E68
  8
0
 10
170.0000000000019
 20
50.000000000001187
 30
0.0
 40
19.750000000002089
 50
202.837722957111
 51
210.10345351347971
  0
LINE
  5
1E69
  8
0
 10
152.51614569866851
 20
43.226718758990941
 30
0.0
 11
151.79824564402949
 21
42.334581657541293
 31
0.0
  0
ARC
  5
1E6A
  8
0
 10
169.99999999999881
 20
50.000000000000611
 30
0.0
 40
19.749999999998568
 50
149.89654648652029
 51
157.16227704288929
  0
LINE
  5
1E6B
  8
0
 10
151.79824564402949
 20
57.665418342458842
 30
0.0
 11
152.51614569866851
 21
56.773281241009173
 31
0.0
  0
LINE
  5
1E6C
  8
0
 10
151.38458227783499
 20
43.402369892961723
 30
0.0
 11
152.51614569866851
 21
43.226718758990941
 31
0.0
  0
LINE
  5
1E6D
  8
0
 10
152.51614569866851
 20
56.773281241009173
 30
0.0
 11
151.38458227783499
 21
56.597630107038398
 31
0.0
  0
ARC
  5
1E6E
  8
0
 10
170.00000000000381
 20
50.000000000001009
 30
0.0
 40
19.75000000000373
 50
192.24948766299229
 51
199.51521821936061
  0
LINE
  5
1E6F
  8
0
 10
151.56925438092699
 20
46.554696540939361
 30
0.0
 11
150.69964817673761
 21
45.809663557864788
 31
0.0
  0
ARC
  5
1E70
  8
0
 10
169.99999999999869
 20
50.000000000000632
 30
0.0
 40
19.74999999999843
 50
160.48478178063851
 51
167.75051233700921
  0
LINE
  5
1E71
  8
0
 10
150.6996481767377
 20
54.190336442135319
 30
0.0
 11
151.56925438092699
 21
53.44530345906076
 31
0.0
  0
LINE
  5
1E72
  8
0
 10
150.48923378883239
 20
46.935281113518641
 30
0.0
 11
151.56925438092699
 21
46.554696540939368
 31
0.0
  0
LINE
  5
1E73
  8
0
 10
151.56925438092699
 20
53.44530345906076
 30
0.0
 11
150.48923378883239
 21
53.064718886481486
 31
0.0
  0
ARC
  5
1E74
  8
0
 10
170.00000000000111
 20
50.000000000000071
 30
0.0
 40
19.750000000000959
 50
181.6612523688739
 51
188.92698292524301
  0
LINE
  5
1E75
  8
0
 10
151.25000000000011
 20
50.000000000000057
 30
0.0
 11
150.25830104256639
 21
49.427442339970597
 31
0.0
  0
ARC
  5
1E76
  8
0
 10
170.00000000000509
 20
49.999999999999638
 30
0.0
 40
19.750000000004999
 50
171.07301707475801
 51
178.33874763112439
  0
LINE
  5
1E77
  8
0
 10
150.25830104256639
 20
50.572557660029517
 30
0.0
 11
151.25000000000011
 21
50.000000000000057
 31
0.0
  0
CIRCLE
  5
1E79
  8
0
 10
170.00000000000031
 20
50.000000000000099
 30
0.0
 40
18.75000000000011
  0
LINE
  5
1EBC
  8
1
 10
82.499999999999986
 20
50.000000000000071
 30
0.0
 11
139.0
 21
50.000000000000078
 31
0.0
  0
LINE
  5
1EBD
  8
0
 10
107.8
 20
54.000000000000092
 30
0.0
 11
107.5
 21
54.000000000000092
 31
0.0
  0
LINE
  5
1EBE
  8
0
 10
107.5
 20
46.000000000000078
 30
0.0
 11
107.8
 21
46.000000000000078
 31
0.0
  0
LINE
  5
1EBF
  8
0
 10
108.8
 20
58.500000000000078
 30
0.0
 11
107.8
 21
57.500000000000078
 31
0.0
  0
LINE
  5
1EC0
  8
0
 10
107.8
 20
42.500000000000078
 30
0.0
 11
108.8
 21
41.500000000000078
 31
0.0
  0
LINE
  5
1EC1
  8
0
 10
120.0
 20
58.500000000000078
 30
0.0
 11
108.8
 21
58.500000000000078
 31
0.0
  0
LINE
  5
1EC2
  8
0
 10
108.8
 20
41.500000000000078
 30
0.0
 11
120.0
 21
41.500000000000078
 31
0.0
  0
ARC
  5
1EC3
  8
0
 10
120.5
 20
32.750000000000099
 30
0.0
 40
0.5000000000000089
 50
180.0
 51
270.0
  0
ARC
  5
1EC4
  8
0
 10
120.5
 20
67.250000000000085
 30
0.0
 40
0.5000000000000107
 50
90.0
 51
180.0
  0
LINE
  5
1EC5
  8
0
 10
121.06
 20
67.750000000000085
 30
0.0
 11
120.5
 21
67.750000000000085
 31
0.0
  0
LINE
  5
1EC6
  8
0
 10
120.5
 20
32.250000000000078
 30
0.0
 11
121.06
 21
32.250000000000078
 31
0.0
  0
LINE
  5
1EC7
  8
0
 10
133.5
 20
67.750000000000085
 30
0.0
 11
132.94
 21
67.750000000000085
 31
0.0
  0
LINE
  5
1EC8
  8
0
 10
132.94
 20
32.250000000000078
 30
0.0
 11
133.5
 21
32.250000000000078
 31
0.0
  0
ARC
  5
1EC9
  8
0
 10
133.5
 20
32.750000000000092
 30
0.0
 40
0.5000000000000036
 50
270.0
 51
0.0
  0
ARC
  5
1ECA
  8
0
 10
133.5
 20
67.250000000000085
 30
0.0
 40
0.5000000000000036
 50
0.0
 51
90.0
  0
LINE
  5
1ECB
  8
0
 10
121.06
 20
31.250000000000089
 30
0.0
 11
121.5263076581551
 21
30.249999999999861
 31
0.0
  0
LINE
  5
1ECC
  8
0
 10
121.5263076581551
 20
69.750000000000341
 30
0.0
 11
121.06
 21
68.750000000000085
 31
0.0
  0
LINE
  5
1ECD
  8
0
 10
132.94
 20
68.750000000000085
 30
0.0
 11
132.47369234184481
 21
69.750000000000341
 31
0.0
  0
LINE
  5
1ECE
  8
0
 10
132.4736923418449
 20
30.249999999999861
 30
0.0
 11
132.94
 21
31.250000000000099
 31
0.0
  0
LINE
  5
1ECF
  8
0
 10
126.4226497308095
 20
69.750000000000085
 30
0.0
 11
124.60735026919041
 21
69.750000000000085
 31
0.0
  0
LINE
  5
1ED0
  8
0
 10
124.60735026919041
 20
30.250000000000099
 30
0.0
 11
126.4226497308096
 21
30.250000000000099
 31
0.0
  0
LINE
  5
1ED1
  8
0
 10
121.5263076581556
 20
30.250000000000099
 30
0.0
 11
123.4526497308096
 21
30.250000000000099
 31
0.0
  0
LINE
  5
1ED2
  8
0
 10
127.5773502691904
 20
30.250000000000099
 30
0.0
 11
129.3926497308095
 21
30.250000000000099
 31
0.0
  0
LINE
  5
1ED3
  8
0
 10
130.54735026919039
 20
30.250000000000099
 30
0.0
 11
132.4736923418443
 21
30.250000000000099
 31
0.0
  0
LINE
  5
1ED4
  8
0
 10
123.4526497308096
 20
69.750000000000085
 30
0.0
 11
121.5263076581556
 21
69.750000000000085
 31
0.0
  0
LINE
  5
1ED5
  8
0
 10
129.3926497308095
 20
69.750000000000085
 30
0.0
 11
127.5773502691904
 21
69.750000000000085
 31
0.0
  0
LINE
  5
1ED6
  8
0
 10
132.4736923418443
 20
69.750000000000085
 30
0.0
 11
130.5473502691905
 21
69.750000000000085
 31
0.0
  0
LINE
  5
1ED7
  8
0
 10
129.97
 20
68.750000000000085
 30
0.0
 11
129.39264973081009
 21
69.750000000000426
 31
0.0
  0
LINE
  5
1ED8
  8
0
 10
129.39264973081021
 20
30.249999999999758
 30
0.0
 11
129.97
 21
31.250000000000099
 31
0.0
  0
LINE
  5
1ED9
  8
0
 10
129.97
 20
31.250000000000099
 30
0.0
 11
130.54735026918979
 21
30.249999999999758
 31
0.0
  0
LINE
  5
1EDA
  8
0
 10
130.54735026918979
 20
69.750000000000426
 30
0.0
 11
129.97
 21
68.750000000000085
 31
0.0
  0
LINE
  5
1EDB
  8
0
 10
127.0
 20
68.750000000000085
 30
0.0
 11
126.42264973081021
 21
69.750000000000426
 31
0.0
  0
LINE
  5
1EDC
  8
0
 10
126.42264973081021
 20
30.249999999999758
 30
0.0
 11
127.0
 21
31.250000000000089
 31
0.0
  0
LINE
  5
1EDD
  8
0
 10
127.0
 20
31.250000000000089
 30
0.0
 11
127.57735026918979
 21
30.249999999999758
 31
0.0
  0
LINE
  5
1EDE
  8
0
 10
127.57735026918979
 20
69.750000000000426
 30
0.0
 11
127.0
 21
68.750000000000085
 31
0.0
  0
LINE
  5
1EDF
  8
0
 10
124.0299999999999
 20
68.750000000000085
 30
0.0
 11
123.45264973081019
 21
69.750000000000426
 31
0.0
  0
LINE
  5
1EE0
  8
0
 10
123.45264973081019
 20
30.249999999999758
 30
0.0
 11
124.0299999999999
 21
31.250000000000071
 31
0.0
  0
LINE
  5
1EE1
  8
0
 10
124.0299999999999
 20
31.250000000000071
 30
0.0
 11
124.60735026918979
 21
30.249999999999758
 31
0.0
  0
LINE
  5
1EE2
  8
0
 10
124.60735026918979
 20
69.750000000000426
 30
0.0
 11
124.0299999999999
 21
68.750000000000085
 31
0.0
  0
LINE
  5
1EE3
  8
0
 10
107.5
 20
46.000000000000078
 30
0.0
 11
107.5
 21
54.000000000000092
 31
0.0
  0
LINE
  5
1EE4
  8
0
 10
107.8
 20
42.500000000000078
 30
0.0
 11
107.8
 21
57.500000000000078
 31
0.0
  0
LINE
  5
1EE5
  8
0
 10
108.8
 20
41.500000000000078
 30
0.0
 11
108.8
 21
58.500000000000078
 31
0.0
  0
LINE
  5
1EE6
  8
0
 10
120.0
 20
32.750000000000092
 30
0.0
 11
120.0
 21
67.250000000000085
 31
0.0
  0
LINE
  5
1EE7
  8
0
 10
120.5
 20
32.250000000000078
 30
0.0
 11
120.5
 21
67.750000000000085
 31
0.0
  0
LINE
  5
1EE8
  8
0
 10
133.5
 20
32.250000000000078
 30
0.0
 11
133.5
 21
67.750000000000085
 31
0.0
  0
LINE
  5
1EE9
  8
0
 10
134.0
 20
32.750000000000092
 30
0.0
 11
134.0
 21
67.250000000000085
 31
0.0
  0
LINE
  5
1EEA
  8
0
 10
121.06
 20
31.250078165107549
 30
0.0
 11
121.06
 21
68.749921834892604
 31
0.0
  0
LINE
  5
1EEB
  8
0
 10
132.94
 20
31.250078165107549
 30
0.0
 11
132.94
 21
68.749921834892604
 31
0.0
  0
LINE
  5
1EEC
  8
0
 10
121.52630765815501
 20
30.289686693966161
 30
0.0
 11
121.06
 21
31.329984194468182
 31
0.0
  0
LINE
  5
1EED
  8
0
 10
121.52630765815501
 20
30.855239861709851
 30
0.0
 11
121.06
 21
31.965769190509722
 31
0.0
  0
LINE
  5
1EEE
  8
0
 10
121.52630765815501
 20
32.072744874354072
 30
0.0
 11
121.06
 21
33.215688287092661
 31
0.0
  0
LINE
  5
1EEF
  8
0
 10
121.52630765815501
 20
33.900741058929597
 30
0.0
 11
121.06
 21
35.037176988495588
 31
0.0
  0
LINE
  5
1EF0
  8
0
 10
121.52630765815501
 20
36.276978197810422
 30
0.0
 11
121.06
 21
37.368206681627143
 31
0.0
  0
LINE
  5
1EF1
  8
0
 10
121.52630765815501
 20
39.120536385214301
 30
0.0
 11
121.06
 21
40.12939694604966
 31
0.0
  0
LINE
  5
1EF2
  8
0
 10
121.52630765815501
 20
42.334581657541307
 30
0.0
 11
121.06
 21
43.226718758990962
 31
0.0
  0
LINE
  5
1EF3
  8
0
 10
121.52630765815501
 20
45.809663557864823
 30
0.0
 11
121.06
 21
46.554696540939389
 31
0.0
  0
LINE
  5
1EF4
  8
0
 10
121.52630765815501
 20
49.427442339970618
 30
0.0
 11
121.06
 21
50.000000000000078
 31
0.0
  0
LINE
  5
1EF5
  8
0
 10
124.6073502691896
 20
50.572557660029538
 30
0.0
 11
126.42264973081031
 21
50.572557660029538
 31
0.0
  0
LINE
  5
1EF6
  8
0
 10
124.6073502691896
 20
53.064718886481508
 30
0.0
 11
126.42264973081031
 21
53.064718886481508
 31
0.0
  0
LINE
  5
1EF7
  8
0
 10
124.6073502691896
 20
54.19033644213534
 30
0.0
 11
126.42264973081041
 21
54.19033644213534
 31
0.0
  0
LINE
  5
1EF8
  8
0
 10
124.6073502691896
 20
56.597630107038427
 30
0.0
 11
126.42264973081031
 21
56.597630107038427
 31
0.0
  0
LINE
  5
1EF9
  8
0
 10
124.6073502691896
 20
57.665418342458857
 30
0.0
 11
126.42264973081031
 21
57.665418342458857
 31
0.0
  0
LINE
  5
1EFA
  8
0
 10
124.6073502691896
 20
59.90586694728529
 30
0.0
 11
126.42264973081031
 21
59.90586694728529
 31
0.0
  0
LINE
  5
1EFB
  8
0
 10
124.6073502691896
 20
60.879463614785891
 30
0.0
 11
126.42264973081041
 21
60.879463614785891
 31
0.0
  0
LINE
  5
1EFC
  8
0
 10
124.6073502691896
 20
62.876771369420219
 30
0.0
 11
126.42264973081041
 21
62.876771369420219
 31
0.0
  0
LINE
  5
1EFD
  8
0
 10
124.6073502691896
 20
63.723021802189749
 30
0.0
 11
126.42264973081041
 21
63.723021802189749
 31
0.0
  0
LINE
  5
1EFE
  8
0
 10
124.6073502691896
 20
65.409172786554564
 30
0.0
 11
126.42264973081031
 21
65.409172786554564
 31
0.0
  0
LINE
  5
1EFF
  8
0
 10
124.6073502691896
 20
66.099258941070588
 30
0.0
 11
126.42264973081031
 21
66.099258941070588
 31
0.0
  0
LINE
  5
1F00
  8
0
 10
124.6073502691896
 20
67.416833305708494
 30
0.0
 11
126.42264973081031
 21
67.416833305708494
 31
0.0
  0
LINE
  5
1F01
  8
0
 10
124.6073502691896
 20
67.927255125646099
 30
0.0
 11
126.42264973081031
 21
67.927255125646099
 31
0.0
  0
LINE
  5
1F02
  8
0
 10
124.6073502691896
 20
68.831384455825656
 30
0.0
 11
126.42264973081031
 21
68.831384455825656
 31
0.0
  0
LINE
  5
1F03
  8
0
 10
124.6073502691896
 20
69.144760138290337
 30
0.0
 11
126.42264973081031
 21
69.144760138290337
 31
0.0
  0
LINE
  5
1F04
  8
0
 10
124.6073502691896
 20
69.604655394055854
 30
0.0
 11
126.42264973081031
 21
69.604655394055854
 31
0.0
  0
LINE
  5
1F05
  8
0
 10
124.6073502691896
 20
69.71031330603401
 30
0.0
 11
126.42264973081041
 21
69.71031330603401
 31
0.0
  0
LINE
  5
1F06
  8
0
 10
121.5263076581556
 20
30.250000000000099
 30
0.0
 11
121.5263076581556
 21
30.289686693966161
 31
0.0
  0
LINE
  5
1F07
  8
0
 10
121.52630765815501
 20
30.289686693966161
 30
0.0
 11
123.45264973081041
 21
30.289686693966161
 31
0.0
  0
LINE
  5
1F08
  8
0
 10
132.4736923418443
 20
30.289686693966161
 30
0.0
 11
132.4736923418443
 21
30.250000000000099
 31
0.0
  0
LINE
  5
1F09
  8
0
 10
124.6073502691896
 20
30.289686693966161
 30
0.0
 11
126.42264973081031
 21
30.289686693966161
 31
0.0
  0
LINE
  5
1F0A
  8
0
 10
127.57735026918959
 20
30.289686693966161
 30
0.0
 11
129.39264973081029
 21
30.289686693966161
 31
0.0
  0
LINE
  5
1F0B
  8
0
 10
132.94
 20
31.329984194468199
 30
0.0
 11
132.47369234184501
 21
30.289686693966161
 31
0.0
  0
LINE
  5
1F0C
  8
0
 10
130.54735026918959
 20
30.289686693966161
 30
0.0
 11
132.47369234184501
 21
30.289686693966161
 31
0.0
  0
LINE
  5
1F0D
  8
0
 10
121.5263076581556
 20
69.71031330603401
 30
0.0
 11
121.5263076581556
 21
69.750000000000085
 31
0.0
  0
LINE
  5
1F0E
  8
0
 10
132.4736923418443
 20
69.750000000000085
 30
0.0
 11
132.4736923418443
 21
69.71031330603401
 31
0.0
  0
LINE
  5
1F0F
  8
0
 10
121.06
 20
68.670015805531989
 30
0.0
 11
121.52630765815501
 21
69.71031330603401
 31
0.0
  0
LINE
  5
1F10
  8
0
 10
121.52630765815501
 20
69.71031330603401
 30
0.0
 11
123.45264973081041
 21
69.71031330603401
 31
0.0
  0
LINE
  5
1F11
  8
0
 10
127.57735026918959
 20
69.71031330603401
 30
0.0
 11
129.39264973081029
 21
69.71031330603401
 31
0.0
  0
LINE
  5
1F12
  8
0
 10
130.54735026918959
 20
69.71031330603401
 30
0.0
 11
132.47369234184501
 21
69.71031330603401
 31
0.0
  0
LINE
  5
1F13
  8
0
 10
132.47369234184501
 20
69.71031330603401
 30
0.0
 11
132.94
 21
68.670015805531989
 31
0.0
  0
LINE
  5
1F14
  8
0
 10
121.06
 20
31.329984194468182
 30
0.0
 11
121.52630765815501
 21
30.395344605944299
 31
0.0
  0
LINE
  5
1F15
  8
0
 10
132.47369234184501
 20
30.395344605944299
 30
0.0
 11
132.94
 21
31.329984194468199
 31
0.0
  0
LINE
  5
1F16
  8
0
 10
121.52630765815501
 20
69.604655394055854
 30
0.0
 11
121.06
 21
68.670015805531989
 31
0.0
  0
LINE
  5
1F17
  8
0
 10
132.94
 20
68.67001580553196
 30
0.0
 11
132.47369234184501
 21
69.604655394055854
 31
0.0
  0
LINE
  5
1F18
  8
0
 10
124.6073502691896
 20
30.395344605944299
 30
0.0
 11
126.42264973081041
 21
30.395344605944299
 31
0.0
  0
LINE
  5
1F19
  8
0
 10
121.52630765815501
 20
30.395344605944299
 30
0.0
 11
123.45264973081041
 21
30.395344605944299
 31
0.0
  0
LINE
  5
1F1A
  8
0
 10
121.5263076581555
 20
30.395344605944299
 30
0.0
 11
121.5263076581555
 21
30.855239861709851
 31
0.0
  0
LINE
  5
1F1B
  8
0
 10
121.52630765815501
 20
30.855239861709851
 30
0.0
 11
123.45264973081041
 21
30.855239861709851
 31
0.0
  0
LINE
  5
1F1C
  8
0
 10
127.57735026918959
 20
30.395344605944299
 30
0.0
 11
129.39264973081029
 21
30.395344605944299
 31
0.0
  0
LINE
  5
1F1D
  8
0
 10
132.4736923418445
 20
30.855239861709851
 30
0.0
 11
132.4736923418445
 21
30.395344605944299
 31
0.0
  0
LINE
  5
1F1E
  8
0
 10
130.54735026918959
 20
30.395344605944299
 30
0.0
 11
132.47369234184501
 21
30.395344605944299
 31
0.0
  0
LINE
  5
1F1F
  8
0
 10
124.6073502691896
 20
30.855239861709851
 30
0.0
 11
126.42264973081031
 21
30.855239861709851
 31
0.0
  0
LINE
  5
1F20
  8
0
 10
127.57735026918959
 20
30.855239861709851
 30
0.0
 11
129.39264973081029
 21
30.855239861709851
 31
0.0
  0
LINE
  5
1F21
  8
0
 10
132.94
 20
31.965769190509729
 30
0.0
 11
132.47369234184501
 21
30.85523986170983
 31
0.0
  0
LINE
  5
1F22
  8
0
 10
130.54735026918959
 20
30.855239861709851
 30
0.0
 11
132.47369234184501
 21
30.855239861709851
 31
0.0
  0
LINE
  5
1F23
  8
0
 10
121.52630765815449
 20
69.144760138290337
 30
0.0
 11
121.52630765815449
 21
69.604655394055854
 31
0.0
  0
LINE
  5
1F24
  8
0
 10
121.52630765815501
 20
69.604655394055854
 30
0.0
 11
123.45264973081041
 21
69.604655394055854
 31
0.0
  0
LINE
  5
1F25
  8
0
 10
127.57735026918959
 20
69.604655394055854
 30
0.0
 11
129.39264973081029
 21
69.604655394055854
 31
0.0
  0
LINE
  5
1F26
  8
0
 10
130.54735026918959
 20
69.604655394055854
 30
0.0
 11
132.47369234184501
 21
69.604655394055854
 31
0.0
  0
LINE
  5
1F27
  8
0
 10
132.47369234184549
 20
69.604655394055854
 30
0.0
 11
132.47369234184549
 21
69.144760138290337
 31
0.0
  0
LINE
  5
1F28
  8
0
 10
121.06
 20
68.034230809490452
 30
0.0
 11
121.52630765815501
 21
69.144760138290337
 31
0.0
  0
LINE
  5
1F29
  8
0
 10
121.52630765815501
 20
69.144760138290337
 30
0.0
 11
123.45264973081041
 21
69.144760138290337
 31
0.0
  0
LINE
  5
1F2A
  8
0
 10
127.57735026918959
 20
69.144760138290337
 30
0.0
 11
129.39264973081029
 21
69.144760138290337
 31
0.0
  0
LINE
  5
1F2B
  8
0
 10
130.54735026918959
 20
69.144760138290337
 30
0.0
 11
132.47369234184501
 21
69.144760138290337
 31
0.0
  0
LINE
  5
1F2C
  8
0
 10
132.47369234184501
 20
69.144760138290337
 30
0.0
 11
132.94
 21
68.034230809490424
 31
0.0
  0
LINE
  5
1F2D
  8
0
 10
121.06
 20
31.965769190509722
 30
0.0
 11
121.52630765815501
 21
31.168615544174521
 31
0.0
  0
LINE
  5
1F2E
  8
0
 10
132.47369234184501
 20
31.168615544174521
 30
0.0
 11
132.94
 21
31.965769190509722
 31
0.0
  0
LINE
  5
1F2F
  8
0
 10
121.52630765815501
 20
68.831384455825656
 30
0.0
 11
121.06
 21
68.034230809490452
 31
0.0
  0
LINE
  5
1F30
  8
0
 10
132.94
 20
68.034230809490424
 30
0.0
 11
132.47369234184501
 21
68.831384455825656
 31
0.0
  0
LINE
  5
1F31
  8
0
 10
124.6073502691896
 20
31.168615544174521
 30
0.0
 11
126.42264973081031
 21
31.168615544174521
 31
0.0
  0
LINE
  5
1F32
  8
0
 10
121.52630765815501
 20
31.168615544174521
 30
0.0
 11
123.45264973081041
 21
31.168615544174521
 31
0.0
  0
LINE
  5
1F33
  8
0
 10
121.5263076581553
 20
31.168615544174521
 30
0.0
 11
121.5263076581553
 21
32.072744874354072
 31
0.0
  0
LINE
  5
1F34
  8
0
 10
121.52630765815501
 20
32.072744874354072
 30
0.0
 11
123.45264973081041
 21
32.072744874354072
 31
0.0
  0
LINE
  5
1F35
  8
0
 10
127.57735026918959
 20
31.168615544174521
 30
0.0
 11
129.39264973081029
 21
31.168615544174521
 31
0.0
  0
LINE
  5
1F36
  8
0
 10
132.47369234184461
 20
32.072744874354072
 30
0.0
 11
132.47369234184461
 21
31.168615544174521
 31
0.0
  0
LINE
  5
1F37
  8
0
 10
130.54735026918959
 20
31.168615544174521
 30
0.0
 11
132.47369234184501
 21
31.168615544174521
 31
0.0
  0
LINE
  5
1F38
  8
0
 10
124.6073502691896
 20
32.072744874354072
 30
0.0
 11
126.42264973081031
 21
32.072744874354072
 31
0.0
  0
LINE
  5
1F39
  8
0
 10
127.57735026918959
 20
32.072744874354072
 30
0.0
 11
129.39264973081029
 21
32.072744874354072
 31
0.0
  0
LINE
  5
1F3A
  8
0
 10
132.94
 20
33.215688287092668
 30
0.0
 11
132.47369234184501
 21
32.072744874354072
 31
0.0
  0
LINE
  5
1F3B
  8
0
 10
130.54735026918959
 20
32.072744874354072
 30
0.0
 11
132.47369234184501
 21
32.072744874354072
 31
0.0
  0
LINE
  5
1F3C
  8
0
 10
121.5263076581555
 20
67.927255125646099
 30
0.0
 11
121.5263076581555
 21
68.831384455825656
 31
0.0
  0
LINE
  5
1F3D
  8
0
 10
121.52630765815501
 20
68.831384455825656
 30
0.0
 11
123.45264973081041
 21
68.831384455825656
 31
0.0
  0
LINE
  5
1F3E
  8
0
 10
127.57735026918959
 20
68.831384455825656
 30
0.0
 11
129.39264973081029
 21
68.831384455825656
 31
0.0
  0
LINE
  5
1F3F
  8
0
 10
130.54735026918959
 20
68.831384455825656
 30
0.0
 11
132.47369234184501
 21
68.831384455825656
 31
0.0
  0
LINE
  5
1F40
  8
0
 10
132.4736923418445
 20
68.831384455825656
 30
0.0
 11
132.4736923418445
 21
67.927255125646099
 31
0.0
  0
LINE
  5
1F41
  8
0
 10
121.06
 20
66.78431171290751
 30
0.0
 11
121.52630765815501
 21
67.927255125646099
 31
0.0
  0
LINE
  5
1F42
  8
0
 10
121.52630765815501
 20
67.927255125646099
 30
0.0
 11
123.45264973081041
 21
67.927255125646099
 31
0.0
  0
LINE
  5
1F43
  8
0
 10
127.57735026918959
 20
67.927255125646099
 30
0.0
 11
129.39264973081029
 21
67.927255125646099
 31
0.0
  0
LINE
  5
1F44
  8
0
 10
130.54735026918971
 20
67.927255125646099
 30
0.0
 11
132.47369234184501
 21
67.927255125646099
 31
0.0
  0
LINE
  5
1F45
  8
0
 10
132.47369234184501
 20
67.927255125646099
 30
0.0
 11
132.94
 21
66.78431171290751
 31
0.0
  0
LINE
  5
1F46
  8
0
 10
121.06
 20
33.215688287092668
 30
0.0
 11
121.52630765815501
 21
32.583166694291677
 31
0.0
  0
LINE
  5
1F47
  8
0
 10
132.47369234184501
 20
32.583166694291677
 30
0.0
 11
132.94
 21
33.215688287092668
 31
0.0
  0
LINE
  5
1F48
  8
0
 10
121.52630765815501
 20
67.416833305708494
 30
0.0
 11
121.06
 21
66.78431171290751
 31
0.0
  0
LINE
  5
1F49
  8
0
 10
132.94
 20
66.78431171290751
 30
0.0
 11
132.47369234184501
 21
67.416833305708494
 31
0.0
  0
LINE
  5
1F4A
  8
0
 10
124.6073502691896
 20
32.583166694291677
 30
0.0
 11
126.42264973081041
 21
32.583166694291677
 31
0.0
  0
LINE
  5
1F4B
  8
0
 10
121.52630765815501
 20
32.583166694291677
 30
0.0
 11
123.45264973081041
 21
32.583166694291677
 31
0.0
  0
LINE
  5
1F4C
  8
0
 10
121.5263076581532
 20
32.583166694291677
 30
0.0
 11
121.5263076581532
 21
33.90074105892959
 31
0.0
  0
LINE
  5
1F4D
  8
0
 10
121.52630765815501
 20
33.90074105892959
 30
0.0
 11
123.45264973081041
 21
33.90074105892959
 31
0.0
  0
LINE
  5
1F4E
  8
0
 10
127.57735026918959
 20
32.583166694291677
 30
0.0
 11
129.39264973081029
 21
32.583166694291677
 31
0.0
  0
LINE
  5
1F4F
  8
0
 10
132.4736923418468
 20
33.90074105892959
 30
0.0
 11
132.4736923418468
 21
32.583166694291677
 31
0.0
  0
LINE
  5
1F50
  8
0
 10
130.54735026918959
 20
32.583166694291677
 30
0.0
 11
132.47369234184501
 21
32.583166694291677
 31
0.0
  0
LINE
  5
1F51
  8
0
 10
124.6073502691896
 20
33.90074105892959
 30
0.0
 11
126.42264973081041
 21
33.90074105892959
 31
0.0
  0
LINE
  5
1F52
  8
0
 10
127.57735026918959
 20
33.90074105892959
 30
0.0
 11
129.39264973081029
 21
33.90074105892959
 31
0.0
  0
LINE
  5
1F53
  8
0
 10
132.94
 20
35.037176988495602
 30
0.0
 11
132.47369234184501
 21
33.90074105892959
 31
0.0
  0
LINE
  5
1F54
  8
0
 10
130.54735026918959
 20
33.90074105892959
 30
0.0
 11
132.47369234184501
 21
33.90074105892959
 31
0.0
  0
LINE
  5
1F55
  8
0
 10
121.5263076581552
 20
66.099258941070588
 30
0.0
 11
121.5263076581552
 21
67.416833305708494
 31
0.0
  0
LINE
  5
1F56
  8
0
 10
121.52630765815501
 20
67.416833305708494
 30
0.0
 11
123.45264973081041
 21
67.416833305708494
 31
0.0
  0
LINE
  5
1F57
  8
0
 10
127.57735026918959
 20
67.416833305708494
 30
0.0
 11
129.39264973081029
 21
67.416833305708494
 31
0.0
  0
LINE
  5
1F58
  8
0
 10
130.54735026918959
 20
67.416833305708494
 30
0.0
 11
132.47369234184501
 21
67.416833305708494
 31
0.0
  0
LINE
  5
1F59
  8
0
 10
132.47369234184481
 20
67.416833305708494
 30
0.0
 11
132.47369234184481
 21
66.099258941070588
 31
0.0
  0
LINE
  5
1F5A
  8
0
 10
121.06
 20
64.962823011504582
 30
0.0
 11
121.52630765815501
 21
66.099258941070588
 31
0.0
  0
LINE
  5
1F5B
  8
0
 10
121.52630765815501
 20
66.099258941070588
 30
0.0
 11
123.45264973081041
 21
66.099258941070588
 31
0.0
  0
LINE
  5
1F5C
  8
0
 10
127.57735026918959
 20
66.099258941070588
 30
0.0
 11
129.39264973081029
 21
66.099258941070588
 31
0.0
  0
LINE
  5
1F5D
  8
0
 10
130.54735026918959
 20
66.099258941070588
 30
0.0
 11
132.47369234184501
 21
66.099258941070588
 31
0.0
  0
LINE
  5
1F5E
  8
0
 10
132.47369234184501
 20
66.099258941070588
 30
0.0
 11
132.94
 21
64.962823011504582
 31
0.0
  0
LINE
  5
1F5F
  8
0
 10
121.06
 20
35.037176988495588
 30
0.0
 11
121.52630765815501
 21
34.590827213445607
 31
0.0
  0
LINE
  5
1F60
  8
0
 10
132.47369234184501
 20
34.590827213445607
 30
0.0
 11
132.94
 21
35.037176988495602
 31
0.0
  0
LINE
  5
1F61
  8
0
 10
121.52630765815501
 20
65.409172786554564
 30
0.0
 11
121.06
 21
64.962823011504582
 31
0.0
  0
LINE
  5
1F62
  8
0
 10
132.94
 20
64.962823011504582
 30
0.0
 11
132.47369234184501
 21
65.409172786554564
 31
0.0
  0
LINE
  5
1F63
  8
0
 10
124.6073502691896
 20
34.590827213445607
 30
0.0
 11
126.42264973081031
 21
34.590827213445607
 31
0.0
  0
LINE
  5
1F64
  8
0
 10
121.52630765815501
 20
34.590827213445607
 30
0.0
 11
123.45264973081041
 21
34.590827213445607
 31
0.0
  0
LINE
  5
1F65
  8
0
 10
121.5263076581555
 20
34.590827213445607
 30
0.0
 11
121.5263076581555
 21
36.276978197810422
 31
0.0
  0
LINE
  5
1F66
  8
0
 10
121.52630765815501
 20
36.276978197810422
 30
0.0
 11
123.45264973081041
 21
36.276978197810422
 31
0.0
  0
LINE
  5
1F67
  8
0
 10
127.57735026918959
 20
34.590827213445607
 30
0.0
 11
129.39264973081029
 21
34.590827213445607
 31
0.0
  0
LINE
  5
1F68
  8
0
 10
132.4736923418445
 20
36.276978197810422
 30
0.0
 11
132.4736923418445
 21
34.590827213445607
 31
0.0
  0
LINE
  5
1F69
  8
0
 10
130.54735026918959
 20
34.590827213445607
 30
0.0
 11
132.47369234184501
 21
34.590827213445607
 31
0.0
  0
LINE
  5
1F6A
  8
0
 10
124.6073502691896
 20
36.276978197810422
 30
0.0
 11
126.42264973081031
 21
36.276978197810422
 31
0.0
  0
LINE
  5
1F6B
  8
0
 10
127.57735026918959
 20
36.276978197810422
 30
0.0
 11
129.39264973081029
 21
36.276978197810422
 31
0.0
  0
LINE
  5
1F6C
  8
0
 10
132.94
 20
37.368206681627143
 30
0.0
 11
132.47369234184501
 21
36.276978197810422
 31
0.0
  0
LINE
  5
1F6D
  8
0
 10
130.54735026918959
 20
36.276978197810422
 30
0.0
 11
132.47369234184501
 21
36.276978197810422
 31
0.0
  0
LINE
  5
1F6E
  8
0
 10
121.5263076581551
 20
63.723021802189749
 30
0.0
 11
121.5263076581551
 21
65.409172786554564
 31
0.0
  0
LINE
  5
1F6F
  8
0
 10
121.52630765815501
 20
65.409172786554564
 30
0.0
 11
123.45264973081041
 21
65.409172786554564
 31
0.0
  0
LINE
  5
1F70
  8
0
 10
127.57735026918959
 20
65.409172786554564
 30
0.0
 11
129.39264973081029
 21
65.409172786554564
 31
0.0
  0
LINE
  5
1F71
  8
0
 10
130.54735026918959
 20
65.409172786554564
 30
0.0
 11
132.47369234184501
 21
65.409172786554564
 31
0.0
  0
LINE
  5
1F72
  8
0
 10
132.47369234184481
 20
65.409172786554564
 30
0.0
 11
132.47369234184481
 21
63.723021802189749
 31
0.0
  0
LINE
  5
1F73
  8
0
 10
121.06
 20
62.631793318373042
 30
0.0
 11
121.52630765815501
 21
63.723021802189749
 31
0.0
  0
LINE
  5
1F74
  8
0
 10
121.52630765815501
 20
63.723021802189749
 30
0.0
 11
123.45264973081041
 21
63.723021802189749
 31
0.0
  0
LINE
  5
1F75
  8
0
 10
127.57735026918959
 20
63.723021802189749
 30
0.0
 11
129.39264973081029
 21
63.723021802189749
 31
0.0
  0
LINE
  5
1F76
  8
0
 10
130.54735026918959
 20
63.723021802189749
 30
0.0
 11
132.47369234184501
 21
63.723021802189749
 31
0.0
  0
LINE
  5
1F77
  8
0
 10
132.47369234184501
 20
63.723021802189749
 30
0.0
 11
132.94
 21
62.631793318373042
 31
0.0
  0
LINE
  5
1F78
  8
0
 10
121.06
 20
37.368206681627143
 30
0.0
 11
121.52630765815501
 21
37.123228630579952
 31
0.0
  0
LINE
  5
1F79
  8
0
 10
132.47369234184501
 20
37.123228630579952
 30
0.0
 11
132.94
 21
37.368206681627143
 31
0.0
  0
LINE
  5
1F7A
  8
0
 10
121.52630765815501
 20
62.876771369420219
 30
0.0
 11
121.06
 21
62.631793318373042
 31
0.0
  0
LINE
  5
1F7B
  8
0
 10
132.94
 20
62.631793318373042
 30
0.0
 11
132.47369234184501
 21
62.876771369420219
 31
0.0
  0
LINE
  5
1F7C
  8
0
 10
124.6073502691896
 20
37.123228630579952
 30
0.0
 11
126.42264973081031
 21
37.123228630579952
 31
0.0
  0
LINE
  5
1F7D
  8
0
 10
121.52630765815501
 20
37.123228630579952
 30
0.0
 11
123.45264973081041
 21
37.123228630579952
 31
0.0
  0
LINE
  5
1F7E
  8
0
 10
121.5263076581551
 20
37.123228630579952
 30
0.0
 11
121.5263076581551
 21
39.120536385214301
 31
0.0
  0
LINE
  5
1F7F
  8
0
 10
121.52630765815501
 20
39.120536385214301
 30
0.0
 11
123.45264973081041
 21
39.120536385214301
 31
0.0
  0
LINE
  5
1F80
  8
0
 10
127.57735026918959
 20
37.123228630579952
 30
0.0
 11
129.39264973081029
 21
37.123228630579952
 31
0.0
  0
LINE
  5
1F81
  8
0
 10
132.47369234184481
 20
39.120536385214301
 30
0.0
 11
132.47369234184481
 21
37.123228630579952
 31
0.0
  0
LINE
  5
1F82
  8
0
 10
130.54735026918959
 20
37.123228630579952
 30
0.0
 11
132.47369234184501
 21
37.123228630579952
 31
0.0
  0
LINE
  5
1F83
  8
0
 10
124.6073502691896
 20
39.120536385214301
 30
0.0
 11
126.42264973081031
 21
39.120536385214301
 31
0.0
  0
LINE
  5
1F84
  8
0
 10
127.57735026918959
 20
39.120536385214301
 30
0.0
 11
129.39264973081029
 21
39.120536385214301
 31
0.0
  0
LINE
  5
1F85
  8
0
 10
132.94
 20
40.12939694604966
 30
0.0
 11
132.47369234184501
 21
39.120536385214301
 31
0.0
  0
LINE
  5
1F86
  8
0
 10
130.54735026918959
 20
39.120536385214301
 30
0.0
 11
132.47369234184501
 21
39.120536385214301
 31
0.0
  0
LINE
  5
1F87
  8
0
 10
121.526307658154
 20
60.879463614785891
 30
0.0
 11
121.526307658154
 21
62.876771369420219
 31
0.0
  0
LINE
  5
1F88
  8
0
 10
121.52630765815501
 20
62.876771369420219
 30
0.0
 11
123.45264973081041
 21
62.876771369420219
 31
0.0
  0
LINE
  5
1F89
  8
0
 10
127.57735026918959
 20
62.876771369420219
 30
0.0
 11
129.39264973081029
 21
62.876771369420219
 31
0.0
  0
LINE
  5
1F8A
  8
0
 10
130.54735026918959
 20
62.876771369420219
 30
0.0
 11
132.47369234184501
 21
62.876771369420219
 31
0.0
  0
LINE
  5
1F8B
  8
0
 10
132.473692341846
 20
62.876771369420219
 30
0.0
 11
132.473692341846
 21
60.879463614785891
 31
0.0
  0
LINE
  5
1F8C
  8
0
 10
121.06
 20
59.870603053950532
 30
0.0
 11
121.52630765815501
 21
60.879463614785891
 31
0.0
  0
LINE
  5
1F8D
  8
0
 10
121.52630765815501
 20
60.879463614785891
 30
0.0
 11
123.45264973081041
 21
60.879463614785891
 31
0.0
  0
LINE
  5
1F8E
  8
0
 10
127.57735026918959
 20
60.879463614785891
 30
0.0
 11
129.39264973081029
 21
60.879463614785891
 31
0.0
  0
LINE
  5
1F8F
  8
0
 10
130.54735026918959
 20
60.879463614785891
 30
0.0
 11
132.47369234184501
 21
60.879463614785891
 31
0.0
  0
LINE
  5
1F90
  8
0
 10
132.47369234184501
 20
60.879463614785891
 30
0.0
 11
132.94
 21
59.870603053950511
 31
0.0
  0
LINE
  5
1F91
  8
0
 10
121.06
 20
40.129396946049681
 30
0.0
 11
121.52630765815491
 21
40.094133052714909
 31
0.0
  0
LINE
  5
1F92
  8
0
 10
132.47369234184501
 20
40.094133052714909
 30
0.0
 11
132.94
 21
40.129396946049681
 31
0.0
  0
LINE
  5
1F93
  8
0
 10
121.52630765815501
 20
59.90586694728529
 30
0.0
 11
121.06
 21
59.870603053950511
 31
0.0
  0
LINE
  5
1F94
  8
0
 10
132.94
 20
59.870603053950511
 30
0.0
 11
132.47369234184501
 21
59.90586694728529
 31
0.0
  0
LINE
  5
1F95
  8
0
 10
124.6073502691896
 20
40.094133052714909
 30
0.0
 11
126.42264973081041
 21
40.094133052714909
 31
0.0
  0
LINE
  5
1F96
  8
0
 10
121.52630765815491
 20
40.094133052714909
 30
0.0
 11
123.45264973081041
 21
40.094133052714909
 31
0.0
  0
LINE
  5
1F97
  8
0
 10
121.5263076581555
 20
40.094133052714909
 30
0.0
 11
121.5263076581555
 21
42.334581657541307
 31
0.0
  0
LINE
  5
1F98
  8
0
 10
121.52630765815501
 20
42.334581657541307
 30
0.0
 11
123.45264973081041
 21
42.334581657541307
 31
0.0
  0
LINE
  5
1F99
  8
0
 10
127.57735026918959
 20
40.094133052714909
 30
0.0
 11
129.39264973081029
 21
40.094133052714909
 31
0.0
  0
LINE
  5
1F9A
  8
0
 10
132.47369234184441
 20
42.334581657541307
 30
0.0
 11
132.47369234184441
 21
40.094133052714909
 31
0.0
  0
LINE
  5
1F9B
  8
0
 10
130.54735026918959
 20
40.094133052714909
 30
0.0
 11
132.47369234184501
 21
40.094133052714909
 31
0.0
  0
LINE
  5
1F9C
  8
0
 10
124.6073502691896
 20
42.334581657541307
 30
0.0
 11
126.42264973081031
 21
42.334581657541307
 31
0.0
  0
LINE
  5
1F9D
  8
0
 10
127.57735026918959
 20
42.334581657541307
 30
0.0
 11
129.39264973081029
 21
42.334581657541307
 31
0.0
  0
LINE
  5
1F9E
  8
0
 10
132.94
 20
43.226718758990962
 30
0.0
 11
132.47369234184501
 21
42.334581657541307
 31
0.0
  0
LINE
  5
1F9F
  8
0
 10
130.54735026918959
 20
42.334581657541307
 30
0.0
 11
132.47369234184501
 21
42.334581657541307
 31
0.0
  0
LINE
  5
1FA0
  8
0
 10
121.52630765815481
 20
57.665418342458857
 30
0.0
 11
121.52630765815481
 21
59.90586694728529
 31
0.0
  0
LINE
  5
1FA1
  8
0
 10
121.52630765815501
 20
59.90586694728529
 30
0.0
 11
123.45264973081041
 21
59.90586694728529
 31
0.0
  0
LINE
  5
1FA2
  8
0
 10
127.57735026918959
 20
59.90586694728529
 30
0.0
 11
129.39264973081029
 21
59.90586694728529
 31
0.0
  0
LINE
  5
1FA3
  8
0
 10
130.54735026918959
 20
59.90586694728529
 30
0.0
 11
132.47369234184501
 21
59.90586694728529
 31
0.0
  0
LINE
  5
1FA4
  8
0
 10
132.47369234184509
 20
59.90586694728529
 30
0.0
 11
132.47369234184509
 21
57.665418342458857
 31
0.0
  0
LINE
  5
1FA5
  8
0
 10
121.06
 20
56.773281241009201
 30
0.0
 11
121.52630765815501
 21
57.665418342458857
 31
0.0
  0
LINE
  5
1FA6
  8
0
 10
121.52630765815501
 20
57.665418342458857
 30
0.0
 11
123.45264973081041
 21
57.665418342458857
 31
0.0
  0
LINE
  5
1FA7
  8
0
 10
127.57735026918959
 20
57.665418342458857
 30
0.0
 11
129.39264973081029
 21
57.665418342458857
 31
0.0
  0
LINE
  5
1FA8
  8
0
 10
130.54735026918971
 20
57.665418342458857
 30
0.0
 11
132.47369234184501
 21
57.665418342458857
 31
0.0
  0
LINE
  5
1FA9
  8
0
 10
132.47369234184501
 20
57.665418342458857
 30
0.0
 11
132.94
 21
56.773281241009201
 31
0.0
  0
LINE
  5
1FAA
  8
0
 10
121.06
 20
43.226718758990962
 30
0.0
 11
121.52630765815501
 21
43.402369892961737
 31
0.0
  0
LINE
  5
1FAB
  8
0
 10
132.47369234184501
 20
43.402369892961737
 30
0.0
 11
132.94
 21
43.226718758990962
 31
0.0
  0
LINE
  5
1FAC
  8
0
 10
121.06
 20
43.226718758990962
 30
0.0
 11
132.94
 21
43.226718758990962
 31
0.0
  0
LINE
  5
1FAD
  8
0
 10
121.52630765815501
 20
56.597630107038427
 30
0.0
 11
121.06
 21
56.773281241009201
 31
0.0
  0
LINE
  5
1FAE
  8
0
 10
121.06
 20
56.773281241009201
 30
0.0
 11
132.94
 21
56.773281241009201
 31
0.0
  0
LINE
  5
1FAF
  8
0
 10
132.94
 20
56.773281241009201
 30
0.0
 11
132.47369234184501
 21
56.597630107038427
 31
0.0
  0
LINE
  5
1FB0
  8
0
 10
124.6073502691896
 20
43.402369892961737
 30
0.0
 11
126.42264973081031
 21
43.402369892961737
 31
0.0
  0
LINE
  5
1FB1
  8
0
 10
121.52630765815501
 20
43.402369892961737
 30
0.0
 11
123.45264973081041
 21
43.402369892961737
 31
0.0
  0
LINE
  5
1FB2
  8
0
 10
121.5263076581556
 20
43.402369892961737
 30
0.0
 11
121.5263076581556
 21
45.809663557864823
 31
0.0
  0
LINE
  5
1FB3
  8
0
 10
121.52630765815501
 20
45.809663557864823
 30
0.0
 11
123.45264973081041
 21
45.809663557864823
 31
0.0
  0
LINE
  5
1FB4
  8
0
 10
127.57735026918959
 20
43.402369892961737
 30
0.0
 11
129.39264973081029
 21
43.402369892961737
 31
0.0
  0
LINE
  5
1FB5
  8
0
 10
132.4736923418443
 20
45.809663557864823
 30
0.0
 11
132.4736923418443
 21
43.402369892961737
 31
0.0
  0
LINE
  5
1FB6
  8
0
 10
130.54735026918959
 20
43.402369892961737
 30
0.0
 11
132.47369234184501
 21
43.402369892961737
 31
0.0
  0
LINE
  5
1FB7
  8
0
 10
124.6073502691896
 20
45.809663557864823
 30
0.0
 11
126.42264973081031
 21
45.809663557864823
 31
0.0
  0
LINE
  5
1FB8
  8
0
 10
127.57735026918959
 20
45.809663557864823
 30
0.0
 11
129.39264973081029
 21
45.809663557864823
 31
0.0
  0
LINE
  5
1FB9
  8
0
 10
132.94
 20
46.554696540939389
 30
0.0
 11
132.47369234184501
 21
45.809663557864823
 31
0.0
  0
LINE
  5
1FBA
  8
0
 10
130.54735026918959
 20
45.809663557864823
 30
0.0
 11
132.47369234184501
 21
45.809663557864823
 31
0.0
  0
LINE
  5
1FBB
  8
0
 10
121.52630765815439
 20
54.190336442135361
 30
0.0
 11
121.52630765815439
 21
56.597630107038427
 31
0.0
  0
LINE
  5
1FBC
  8
0
 10
121.52630765815501
 20
56.597630107038427
 30
0.0
 11
123.45264973081041
 21
56.597630107038427
 31
0.0
  0
LINE
  5
1FBD
  8
0
 10
127.57735026918959
 20
56.597630107038427
 30
0.0
 11
129.39264973081029
 21
56.597630107038427
 31
0.0
  0
LINE
  5
1FBE
  8
0
 10
130.54735026918959
 20
56.597630107038427
 30
0.0
 11
132.47369234184501
 21
56.597630107038427
 31
0.0
  0
LINE
  5
1FBF
  8
0
 10
132.47369234184561
 20
56.597630107038427
 30
0.0
 11
132.47369234184561
 21
54.190336442135361
 31
0.0
  0
LINE
  5
1FC0
  8
0
 10
121.06
 20
53.44530345906081
 30
0.0
 11
121.52630765815501
 21
54.19033644213534
 31
0.0
  0
LINE
  5
1FC1
  8
0
 10
121.52630765815501
 20
54.19033644213534
 30
0.0
 11
123.45264973081041
 21
54.19033644213534
 31
0.0
  0
LINE
  5
1FC2
  8
0
 10
127.57735026918959
 20
54.19033644213534
 30
0.0
 11
129.39264973081029
 21
54.19033644213534
 31
0.0
  0
LINE
  5
1FC3
  8
0
 10
130.54735026918959
 20
54.19033644213534
 30
0.0
 11
132.47369234184501
 21
54.19033644213534
 31
0.0
  0
LINE
  5
1FC4
  8
0
 10
132.47369234184501
 20
54.19033644213534
 30
0.0
 11
132.94
 21
53.445303459060788
 31
0.0
  0
LINE
  5
1FC5
  8
0
 10
121.06
 20
46.554696540939403
 30
0.0
 11
121.52630765815501
 21
46.935281113518663
 31
0.0
  0
LINE
  5
1FC6
  8
0
 10
132.47369234184501
 20
46.935281113518663
 30
0.0
 11
132.94
 21
46.554696540939403
 31
0.0
  0
LINE
  5
1FC7
  8
0
 10
121.06
 20
46.554696540939403
 30
0.0
 11
132.94
 21
46.554696540939403
 31
0.0
  0
LINE
  5
1FC8
  8
0
 10
121.52630765815501
 20
53.064718886481508
 30
0.0
 11
121.06
 21
53.445303459060781
 31
0.0
  0
LINE
  5
1FC9
  8
0
 10
121.06
 20
53.445303459060781
 30
0.0
 11
132.94
 21
53.445303459060781
 31
0.0
  0
LINE
  5
1FCA
  8
0
 10
132.94
 20
53.445303459060781
 30
0.0
 11
132.47369234184501
 21
53.064718886481508
 31
0.0
  0
LINE
  5
1FCB
  8
0
 10
124.6073502691896
 20
46.935281113518663
 30
0.0
 11
126.42264973081031
 21
46.935281113518663
 31
0.0
  0
LINE
  5
1FCC
  8
0
 10
121.52630765815501
 20
46.935281113518663
 30
0.0
 11
123.45264973081041
 21
46.935281113518663
 31
0.0
  0
LINE
  5
1FCD
  8
0
 10
121.52630765815459
 20
46.935281113518663
 30
0.0
 11
121.52630765815459
 21
49.427442339970618
 31
0.0
  0
LINE
  5
1FCE
  8
0
 10
121.52630765815501
 20
49.427442339970618
 30
0.0
 11
123.45264973081041
 21
49.427442339970618
 31
0.0
  0
LINE
  5
1FCF
  8
0
 10
127.57735026918959
 20
46.935281113518663
 30
0.0
 11
129.39264973081029
 21
46.935281113518663
 31
0.0
  0
LINE
  5
1FD0
  8
0
 10
132.47369234184541
 20
49.427442339970618
 30
0.0
 11
132.47369234184541
 21
46.935281113518663
 31
0.0
  0
LINE
  5
1FD1
  8
0
 10
130.54735026918959
 20
46.935281113518663
 30
0.0
 11
132.47369234184501
 21
46.935281113518663
 31
0.0
  0
LINE
  5
1FD2
  8
0
 10
124.6073502691896
 20
49.427442339970618
 30
0.0
 11
126.42264973081031
 21
49.427442339970618
 31
0.0
  0
LINE
  5
1FD3
  8
0
 10
127.57735026918959
 20
49.427442339970618
 30
0.0
 11
129.39264973081029
 21
49.427442339970618
 31
0.0
  0
LINE
  5
1FD4
  8
0
 10
132.94
 20
50.000000000000078
 30
0.0
 11
132.47369234184501
 21
49.427442339970618
 31
0.0
  0
LINE
  5
1FD5
  8
0
 10
130.54735026918959
 20
49.427442339970618
 30
0.0
 11
132.47369234184501
 21
49.427442339970618
 31
0.0
  0
LINE
  5
1FD6
  8
0
 10
121.5263076581556
 20
50.572557660029538
 30
0.0
 11
121.5263076581556
 21
53.064718886481508
 31
0.0
  0
LINE
  5
1FD7
  8
0
 10
121.52630765815501
 20
53.064718886481508
 30
0.0
 11
123.45264973081041
 21
53.064718886481508
 31
0.0
  0
LINE
  5
1FD8
  8
0
 10
127.57735026918959
 20
53.064718886481508
 30
0.0
 11
129.39264973081029
 21
53.064718886481508
 31
0.0
  0
LINE
  5
1FD9
  8
0
 10
130.54735026918959
 20
53.064718886481508
 30
0.0
 11
132.47369234184501
 21
53.064718886481508
 31
0.0
  0
LINE
  5
1FDA
  8
0
 10
132.4736923418443
 20
53.064718886481508
 30
0.0
 11
132.4736923418443
 21
50.572557660029538
 31
0.0
  0
LINE
  5
1FDB
  8
0
 10
121.06
 20
50.000000000000099
 30
0.0
 11
121.52630765815501
 21
50.572557660029538
 31
0.0
  0
LINE
  5
1FDC
  8
0
 10
121.52630765815501
 20
50.572557660029538
 30
0.0
 11
123.45264973081041
 21
50.572557660029538
 31
0.0
  0
LINE
  5
1FDD
  8
0
 10
127.57735026918959
 20
50.572557660029538
 30
0.0
 11
129.39264973081029
 21
50.572557660029538
 31
0.0
  0
LINE
  5
1FDE
  8
0
 10
130.54735026918959
 20
50.572557660029538
 30
0.0
 11
132.47369234184501
 21
50.572557660029538
 31
0.0
  0
LINE
  5
1FDF
  8
0
 10
132.47369234184501
 20
50.572557660029538
 30
0.0
 11
132.94
 21
50.000000000000078
 31
0.0
  0
LINE
  5
1FE0
  8
0
 10
121.06
 20
50.000000000000078
 30
0.0
 11
132.94
 21
50.000000000000078
 31
0.0
  0
LINE
  5
1FE1
  8
0
 10
129.3926497308095
 20
69.71031330603401
 30
0.0
 11
129.3926497308095
 21
69.750000000000085
 31
0.0
  0
LINE
  5
1FE2
  8
0
 10
129.97
 20
68.67001580553196
 30
0.0
 11
129.39264973081029
 21
69.71031330603401
 31
0.0
  0
LINE
  5
1FE3
  8
0
 10
129.39264973081089
 20
69.144760138290337
 30
0.0
 11
129.39264973081089
 21
69.604655394055854
 31
0.0
  0
LINE
  5
1FE4
  8
0
 10
129.39264973081029
 20
69.604655394055854
 30
0.0
 11
129.97
 21
68.67001580553196
 31
0.0
  0
LINE
  5
1FE5
  8
0
 10
129.97
 20
68.034230809490424
 30
0.0
 11
129.39264973081029
 21
69.144760138290337
 31
0.0
  0
LINE
  5
1FE6
  8
0
 10
129.39264973080969
 20
67.927255125646099
 30
0.0
 11
129.39264973080969
 21
68.831384455825656
 31
0.0
  0
LINE
  5
1FE7
  8
0
 10
129.39264973081029
 20
68.831384455825656
 30
0.0
 11
129.97
 21
68.034230809490424
 31
0.0
  0
LINE
  5
1FE8
  8
0
 10
129.97
 20
66.784311712907481
 30
0.0
 11
129.39264973081029
 21
67.927255125646099
 31
0.0
  0
LINE
  5
1FE9
  8
0
 10
129.39264973081009
 20
66.099258941070588
 30
0.0
 11
129.39264973081009
 21
67.416833305708494
 31
0.0
  0
LINE
  5
1FEA
  8
0
 10
129.39264973081029
 20
67.416833305708494
 30
0.0
 11
129.97
 21
66.78431171290751
 31
0.0
  0
LINE
  5
1FEB
  8
0
 10
129.97
 20
64.962823011504582
 30
0.0
 11
129.39264973081029
 21
66.099258941070588
 31
0.0
  0
LINE
  5
1FEC
  8
0
 10
129.39264973081021
 20
63.723021802189749
 30
0.0
 11
129.39264973081021
 21
65.409172786554564
 31
0.0
  0
LINE
  5
1FED
  8
0
 10
129.39264973081029
 20
65.409172786554564
 30
0.0
 11
129.97
 21
64.962823011504582
 31
0.0
  0
LINE
  5
1FEE
  8
0
 10
129.97
 20
62.631793318373042
 30
0.0
 11
129.39264973081029
 21
63.723021802189749
 31
0.0
  0
LINE
  5
1FEF
  8
0
 10
129.3926497308116
 20
60.879463614785891
 30
0.0
 11
129.3926497308116
 21
62.876771369420219
 31
0.0
  0
LINE
  5
1FF0
  8
0
 10
129.39264973081029
 20
62.876771369420219
 30
0.0
 11
129.97
 21
62.631793318373042
 31
0.0
  0
LINE
  5
1FF1
  8
0
 10
129.97
 20
59.870603053950511
 30
0.0
 11
129.39264973081029
 21
60.879463614785863
 31
0.0
  0
LINE
  5
1FF2
  8
0
 10
129.39264973081049
 20
57.665418342458857
 30
0.0
 11
129.39264973081049
 21
59.90586694728529
 31
0.0
  0
LINE
  5
1FF3
  8
0
 10
129.39264973081029
 20
59.90586694728529
 30
0.0
 11
129.97
 21
59.870603053950511
 31
0.0
  0
LINE
  5
1FF4
  8
0
 10
129.97
 20
56.773281241009187
 30
0.0
 11
129.39264973081029
 21
57.665418342458857
 31
0.0
  0
LINE
  5
1FF5
  8
0
 10
129.39264973081109
 20
54.190336442135361
 30
0.0
 11
129.39264973081109
 21
56.597630107038427
 31
0.0
  0
LINE
  5
1FF6
  8
0
 10
129.39264973081029
 20
56.597630107038427
 30
0.0
 11
129.97
 21
56.773281241009201
 31
0.0
  0
LINE
  5
1FF7
  8
0
 10
129.97
 20
53.445303459060788
 30
0.0
 11
129.39264973081029
 21
54.19033644213534
 31
0.0
  0
LINE
  5
1FF8
  8
0
 10
129.3926497308095
 20
50.572557660029538
 30
0.0
 11
129.3926497308095
 21
53.064718886481508
 31
0.0
  0
LINE
  5
1FF9
  8
0
 10
129.39264973081029
 20
53.064718886481508
 30
0.0
 11
129.97
 21
53.445303459060781
 31
0.0
  0
LINE
  5
1FFA
  8
0
 10
130.54735026918959
 20
49.427442339970618
 30
0.0
 11
129.39264973081029
 21
50.572557660029538
 31
0.0
  0
LINE
  5
1FFB
  8
0
 10
129.97
 20
46.554696540939389
 30
0.0
 11
129.39264973081029
 21
46.935281113518663
 31
0.0
  0
LINE
  5
1FFC
  8
0
 10
129.3926497308108
 20
46.935281113518663
 30
0.0
 11
129.3926497308108
 21
49.427442339970618
 31
0.0
  0
LINE
  5
1FFD
  8
0
 10
129.39264973081029
 20
49.427442339970618
 30
0.0
 11
130.54735026918959
 21
50.572557660029538
 31
0.0
  0
LINE
  5
1FFE
  8
0
 10
129.97
 20
43.226718758990962
 30
0.0
 11
129.39264973081029
 21
43.402369892961737
 31
0.0
  0
LINE
  5
1FFF
  8
0
 10
129.3926497308095
 20
43.402369892961737
 30
0.0
 11
129.3926497308095
 21
45.809663557864823
 31
0.0
  0
LINE
  5
2000
  8
0
 10
129.39264973081029
 20
45.809663557864823
 30
0.0
 11
129.97
 21
46.554696540939403
 31
0.0
  0
LINE
  5
2001
  8
0
 10
129.97
 20
40.129396946049681
 30
0.0
 11
129.39264973081029
 21
40.094133052714909
 31
0.0
  0
LINE
  5
2002
  8
0
 10
129.39264973080969
 20
40.094133052714909
 30
0.0
 11
129.39264973080969
 21
42.334581657541307
 31
0.0
  0
LINE
  5
2003
  8
0
 10
129.39264973081029
 20
42.334581657541307
 30
0.0
 11
129.97
 21
43.226718758990977
 31
0.0
  0
LINE
  5
2004
  8
0
 10
129.97
 20
37.368206681627143
 30
0.0
 11
129.39264973081029
 21
37.123228630579952
 31
0.0
  0
LINE
  5
2005
  8
0
 10
129.39264973081021
 20
37.123228630579952
 30
0.0
 11
129.39264973081021
 21
39.120536385214301
 31
0.0
  0
LINE
  5
2006
  8
0
 10
129.39264973081029
 20
39.120536385214301
 30
0.0
 11
129.97
 21
40.12939694604966
 31
0.0
  0
LINE
  5
2007
  8
0
 10
129.97
 20
35.037176988495602
 30
0.0
 11
129.39264973081029
 21
34.590827213445607
 31
0.0
  0
LINE
  5
2008
  8
0
 10
129.39264973080981
 20
34.590827213445607
 30
0.0
 11
129.39264973080981
 21
36.276978197810422
 31
0.0
  0
LINE
  5
2009
  8
0
 10
129.39264973081029
 20
36.276978197810422
 30
0.0
 11
129.97
 21
37.368206681627157
 31
0.0
  0
LINE
  5
200A
  8
0
 10
129.97
 20
33.215688287092668
 30
0.0
 11
129.39264973081029
 21
32.583166694291677
 31
0.0
  0
LINE
  5
200B
  8
0
 10
129.39264973081251
 20
32.583166694291677
 30
0.0
 11
129.39264973081251
 21
33.90074105892959
 31
0.0
  0
LINE
  5
200C
  8
0
 10
129.39264973081029
 20
33.90074105892959
 30
0.0
 11
129.97
 21
35.037176988495617
 31
0.0
  0
LINE
  5
200D
  8
0
 10
129.97
 20
31.965769190509729
 30
0.0
 11
129.39264973081029
 21
31.168615544174521
 31
0.0
  0
LINE
  5
200E
  8
0
 10
129.39264973080989
 20
31.168615544174521
 30
0.0
 11
129.39264973080989
 21
32.072744874354072
 31
0.0
  0
LINE
  5
200F
  8
0
 10
129.39264973081029
 20
32.072744874354072
 30
0.0
 11
129.97
 21
33.215688287092668
 31
0.0
  0
LINE
  5
2010
  8
0
 10
129.97
 20
31.329984194468199
 30
0.0
 11
129.39264973081029
 21
30.395344605944299
 31
0.0
  0
LINE
  5
2011
  8
0
 10
129.39264973080981
 20
30.395344605944299
 30
0.0
 11
129.39264973080981
 21
30.855239861709851
 31
0.0
  0
LINE
  5
2012
  8
0
 10
129.39264973081029
 20
30.855239861709851
 30
0.0
 11
129.97
 21
31.965769190509729
 31
0.0
  0
LINE
  5
2013
  8
0
 10
129.3926497308095
 20
30.250000000000099
 30
0.0
 11
129.3926497308095
 21
30.289686693966161
 31
0.0
  0
LINE
  5
2014
  8
0
 10
129.39264973081029
 20
30.289686693966161
 30
0.0
 11
129.97
 21
31.329984194468199
 31
0.0
  0
LINE
  5
2015
  8
0
 10
130.54735026919039
 20
30.289686693966161
 30
0.0
 11
130.54735026919039
 21
30.250000000000099
 31
0.0
  0
LINE
  5
2016
  8
0
 10
129.97
 20
31.32998419446821
 30
0.0
 11
130.54735026918959
 21
30.289686693966161
 31
0.0
  0
LINE
  5
2017
  8
0
 10
130.54735026919019
 20
30.855239861709851
 30
0.0
 11
130.54735026919019
 21
30.395344605944299
 31
0.0
  0
LINE
  5
2018
  8
0
 10
130.54735026918959
 20
30.395344605944299
 30
0.0
 11
129.97
 21
31.32998419446821
 31
0.0
  0
LINE
  5
2019
  8
0
 10
129.97
 20
31.96576919050975
 30
0.0
 11
130.54735026918959
 21
30.855239861709851
 31
0.0
  0
LINE
  5
201A
  8
0
 10
130.5473502691901
 20
32.072744874354072
 30
0.0
 11
130.5473502691901
 21
31.168615544174521
 31
0.0
  0
LINE
  5
201B
  8
0
 10
130.54735026918959
 20
31.168615544174521
 30
0.0
 11
129.97
 21
31.965769190509729
 31
0.0
  0
LINE
  5
201C
  8
0
 10
129.97
 20
33.215688287092689
 30
0.0
 11
130.54735026918959
 21
32.072744874354072
 31
0.0
  0
LINE
  5
201D
  8
0
 10
130.5473502691874
 20
33.90074105892959
 30
0.0
 11
130.5473502691874
 21
32.583166694291677
 31
0.0
  0
LINE
  5
201E
  8
0
 10
130.54735026918959
 20
32.583166694291677
 30
0.0
 11
129.97
 21
33.215688287092689
 31
0.0
  0
LINE
  5
201F
  8
0
 10
129.97
 20
35.037176988495588
 30
0.0
 11
130.54735026918959
 21
33.90074105892959
 31
0.0
  0
LINE
  5
2020
  8
0
 10
130.54735026919019
 20
36.276978197810422
 30
0.0
 11
130.54735026919019
 21
34.590827213445607
 31
0.0
  0
LINE
  5
2021
  8
0
 10
130.54735026918959
 20
34.590827213445607
 30
0.0
 11
129.97
 21
35.037176988495602
 31
0.0
  0
LINE
  5
2022
  8
0
 10
129.97
 20
37.368206681627143
 30
0.0
 11
130.54735026918959
 21
36.276978197810422
 31
0.0
  0
LINE
  5
2023
  8
0
 10
130.54735026918979
 20
39.120536385214301
 30
0.0
 11
130.54735026918979
 21
37.123228630579952
 31
0.0
  0
LINE
  5
2024
  8
0
 10
130.54735026918959
 20
37.123228630579952
 30
0.0
 11
129.97
 21
37.368206681627143
 31
0.0
  0
LINE
  5
2025
  8
0
 10
129.97
 20
40.129396946049688
 30
0.0
 11
130.54735026918959
 21
39.120536385214301
 31
0.0
  0
LINE
  5
2026
  8
0
 10
130.5473502691903
 20
42.334581657541307
 30
0.0
 11
130.5473502691903
 21
40.094133052714909
 31
0.0
  0
LINE
  5
2027
  8
0
 10
130.54735026918959
 20
40.094133052714909
 30
0.0
 11
129.97
 21
40.129396946049681
 31
0.0
  0
LINE
  5
2028
  8
0
 10
129.97
 20
43.226718758990962
 30
0.0
 11
130.54735026918959
 21
42.334581657541307
 31
0.0
  0
LINE
  5
2029
  8
0
 10
130.5473502691905
 20
45.809663557864823
 30
0.0
 11
130.5473502691905
 21
43.402369892961737
 31
0.0
  0
LINE
  5
202A
  8
0
 10
130.54735026918959
 20
43.402369892961737
 30
0.0
 11
129.97
 21
43.226718758990962
 31
0.0
  0
LINE
  5
202B
  8
0
 10
129.97
 20
46.554696540939403
 30
0.0
 11
130.54735026918959
 21
45.809663557864823
 31
0.0
  0
LINE
  5
202C
  8
0
 10
130.5473502691892
 20
49.427442339970618
 30
0.0
 11
130.5473502691892
 21
46.935281113518663
 31
0.0
  0
LINE
  5
202D
  8
0
 10
130.54735026918959
 20
46.935281113518663
 30
0.0
 11
129.97
 21
46.554696540939389
 31
0.0
  0
LINE
  5
202E
  8
0
 10
129.97
 20
31.250000000000099
 30
0.0
 11
129.97
 21
68.750000000000085
 31
0.0
  0
LINE
  5
202F
  8
0
 10
129.97
 20
53.445303459060781
 30
0.0
 11
130.54735026918959
 21
53.064718886481508
 31
0.0
  0
LINE
  5
2030
  8
0
 10
130.5473502691905
 20
53.064718886481508
 30
0.0
 11
130.5473502691905
 21
50.572557660029538
 31
0.0
  0
LINE
  5
2031
  8
0
 10
129.97
 20
56.773281241009201
 30
0.0
 11
130.54735026918959
 21
56.597630107038427
 31
0.0
  0
LINE
  5
2032
  8
0
 10
130.54735026918891
 20
56.597630107038427
 30
0.0
 11
130.54735026918891
 21
54.190336442135361
 31
0.0
  0
LINE
  5
2033
  8
0
 10
130.54735026918959
 20
54.19033644213534
 30
0.0
 11
129.97
 21
53.445303459060781
 31
0.0
  0
LINE
  5
2034
  8
0
 10
129.97
 20
59.870603053950511
 30
0.0
 11
130.54735026918959
 21
59.90586694728529
 31
0.0
  0
LINE
  5
2035
  8
0
 10
130.54735026918939
 20
59.90586694728529
 30
0.0
 11
130.54735026918939
 21
57.665418342458857
 31
0.0
  0
LINE
  5
2036
  8
0
 10
130.54735026918971
 20
57.665418342458857
 30
0.0
 11
129.97
 21
56.773281241009201
 31
0.0
  0
LINE
  5
2037
  8
0
 10
129.97
 20
62.631793318373013
 30
0.0
 11
130.54735026918959
 21
62.876771369420219
 31
0.0
  0
LINE
  5
2038
  8
0
 10
130.5473502691884
 20
62.876771369420219
 30
0.0
 11
130.5473502691884
 21
60.879463614785891
 31
0.0
  0
LINE
  5
2039
  8
0
 10
130.54735026918959
 20
60.879463614785891
 30
0.0
 11
129.97
 21
59.870603053950511
 31
0.0
  0
LINE
  5
203A
  8
0
 10
129.97
 20
64.962823011504554
 30
0.0
 11
130.54735026918959
 21
65.409172786554564
 31
0.0
  0
LINE
  5
203B
  8
0
 10
130.54735026918979
 20
65.409172786554564
 30
0.0
 11
130.54735026918979
 21
63.723021802189749
 31
0.0
  0
LINE
  5
203C
  8
0
 10
130.54735026918959
 20
63.723021802189749
 30
0.0
 11
129.97
 21
62.631793318373013
 31
0.0
  0
LINE
  5
203D
  8
0
 10
129.97
 20
66.78431171290751
 30
0.0
 11
130.54735026918959
 21
67.416833305708494
 31
0.0
  0
LINE
  5
203E
  8
0
 10
130.54735026918991
 20
67.416833305708494
 30
0.0
 11
130.54735026918991
 21
66.099258941070588
 31
0.0
  0
LINE
  5
203F
  8
0
 10
130.54735026918959
 20
66.099258941070588
 30
0.0
 11
129.97
 21
64.962823011504554
 31
0.0
  0
LINE
  5
2040
  8
0
 10
129.97
 20
68.034230809490424
 30
0.0
 11
130.54735026918959
 21
68.831384455825656
 31
0.0
  0
LINE
  5
2041
  8
0
 10
130.54735026919019
 20
68.831384455825656
 30
0.0
 11
130.54735026919019
 21
67.927255125646099
 31
0.0
  0
LINE
  5
2042
  8
0
 10
130.54735026918971
 20
67.927255125646099
 30
0.0
 11
129.97
 21
66.78431171290751
 31
0.0
  0
LINE
  5
2043
  8
0
 10
129.97
 20
68.67001580553196
 30
0.0
 11
130.54735026918959
 21
69.604655394055854
 31
0.0
  0
LINE
  5
2044
  8
0
 10
130.547350269189
 20
69.604655394055854
 30
0.0
 11
130.547350269189
 21
69.144760138290337
 31
0.0
  0
LINE
  5
2045
  8
0
 10
130.54735026918959
 20
69.144760138290337
 30
0.0
 11
129.97
 21
68.034230809490424
 31
0.0
  0
LINE
  5
2046
  8
0
 10
130.5473502691905
 20
69.750000000000085
 30
0.0
 11
130.5473502691905
 21
69.71031330603401
 31
0.0
  0
LINE
  5
2047
  8
0
 10
130.54735026918959
 20
69.71031330603401
 30
0.0
 11
129.97
 21
68.67001580553196
 31
0.0
  0
LINE
  5
2048
  8
0
 10
126.4226497308095
 20
69.71031330603401
 30
0.0
 11
126.4226497308095
 21
69.750000000000085
 31
0.0
  0
LINE
  5
2049
  8
0
 10
127.0
 20
68.670015805531989
 30
0.0
 11
126.42264973081031
 21
69.71031330603401
 31
0.0
  0
LINE
  5
204A
  8
0
 10
126.422649730811
 20
69.144760138290337
 30
0.0
 11
126.422649730811
 21
69.604655394055854
 31
0.0
  0
LINE
  5
204B
  8
0
 10
126.42264973081031
 20
69.604655394055854
 30
0.0
 11
127.0
 21
68.670015805531989
 31
0.0
  0
LINE
  5
204C
  8
0
 10
127.0
 20
68.034230809490452
 30
0.0
 11
126.42264973081031
 21
69.144760138290337
 31
0.0
  0
LINE
  5
204D
  8
0
 10
126.42264973080979
 20
67.927255125646099
 30
0.0
 11
126.42264973080979
 21
68.831384455825656
 31
0.0
  0
LINE
  5
204E
  8
0
 10
126.42264973081031
 20
68.831384455825656
 30
0.0
 11
127.0
 21
68.034230809490452
 31
0.0
  0
LINE
  5
204F
  8
0
 10
127.0
 20
66.78431171290751
 30
0.0
 11
126.42264973081031
 21
67.927255125646099
 31
0.0
  0
LINE
  5
2050
  8
0
 10
126.42264973081009
 20
66.099258941070588
 30
0.0
 11
126.42264973081009
 21
67.416833305708494
 31
0.0
  0
LINE
  5
2051
  8
0
 10
126.42264973081031
 20
67.416833305708494
 30
0.0
 11
127.0
 21
66.78431171290751
 31
0.0
  0
LINE
  5
2052
  8
0
 10
127.0
 20
64.962823011504582
 30
0.0
 11
126.42264973081031
 21
66.099258941070588
 31
0.0
  0
LINE
  5
2053
  8
0
 10
126.42264973081021
 20
63.723021802189749
 30
0.0
 11
126.42264973081021
 21
65.409172786554564
 31
0.0
  0
LINE
  5
2054
  8
0
 10
126.42264973081031
 20
65.409172786554564
 30
0.0
 11
127.0
 21
64.962823011504582
 31
0.0
  0
LINE
  5
2055
  8
0
 10
127.0
 20
62.631793318373042
 30
0.0
 11
126.42264973081041
 21
63.723021802189749
 31
0.0
  0
LINE
  5
2056
  8
0
 10
126.4226497308116
 20
60.879463614785891
 30
0.0
 11
126.4226497308116
 21
62.876771369420219
 31
0.0
  0
LINE
  5
2057
  8
0
 10
126.42264973081041
 20
62.876771369420219
 30
0.0
 11
127.0
 21
62.631793318373042
 31
0.0
  0
LINE
  5
2058
  8
0
 10
127.0
 20
59.870603053950532
 30
0.0
 11
126.42264973081041
 21
60.879463614785891
 31
0.0
  0
LINE
  5
2059
  8
0
 10
126.4226497308106
 20
57.665418342458857
 30
0.0
 11
126.4226497308106
 21
59.90586694728529
 31
0.0
  0
LINE
  5
205A
  8
0
 10
126.42264973081031
 20
59.90586694728529
 30
0.0
 11
127.0
 21
59.870603053950511
 31
0.0
  0
LINE
  5
205B
  8
0
 10
127.0
 20
56.773281241009208
 30
0.0
 11
126.42264973081031
 21
57.665418342458857
 31
0.0
  0
LINE
  5
205C
  8
0
 10
126.4226497308111
 20
54.190336442135361
 30
0.0
 11
126.4226497308111
 21
56.597630107038427
 31
0.0
  0
LINE
  5
205D
  8
0
 10
126.42264973081031
 20
56.597630107038427
 30
0.0
 11
127.0
 21
56.773281241009201
 31
0.0
  0
LINE
  5
205E
  8
0
 10
127.0
 20
53.44530345906081
 30
0.0
 11
126.42264973081041
 21
54.19033644213534
 31
0.0
  0
LINE
  5
205F
  8
0
 10
126.4226497308095
 20
50.572557660029538
 30
0.0
 11
126.4226497308095
 21
53.064718886481508
 31
0.0
  0
LINE
  5
2060
  8
0
 10
126.42264973081031
 20
53.064718886481508
 30
0.0
 11
127.0
 21
53.445303459060781
 31
0.0
  0
LINE
  5
2061
  8
0
 10
127.57735026918959
 20
49.427442339970618
 30
0.0
 11
126.42264973081031
 21
50.572557660029538
 31
0.0
  0
LINE
  5
2062
  8
0
 10
127.0
 20
46.554696540939403
 30
0.0
 11
126.42264973081031
 21
46.935281113518663
 31
0.0
  0
LINE
  5
2063
  8
0
 10
126.4226497308108
 20
46.935281113518663
 30
0.0
 11
126.4226497308108
 21
49.427442339970618
 31
0.0
  0
LINE
  5
2064
  8
0
 10
126.42264973081031
 20
49.427442339970618
 30
0.0
 11
127.57735026918959
 21
50.572557660029538
 31
0.0
  0
LINE
  5
2065
  8
0
 10
127.0
 20
43.226718758990962
 30
0.0
 11
126.42264973081031
 21
43.402369892961737
 31
0.0
  0
LINE
  5
2066
  8
0
 10
126.4226497308095
 20
43.402369892961737
 30
0.0
 11
126.4226497308095
 21
45.809663557864823
 31
0.0
  0
LINE
  5
2067
  8
0
 10
126.42264973081031
 20
45.809663557864823
 30
0.0
 11
127.0
 21
46.554696540939389
 31
0.0
  0
LINE
  5
2068
  8
0
 10
127.0
 20
40.129396946049681
 30
0.0
 11
126.42264973081041
 21
40.094133052714909
 31
0.0
  0
LINE
  5
2069
  8
0
 10
126.4226497308096
 20
40.094133052714909
 30
0.0
 11
126.4226497308096
 21
42.334581657541307
 31
0.0
  0
LINE
  5
206A
  8
0
 10
126.42264973081031
 20
42.334581657541307
 30
0.0
 11
127.0
 21
43.226718758990962
 31
0.0
  0
LINE
  5
206B
  8
0
 10
127.0
 20
37.368206681627143
 30
0.0
 11
126.42264973081031
 21
37.123228630579952
 31
0.0
  0
LINE
  5
206C
  8
0
 10
126.42264973081021
 20
37.123228630579952
 30
0.0
 11
126.42264973081021
 21
39.120536385214301
 31
0.0
  0
LINE
  5
206D
  8
0
 10
126.42264973081031
 20
39.120536385214301
 30
0.0
 11
127.0
 21
40.12939694604966
 31
0.0
  0
LINE
  5
206E
  8
0
 10
127.0
 20
35.037176988495588
 30
0.0
 11
126.42264973081031
 21
34.590827213445607
 31
0.0
  0
LINE
  5
206F
  8
0
 10
126.42264973080979
 20
34.590827213445607
 30
0.0
 11
126.42264973080979
 21
36.276978197810422
 31
0.0
  0
LINE
  5
2070
  8
0
 10
126.42264973081041
 20
36.276978197810422
 30
0.0
 11
127.0
 21
37.368206681627143
 31
0.0
  0
LINE
  5
2071
  8
0
 10
127.0
 20
33.215688287092668
 30
0.0
 11
126.42264973081041
 21
32.583166694291677
 31
0.0
  0
LINE
  5
2072
  8
0
 10
126.42264973081249
 20
32.583166694291677
 30
0.0
 11
126.42264973081249
 21
33.90074105892959
 31
0.0
  0
LINE
  5
2073
  8
0
 10
126.42264973081041
 20
33.90074105892959
 30
0.0
 11
127.0
 21
35.037176988495588
 31
0.0
  0
LINE
  5
2074
  8
0
 10
127.0
 20
31.965769190509722
 30
0.0
 11
126.42264973081031
 21
31.168615544174521
 31
0.0
  0
LINE
  5
2075
  8
0
 10
126.42264973080989
 20
31.168615544174521
 30
0.0
 11
126.42264973080989
 21
32.072744874354072
 31
0.0
  0
LINE
  5
2076
  8
0
 10
126.42264973081031
 20
32.072744874354072
 30
0.0
 11
127.0
 21
33.215688287092661
 31
0.0
  0
LINE
  5
2077
  8
0
 10
127.0
 20
31.329984194468182
 30
0.0
 11
126.42264973081041
 21
30.395344605944299
 31
0.0
  0
LINE
  5
2078
  8
0
 10
126.42264973080979
 20
30.395344605944299
 30
0.0
 11
126.42264973080979
 21
30.855239861709851
 31
0.0
  0
LINE
  5
2079
  8
0
 10
126.42264973081031
 20
30.855239861709851
 30
0.0
 11
127.0
 21
31.965769190509722
 31
0.0
  0
LINE
  5
207A
  8
0
 10
126.4226497308096
 20
30.250000000000099
 30
0.0
 11
126.4226497308096
 21
30.289686693966161
 31
0.0
  0
LINE
  5
207B
  8
0
 10
126.42264973081031
 20
30.289686693966161
 30
0.0
 11
127.0
 21
31.329984194468182
 31
0.0
  0
LINE
  5
207C
  8
0
 10
127.5773502691904
 20
30.289686693966161
 30
0.0
 11
127.5773502691904
 21
30.250000000000099
 31
0.0
  0
LINE
  5
207D
  8
0
 10
127.0
 20
31.329984194468182
 30
0.0
 11
127.57735026918959
 21
30.289686693966161
 31
0.0
  0
LINE
  5
207E
  8
0
 10
127.57735026919021
 20
30.855239861709851
 30
0.0
 11
127.57735026919021
 21
30.395344605944299
 31
0.0
  0
LINE
  5
207F
  8
0
 10
127.57735026918959
 20
30.395344605944299
 30
0.0
 11
127.0
 21
31.329984194468182
 31
0.0
  0
LINE
  5
2080
  8
0
 10
127.0
 20
31.965769190509722
 30
0.0
 11
127.57735026918959
 21
30.855239861709851
 31
0.0
  0
LINE
  5
2081
  8
0
 10
127.57735026919011
 20
32.072744874354072
 30
0.0
 11
127.57735026919011
 21
31.168615544174521
 31
0.0
  0
LINE
  5
2082
  8
0
 10
127.57735026918959
 20
31.168615544174521
 30
0.0
 11
127.0
 21
31.965769190509722
 31
0.0
  0
LINE
  5
2083
  8
0
 10
127.0
 20
33.215688287092661
 30
0.0
 11
127.57735026918959
 21
32.072744874354072
 31
0.0
  0
LINE
  5
2084
  8
0
 10
127.57735026918741
 20
33.90074105892959
 30
0.0
 11
127.57735026918741
 21
32.583166694291677
 31
0.0
  0
LINE
  5
2085
  8
0
 10
127.57735026918959
 20
32.583166694291677
 30
0.0
 11
127.0
 21
33.215688287092668
 31
0.0
  0
LINE
  5
2086
  8
0
 10
127.0
 20
35.037176988495588
 30
0.0
 11
127.57735026918959
 21
33.90074105892959
 31
0.0
  0
LINE
  5
2087
  8
0
 10
127.57735026919021
 20
36.276978197810422
 30
0.0
 11
127.57735026919021
 21
34.590827213445607
 31
0.0
  0
LINE
  5
2088
  8
0
 10
127.57735026918959
 20
34.590827213445607
 30
0.0
 11
127.0
 21
35.037176988495588
 31
0.0
  0
LINE
  5
2089
  8
0
 10
127.0
 20
37.368206681627143
 30
0.0
 11
127.57735026918959
 21
36.276978197810422
 31
0.0
  0
LINE
  5
208A
  8
0
 10
127.57735026918979
 20
39.120536385214301
 30
0.0
 11
127.57735026918979
 21
37.123228630579952
 31
0.0
  0
LINE
  5
208B
  8
0
 10
127.57735026918959
 20
37.123228630579952
 30
0.0
 11
127.0
 21
37.368206681627143
 31
0.0
  0
LINE
  5
208C
  8
0
 10
127.0
 20
40.12939694604966
 30
0.0
 11
127.57735026918959
 21
39.120536385214301
 31
0.0
  0
LINE
  5
208D
  8
0
 10
127.5773502691903
 20
42.334581657541307
 30
0.0
 11
127.5773502691903
 21
40.094133052714909
 31
0.0
  0
LINE
  5
208E
  8
0
 10
127.57735026918959
 20
40.094133052714909
 30
0.0
 11
127.0
 21
40.129396946049681
 31
0.0
  0
LINE
  5
208F
  8
0
 10
127.0
 20
43.226718758990962
 30
0.0
 11
127.57735026918959
 21
42.334581657541307
 31
0.0
  0
LINE
  5
2090
  8
0
 10
127.5773502691904
 20
45.809663557864823
 30
0.0
 11
127.5773502691904
 21
43.402369892961737
 31
0.0
  0
LINE
  5
2091
  8
0
 10
127.57735026918959
 20
43.402369892961737
 30
0.0
 11
127.0
 21
43.226718758990962
 31
0.0
  0
LINE
  5
2092
  8
0
 10
127.0
 20
46.554696540939389
 30
0.0
 11
127.57735026918959
 21
45.809663557864823
 31
0.0
  0
LINE
  5
2093
  8
0
 10
127.5773502691892
 20
49.427442339970618
 30
0.0
 11
127.5773502691892
 21
46.935281113518663
 31
0.0
  0
LINE
  5
2094
  8
0
 10
127.57735026918959
 20
46.935281113518663
 30
0.0
 11
127.0
 21
46.554696540939403
 31
0.0
  0
LINE
  5
2095
  8
0
 10
127.0
 20
53.445303459060781
 30
0.0
 11
127.57735026918959
 21
53.064718886481508
 31
0.0
  0
LINE
  5
2096
  8
0
 10
127.5773502691904
 20
53.064718886481508
 30
0.0
 11
127.5773502691904
 21
50.572557660029538
 31
0.0
  0
LINE
  5
2097
  8
0
 10
127.0
 20
56.773281241009201
 30
0.0
 11
127.57735026918959
 21
56.597630107038427
 31
0.0
  0
LINE
  5
2098
  8
0
 10
127.5773502691888
 20
56.597630107038427
 30
0.0
 11
127.5773502691888
 21
54.190336442135361
 31
0.0
  0
LINE
  5
2099
  8
0
 10
127.57735026918959
 20
54.19033644213534
 30
0.0
 11
127.0
 21
53.44530345906081
 31
0.0
  0
LINE
  5
209A
  8
0
 10
127.0
 20
31.250000000000089
 30
0.0
 11
127.0
 21
68.750000000000085
 31
0.0
  0
LINE
  5
209B
  8
0
 10
127.0
 20
59.870603053950511
 30
0.0
 11
127.57735026918959
 21
59.90586694728529
 31
0.0
  0
LINE
  5
209C
  8
0
 10
127.5773502691894
 20
59.90586694728529
 30
0.0
 11
127.5773502691894
 21
57.665418342458857
 31
0.0
  0
LINE
  5
209D
  8
0
 10
127.57735026918959
 20
57.665418342458857
 30
0.0
 11
127.0
 21
56.773281241009208
 31
0.0
  0
LINE
  5
209E
  8
0
 10
127.0
 20
62.631793318373042
 30
0.0
 11
127.57735026918959
 21
62.876771369420219
 31
0.0
  0
LINE
  5
209F
  8
0
 10
127.5773502691883
 20
62.876771369420219
 30
0.0
 11
127.5773502691883
 21
60.879463614785891
 31
0.0
  0
LINE
  5
20A0
  8
0
 10
127.57735026918959
 20
60.879463614785891
 30
0.0
 11
127.0
 21
59.870603053950532
 31
0.0
  0
LINE
  5
20A1
  8
0
 10
127.0
 20
64.962823011504582
 30
0.0
 11
127.57735026918959
 21
65.409172786554564
 31
0.0
  0
LINE
  5
20A2
  8
0
 10
127.57735026918979
 20
65.409172786554564
 30
0.0
 11
127.57735026918979
 21
63.723021802189749
 31
0.0
  0
LINE
  5
20A3
  8
0
 10
127.57735026918959
 20
63.723021802189749
 30
0.0
 11
127.0
 21
62.631793318373042
 31
0.0
  0
LINE
  5
20A4
  8
0
 10
127.0
 20
66.78431171290751
 30
0.0
 11
127.57735026918959
 21
67.416833305708494
 31
0.0
  0
LINE
  5
20A5
  8
0
 10
127.57735026918991
 20
67.416833305708494
 30
0.0
 11
127.57735026918991
 21
66.099258941070588
 31
0.0
  0
LINE
  5
20A6
  8
0
 10
127.57735026918959
 20
66.099258941070588
 30
0.0
 11
127.0
 21
64.962823011504582
 31
0.0
  0
LINE
  5
20A7
  8
0
 10
127.0
 20
68.034230809490452
 30
0.0
 11
127.57735026918959
 21
68.831384455825656
 31
0.0
  0
LINE
  5
20A8
  8
0
 10
127.57735026919021
 20
68.831384455825656
 30
0.0
 11
127.57735026919021
 21
67.927255125646099
 31
0.0
  0
LINE
  5
20A9
  8
0
 10
127.57735026918959
 20
67.927255125646099
 30
0.0
 11
127.0
 21
66.78431171290751
 31
0.0
  0
LINE
  5
20AA
  8
0
 10
127.0
 20
68.670015805531989
 30
0.0
 11
127.57735026918959
 21
69.604655394055854
 31
0.0
  0
LINE
  5
20AB
  8
0
 10
127.577350269189
 20
69.604655394055854
 30
0.0
 11
127.577350269189
 21
69.144760138290337
 31
0.0
  0
LINE
  5
20AC
  8
0
 10
127.57735026918959
 20
69.144760138290337
 30
0.0
 11
127.0
 21
68.034230809490452
 31
0.0
  0
LINE
  5
20AD
  8
0
 10
127.5773502691904
 20
69.750000000000085
 30
0.0
 11
127.5773502691904
 21
69.71031330603401
 31
0.0
  0
LINE
  5
20AE
  8
0
 10
127.57735026918959
 20
69.71031330603401
 30
0.0
 11
127.0
 21
68.670015805531989
 31
0.0
  0
LINE
  5
20AF
  8
0
 10
123.4526497308096
 20
69.71031330603401
 30
0.0
 11
123.4526497308096
 21
69.750000000000085
 31
0.0
  0
LINE
  5
20B0
  8
0
 10
124.0299999999999
 20
68.670015805531989
 30
0.0
 11
123.45264973081041
 21
69.71031330603401
 31
0.0
  0
LINE
  5
20B1
  8
0
 10
123.4526497308109
 20
69.144760138290337
 30
0.0
 11
123.4526497308109
 21
69.604655394055854
 31
0.0
  0
LINE
  5
20B2
  8
0
 10
123.45264973081041
 20
69.604655394055854
 30
0.0
 11
124.0299999999999
 21
68.670015805531989
 31
0.0
  0
LINE
  5
20B3
  8
0
 10
124.0299999999999
 20
68.034230809490452
 30
0.0
 11
123.45264973081041
 21
69.144760138290337
 31
0.0
  0
LINE
  5
20B4
  8
0
 10
123.4526497308097
 20
67.927255125646099
 30
0.0
 11
123.4526497308097
 21
68.831384455825656
 31
0.0
  0
LINE
  5
20B5
  8
0
 10
123.45264973081041
 20
68.831384455825656
 30
0.0
 11
124.0299999999999
 21
68.034230809490452
 31
0.0
  0
LINE
  5
20B6
  8
0
 10
124.0299999999999
 20
66.78431171290751
 30
0.0
 11
123.45264973081041
 21
67.927255125646099
 31
0.0
  0
LINE
  5
20B7
  8
0
 10
123.45264973081009
 20
66.099258941070588
 30
0.0
 11
123.45264973081009
 21
67.416833305708494
 31
0.0
  0
LINE
  5
20B8
  8
0
 10
123.45264973081041
 20
67.416833305708494
 30
0.0
 11
124.0299999999999
 21
66.78431171290751
 31
0.0
  0
LINE
  5
20B9
  8
0
 10
124.0299999999999
 20
64.962823011504582
 30
0.0
 11
123.45264973081041
 21
66.099258941070588
 31
0.0
  0
LINE
  5
20BA
  8
0
 10
123.45264973081019
 20
63.723021802189749
 30
0.0
 11
123.45264973081019
 21
65.409172786554564
 31
0.0
  0
LINE
  5
20BB
  8
0
 10
123.45264973081041
 20
65.409172786554564
 30
0.0
 11
124.0299999999999
 21
64.962823011504582
 31
0.0
  0
LINE
  5
20BC
  8
0
 10
124.0299999999999
 20
62.63179331837307
 30
0.0
 11
123.45264973081041
 21
63.723021802189749
 31
0.0
  0
LINE
  5
20BD
  8
0
 10
123.4526497308116
 20
60.879463614785863
 30
0.0
 11
123.4526497308116
 21
62.876771369420219
 31
0.0
  0
LINE
  5
20BE
  8
0
 10
123.45264973081041
 20
62.876771369420219
 30
0.0
 11
124.0299999999999
 21
62.631793318373042
 31
0.0
  0
LINE
  5
20BF
  8
0
 10
124.0299999999999
 20
59.870603053950532
 30
0.0
 11
123.45264973081041
 21
60.879463614785863
 31
0.0
  0
LINE
  5
20C0
  8
0
 10
123.45264973081061
 20
57.665418342458857
 30
0.0
 11
123.45264973081061
 21
59.90586694728529
 31
0.0
  0
LINE
  5
20C1
  8
0
 10
123.45264973081041
 20
59.90586694728529
 30
0.0
 11
124.0299999999999
 21
59.870603053950511
 31
0.0
  0
LINE
  5
20C2
  8
0
 10
124.0299999999999
 20
56.773281241009208
 30
0.0
 11
123.45264973081041
 21
57.665418342458857
 31
0.0
  0
LINE
  5
20C3
  8
0
 10
123.4526497308112
 20
54.19033644213534
 30
0.0
 11
123.4526497308112
 21
56.597630107038427
 31
0.0
  0
LINE
  5
20C4
  8
0
 10
123.45264973081041
 20
56.597630107038427
 30
0.0
 11
124.0299999999999
 21
56.773281241009201
 31
0.0
  0
LINE
  5
20C5
  8
0
 10
124.0299999999999
 20
53.44530345906081
 30
0.0
 11
123.45264973081041
 21
54.19033644213534
 31
0.0
  0
LINE
  5
20C6
  8
0
 10
123.4526497308095
 20
50.572557660029538
 30
0.0
 11
123.4526497308095
 21
53.064718886481508
 31
0.0
  0
LINE
  5
20C7
  8
0
 10
123.45264973081041
 20
53.064718886481508
 30
0.0
 11
124.0299999999999
 21
53.445303459060781
 31
0.0
  0
LINE
  5
20C8
  8
0
 10
124.6073502691896
 20
49.427442339970618
 30
0.0
 11
123.45264973081041
 21
50.572557660029538
 31
0.0
  0
LINE
  5
20C9
  8
0
 10
124.0299999999999
 20
46.554696540939403
 30
0.0
 11
123.45264973081041
 21
46.935281113518663
 31
0.0
  0
LINE
  5
20CA
  8
0
 10
123.4526497308108
 20
46.935281113518663
 30
0.0
 11
123.4526497308108
 21
49.427442339970618
 31
0.0
  0
LINE
  5
20CB
  8
0
 10
123.45264973081041
 20
49.427442339970618
 30
0.0
 11
124.6073502691896
 21
50.572557660029538
 31
0.0
  0
LINE
  5
20CC
  8
0
 10
124.0299999999999
 20
43.226718758990962
 30
0.0
 11
123.45264973081041
 21
43.402369892961737
 31
0.0
  0
LINE
  5
20CD
  8
0
 10
123.4526497308095
 20
43.402369892961737
 30
0.0
 11
123.4526497308095
 21
45.809663557864823
 31
0.0
  0
LINE
  5
20CE
  8
0
 10
123.45264973081041
 20
45.809663557864823
 30
0.0
 11
124.0299999999999
 21
46.554696540939389
 31
0.0
  0
LINE
  5
20CF
  8
0
 10
124.0299999999999
 20
40.129396946049681
 30
0.0
 11
123.45264973081041
 21
40.094133052714909
 31
0.0
  0
LINE
  5
20D0
  8
0
 10
123.4526497308097
 20
40.094133052714909
 30
0.0
 11
123.4526497308097
 21
42.334581657541307
 31
0.0
  0
LINE
  5
20D1
  8
0
 10
123.45264973081041
 20
42.334581657541307
 30
0.0
 11
124.0299999999999
 21
43.226718758990962
 31
0.0
  0
LINE
  5
20D2
  8
0
 10
124.0299999999999
 20
37.368206681627143
 30
0.0
 11
123.45264973081041
 21
37.123228630579952
 31
0.0
  0
LINE
  5
20D3
  8
0
 10
123.45264973081019
 20
37.123228630579952
 30
0.0
 11
123.45264973081019
 21
39.120536385214301
 31
0.0
  0
LINE
  5
20D4
  8
0
 10
123.45264973081041
 20
39.120536385214301
 30
0.0
 11
124.0299999999999
 21
40.129396946049653
 31
0.0
  0
LINE
  5
20D5
  8
0
 10
124.0299999999999
 20
35.037176988495588
 30
0.0
 11
123.45264973081041
 21
34.590827213445607
 31
0.0
  0
LINE
  5
20D6
  8
0
 10
123.4526497308098
 20
34.590827213445607
 30
0.0
 11
123.4526497308098
 21
36.276978197810422
 31
0.0
  0
LINE
  5
20D7
  8
0
 10
123.45264973081041
 20
36.276978197810422
 30
0.0
 11
124.0299999999999
 21
37.368206681627129
 31
0.0
  0
LINE
  5
20D8
  8
0
 10
124.0299999999999
 20
33.215688287092661
 30
0.0
 11
123.45264973081041
 21
32.583166694291677
 31
0.0
  0
LINE
  5
20D9
  8
0
 10
123.4526497308125
 20
32.583166694291677
 30
0.0
 11
123.4526497308125
 21
33.90074105892959
 31
0.0
  0
LINE
  5
20DA
  8
0
 10
123.45264973081041
 20
33.90074105892959
 30
0.0
 11
124.0299999999999
 21
35.037176988495588
 31
0.0
  0
LINE
  5
20DB
  8
0
 10
124.0299999999999
 20
31.965769190509722
 30
0.0
 11
123.45264973081041
 21
31.168615544174521
 31
0.0
  0
LINE
  5
20DC
  8
0
 10
123.4526497308099
 20
31.168615544174521
 30
0.0
 11
123.4526497308099
 21
32.072744874354072
 31
0.0
  0
LINE
  5
20DD
  8
0
 10
123.45264973081041
 20
32.072744874354072
 30
0.0
 11
124.0299999999999
 21
33.215688287092661
 31
0.0
  0
LINE
  5
20DE
  8
0
 10
124.0299999999999
 20
31.329984194468182
 30
0.0
 11
123.45264973081041
 21
30.395344605944299
 31
0.0
  0
LINE
  5
20DF
  8
0
 10
123.4526497308098
 20
30.395344605944299
 30
0.0
 11
123.4526497308098
 21
30.855239861709851
 31
0.0
  0
LINE
  5
20E0
  8
0
 10
123.45264973081041
 20
30.855239861709851
 30
0.0
 11
124.0299999999999
 21
31.965769190509722
 31
0.0
  0
LINE
  5
20E1
  8
0
 10
123.4526497308096
 20
30.250000000000099
 30
0.0
 11
123.4526497308096
 21
30.289686693966161
 31
0.0
  0
LINE
  5
20E2
  8
0
 10
123.45264973081041
 20
30.289686693966161
 30
0.0
 11
124.0299999999999
 21
31.329984194468182
 31
0.0
  0
LINE
  5
20E3
  8
0
 10
124.60735026919041
 20
30.289686693966161
 30
0.0
 11
124.60735026919041
 21
30.250000000000099
 31
0.0
  0
LINE
  5
20E4
  8
0
 10
124.0299999999999
 20
31.329984194468182
 30
0.0
 11
124.6073502691896
 21
30.289686693966161
 31
0.0
  0
LINE
  5
20E5
  8
0
 10
124.60735026919021
 20
30.855239861709851
 30
0.0
 11
124.60735026919021
 21
30.395344605944299
 31
0.0
  0
LINE
  5
20E6
  8
0
 10
124.6073502691896
 20
30.395344605944299
 30
0.0
 11
124.0299999999999
 21
31.329984194468182
 31
0.0
  0
LINE
  5
20E7
  8
0
 10
124.0299999999999
 20
31.965769190509722
 30
0.0
 11
124.6073502691896
 21
30.85523986170983
 31
0.0
  0
LINE
  5
20E8
  8
0
 10
124.60735026918999
 20
32.072744874354072
 30
0.0
 11
124.60735026918999
 21
31.168615544174521
 31
0.0
  0
LINE
  5
20E9
  8
0
 10
124.6073502691896
 20
31.168615544174521
 30
0.0
 11
124.0299999999999
 21
31.965769190509722
 31
0.0
  0
LINE
  5
20EA
  8
0
 10
124.0299999999999
 20
33.215688287092661
 30
0.0
 11
124.6073502691896
 21
32.072744874354072
 31
0.0
  0
LINE
  5
20EB
  8
0
 10
124.60735026918741
 20
33.90074105892959
 30
0.0
 11
124.60735026918741
 21
32.583166694291677
 31
0.0
  0
LINE
  5
20EC
  8
0
 10
124.6073502691896
 20
32.583166694291677
 30
0.0
 11
124.0299999999999
 21
33.215688287092661
 31
0.0
  0
LINE
  5
20ED
  8
0
 10
124.0299999999999
 20
35.037176988495588
 30
0.0
 11
124.6073502691896
 21
33.90074105892959
 31
0.0
  0
LINE
  5
20EE
  8
0
 10
124.60735026919021
 20
36.276978197810422
 30
0.0
 11
124.60735026919021
 21
34.590827213445607
 31
0.0
  0
LINE
  5
20EF
  8
0
 10
124.6073502691896
 20
34.590827213445607
 30
0.0
 11
124.0299999999999
 21
35.037176988495588
 31
0.0
  0
LINE
  5
20F0
  8
0
 10
124.0299999999999
 20
37.368206681627129
 30
0.0
 11
124.6073502691896
 21
36.276978197810422
 31
0.0
  0
LINE
  5
20F1
  8
0
 10
124.60735026918979
 20
39.120536385214301
 30
0.0
 11
124.60735026918979
 21
37.123228630579952
 31
0.0
  0
LINE
  5
20F2
  8
0
 10
124.6073502691896
 20
37.123228630579952
 30
0.0
 11
124.0299999999999
 21
37.368206681627143
 31
0.0
  0
LINE
  5
20F3
  8
0
 10
124.0299999999999
 20
40.129396946049653
 30
0.0
 11
124.6073502691896
 21
39.120536385214301
 31
0.0
  0
LINE
  5
20F4
  8
0
 10
124.60735026919031
 20
42.334581657541307
 30
0.0
 11
124.60735026919031
 21
40.094133052714909
 31
0.0
  0
LINE
  5
20F5
  8
0
 10
124.6073502691896
 20
40.094133052714909
 30
0.0
 11
124.0299999999999
 21
40.129396946049681
 31
0.0
  0
LINE
  5
20F6
  8
0
 10
124.0299999999999
 20
43.226718758990962
 30
0.0
 11
124.6073502691896
 21
42.334581657541307
 31
0.0
  0
LINE
  5
20F7
  8
0
 10
124.60735026919041
 20
45.809663557864823
 30
0.0
 11
124.60735026919041
 21
43.402369892961737
 31
0.0
  0
LINE
  5
20F8
  8
0
 10
124.6073502691896
 20
43.402369892961737
 30
0.0
 11
124.0299999999999
 21
43.226718758990962
 31
0.0
  0
LINE
  5
20F9
  8
0
 10
124.0299999999999
 20
46.554696540939389
 30
0.0
 11
124.6073502691896
 21
45.809663557864823
 31
0.0
  0
LINE
  5
20FA
  8
0
 10
124.6073502691891
 20
49.427442339970618
 30
0.0
 11
124.6073502691891
 21
46.935281113518663
 31
0.0
  0
LINE
  5
20FB
  8
0
 10
124.6073502691896
 20
46.935281113518663
 30
0.0
 11
124.0299999999999
 21
46.554696540939403
 31
0.0
  0
LINE
  5
20FC
  8
0
 10
124.0299999999999
 20
53.445303459060781
 30
0.0
 11
124.6073502691896
 21
53.064718886481508
 31
0.0
  0
LINE
  5
20FD
  8
0
 10
124.60735026919041
 20
53.064718886481508
 30
0.0
 11
124.60735026919041
 21
50.572557660029538
 31
0.0
  0
LINE
  5
20FE
  8
0
 10
124.0299999999999
 20
56.773281241009201
 30
0.0
 11
124.6073502691896
 21
56.597630107038427
 31
0.0
  0
LINE
  5
20FF
  8
0
 10
124.6073502691888
 20
56.597630107038427
 30
0.0
 11
124.6073502691888
 21
54.19033644213534
 31
0.0
  0
LINE
  5
2100
  8
0
 10
124.6073502691896
 20
54.19033644213534
 30
0.0
 11
124.0299999999999
 21
53.44530345906081
 31
0.0
  0
LINE
  5
2101
  8
0
 10
124.0299999999999
 20
31.250000000000071
 30
0.0
 11
124.0299999999999
 21
68.750000000000085
 31
0.0
  0
LINE
  5
2102
  8
0
 10
124.0299999999999
 20
59.870603053950511
 30
0.0
 11
124.6073502691896
 21
59.90586694728529
 31
0.0
  0
LINE
  5
2103
  8
0
 10
124.6073502691894
 20
59.90586694728529
 30
0.0
 11
124.6073502691894
 21
57.665418342458857
 31
0.0
  0
LINE
  5
2104
  8
0
 10
124.6073502691896
 20
57.665418342458857
 30
0.0
 11
124.0299999999999
 21
56.773281241009208
 31
0.0
  0
LINE
  5
2105
  8
0
 10
124.0299999999999
 20
62.631793318373042
 30
0.0
 11
124.6073502691896
 21
62.876771369420219
 31
0.0
  0
LINE
  5
2106
  8
0
 10
124.6073502691883
 20
62.876771369420219
 30
0.0
 11
124.6073502691883
 21
60.879463614785863
 31
0.0
  0
LINE
  5
2107
  8
0
 10
124.6073502691896
 20
60.879463614785863
 30
0.0
 11
124.0299999999999
 21
59.870603053950532
 31
0.0
  0
LINE
  5
2108
  8
0
 10
124.0299999999999
 20
64.962823011504582
 30
0.0
 11
124.6073502691896
 21
65.409172786554564
 31
0.0
  0
LINE
  5
2109
  8
0
 10
124.60735026918979
 20
65.409172786554564
 30
0.0
 11
124.60735026918979
 21
63.723021802189749
 31
0.0
  0
LINE
  5
210A
  8
0
 10
124.6073502691896
 20
63.723021802189749
 30
0.0
 11
124.0299999999999
 21
62.631793318373042
 31
0.0
  0
LINE
  5
210B
  8
0
 10
124.0299999999999
 20
66.78431171290751
 30
0.0
 11
124.6073502691896
 21
67.416833305708494
 31
0.0
  0
LINE
  5
210C
  8
0
 10
124.60735026918979
 20
67.416833305708494
 30
0.0
 11
124.60735026918979
 21
66.099258941070588
 31
0.0
  0
LINE
  5
210D
  8
0
 10
124.6073502691896
 20
66.099258941070588
 30
0.0
 11
124.0299999999999
 21
64.962823011504582
 31
0.0
  0
LINE
  5
210E
  8
0
 10
124.0299999999999
 20
68.034230809490452
 30
0.0
 11
124.6073502691896
 21
68.831384455825656
 31
0.0
  0
LINE
  5
210F
  8
0
 10
124.60735026919021
 20
68.831384455825656
 30
0.0
 11
124.60735026919021
 21
67.927255125646099
 31
0.0
  0
LINE
  5
2110
  8
0
 10
124.6073502691896
 20
67.927255125646127
 30
0.0
 11
124.0299999999999
 21
66.78431171290751
 31
0.0
  0
LINE
  5
2111
  8
0
 10
124.0299999999999
 20
68.670015805531989
 30
0.0
 11
124.6073502691896
 21
69.604655394055854
 31
0.0
  0
LINE
  5
2112
  8
0
 10
124.607350269189
 20
69.604655394055854
 30
0.0
 11
124.607350269189
 21
69.144760138290337
 31
0.0
  0
LINE
  5
2113
  8
0
 10
124.6073502691896
 20
69.144760138290337
 30
0.0
 11
124.0299999999999
 21
68.034230809490452
 31
0.0
  0
LINE
  5
2114
  8
0
 10
124.60735026919041
 20
69.750000000000085
 30
0.0
 11
124.60735026919041
 21
69.71031330603401
 31
0.0
  0
LINE
  5
2115
  8
0
 10
124.6073502691896
 20
69.71031330603401
 30
0.0
 11
124.0299999999999
 21
68.670015805531989
 31
0.0
  0
LINE
  5
2121
  8
1
 10
25.249999999999869
 20
50.000000000000092
 30
0.0
 11
74.749999999999801
 21
50.000000000000078
 31
0.0
  0
LINE
  5
2122
  8
1
 10
49.999999999999829
 20
25.250000000000131
 30
0.0
 11
49.999999999999829
 21
74.750000000000057
 31
0.0
  0
CIRCLE
  5
2123
  8
0
 10
49.999999999999488
 20
50.000000000000057
 30
0.0
 40
17.75
  0
CIRCLE
  5
2125
  8
0
 10
49.999999999999488
 20
50.000000000000057
 30
0.0
 40
8.5000000000000284
  0
CIRCLE
  5
2126
  8
3
 10
49.999999999999488
 20
50.000000000000057
 30
0.0
 40
2.4585000000000292
  0
LINE
  5
2127
  8
0
 10
69.7416989574333
 20
49.427442339970582
 30
0.0
 11
68.749999999999488
 21
50.000000000000057
 31
0.0
  0
LINE
  5
2128
  8
0
 10
68.749999999999488
 20
50.000000000000043
 30
0.0
 11
69.741698957433243
 21
50.572557660029503
 31
0.0
  0
ARC
  5
2129
  8
0
 10
49.999999999997328
 20
50.000000000000341
 30
0.0
 40
19.750000000002149
 50
351.07301707475608
 51
358.33874763112522
  0
ARC
  5
212A
  8
0
 10
50.000000000004093
 20
50.000000000000419
 30
0.0
 40
19.74999999999541
 50
1.661252368873112
 51
8.9269829252445891
  0
LINE
  5
212B
  8
0
 10
68.430745619072638
 20
46.554696540939339
 30
0.0
 11
69.510766211167208
 21
46.93528111351862
 31
0.0
  0
LINE
  5
212C
  8
0
 10
69.510766211167208
 20
53.064718886481472
 30
0.0
 11
68.430745619072638
 21
53.445303459060739
 31
0.0
  0
LINE
  5
212D
  8
0
 10
69.300351823262019
 20
45.809663557864781
 30
0.0
 11
68.430745619072638
 21
46.554696540939339
 31
0.0
  0
LINE
  5
212E
  8
0
 10
68.430745619072638
 20
53.445303459060739
 30
0.0
 11
69.300351823262019
 21
54.190336442135319
 31
0.0
  0
ARC
  5
212F
  8
0
 10
50.000000000000277
 20
49.99999999999968
 30
0.0
 40
19.749999999999119
 50
340.48478178063851
 51
347.7505123370085
  0
LINE
  5
2130
  8
0
 10
67.483854301331121
 20
43.22671875899092
 30
0.0
 11
68.615417722164636
 21
43.402369892961701
 31
0.0
  0
ARC
  5
2131
  8
0
 10
49.999999999996483
 20
49.999999999999517
 30
0.0
 40
19.750000000003059
 50
12.2494876629915
 51
19.51521821935917
  0
LINE
  5
2132
  8
0
 10
68.615417722164693
 20
56.597630107038398
 30
0.0
 11
67.483854301331121
 21
56.773281241009187
 31
0.0
  0
LINE
  5
2133
  8
0
 10
68.201754355970138
 20
42.334581657541278
 30
0.0
 11
67.483854301331121
 21
43.226718758990913
 31
0.0
  0
LINE
  5
2134
  8
0
 10
67.483854301331178
 20
56.773281241009158
 30
0.0
 11
68.201754355970138
 21
57.665418342458821
 31
0.0
  0
ARC
  5
2135
  8
0
 10
49.999999999998067
 20
50.000000000000647
 30
0.0
 40
19.750000000001538
 50
329.89654648652169
 51
337.16227704289059
  0
LINE
  5
2136
  8
0
 10
65.941571294929759
 20
40.129396946049617
 30
0.0
 11
67.086143509366423
 21
40.094133052714852
 31
0.0
  0
ARC
  5
2137
  8
0
 10
49.999999999997719
 20
49.999999999999517
 30
0.0
 40
19.750000000001808
 50
22.837722957109371
 51
30.10345351347825
  0
LINE
  5
2138
  8
0
 10
67.08614350936648
 20
59.905866947285261
 30
0.0
 11
65.941571294929759
 21
59.870603053950511
 31
0.0
  0
LINE
  5
2139
  8
0
 10
66.483317974683814
 20
39.120536385214237
 30
0.0
 11
65.941571294929759
 21
40.129396946049638
 31
0.0
  0
LINE
  5
213A
  8
0
 10
65.941571294929759
 20
59.870603053950468
 30
0.0
 11
66.483317974683814
 21
60.879463614785827
 31
0.0
  0
ARC
  5
213B
  8
0
 10
49.999999999998799
 20
50.000000000000767
 30
0.0
 40
19.750000000000991
 50
319.30831119240452
 51
326.57404174877257
  0
LINE
  5
213C
  8
0
 10
63.856417197886863
 20
37.3682066816271
 30
0.0
 11
64.975021171927153
 21
37.123228630579902
 31
0.0
  0
ARC
  5
213D
  8
0
 10
49.999999999997947
 20
49.999999999998863
 30
0.0
 40
19.750000000001918
 50
33.425958251227463
 51
40.691688807595291
  0
LINE
  5
213E
  8
0
 10
64.975021171927153
 20
62.87677136942019
 30
0.0
 11
63.856417197886863
 21
62.631793318372992
 31
0.0
  0
LINE
  5
213F
  8
0
 10
64.203561969330508
 20
36.276978197810372
 30
0.0
 11
63.856417197886863
 21
37.368206681627122
 31
0.0
  0
LINE
  5
2140
  8
0
 10
63.856417197886863
 20
62.631793318372992
 30
0.0
 11
64.203561969330508
 21
63.72302180218972
 31
0.0
  0
ARC
  5
2141
  8
0
 10
49.99999999999897
 20
50.000000000000853
 30
0.0
 40
19.750000000000941
 50
308.72007589828593
 51
315.98580645465557
  0
LINE
  5
2142
  8
0
 10
61.299399432110533
 20
35.03717698849556
 30
0.0
 11
62.353942449036083
 21
34.590827213445579
 31
0.0
  0
ARC
  5
2143
  8
0
 10
49.999999999998572
 20
49.999999999999041
 30
0.0
 40
19.750000000001371
 50
44.014193545344341
 51
51.27992410171408
  0
LINE
  5
2144
  8
0
 10
62.35394244903614
 20
65.409172786554535
 30
0.0
 11
61.299399432110533
 21
64.962823011504554
 31
0.0
  0
LINE
  5
2145
  8
0
 10
61.440120696406552
 20
33.90074105892954
 30
0.0
 11
61.299399432110533
 21
35.03717698849556
 31
0.0
  0
LINE
  5
2146
  8
0
 10
61.299399432110533
 20
64.962823011504526
 30
0.0
 11
61.440120696406552
 21
66.099258941070559
 31
0.0
  0
ARC
  5
2147
  8
0
 10
49.99999999999914
 20
50.000000000000668
 30
0.0
 40
19.7500000000007
 50
298.13184060416859
 51
305.39757116053642
  0
LINE
  5
2148
  8
0
 10
58.357594170809591
 20
33.215688287092632
 30
0.0
 11
59.312165032963939
 21
32.583166694291627
 31
0.0
  0
ARC
  5
2149
  8
0
 10
49.999999999999773
 20
49.999999999999822
 30
0.0
 40
19.75000000000005
 50
54.602428839463578
 51
61.868159395831398
  0
LINE
  5
214A
  8
0
 10
59.312165032963939
 20
67.416833305708423
 30
0.0
 11
58.357594170809591
 21
66.784311712907453
 31
0.0
  0
LINE
  5
214B
  8
0
 10
58.287099834078901
 20
32.072744874354044
 30
0.0
 11
58.357594170809591
 21
33.215688287092647
 31
0.0
  0
LINE
  5
214C
  8
0
 10
58.357594170809591
 20
66.784311712907453
 30
0.0
 11
58.287099834078901
 21
67.927255125646042
 31
0.0
  0
ARC
  5
214D
  8
0
 10
49.999999999998863
 20
50.000000000002018
 30
0.0
 40
19.750000000002071
 50
287.54360531005051
 51
294.80933586641908
  0
LINE
  5
214E
  8
0
 10
55.131181063851038
 20
31.96576919050969
 30
0.0
 11
55.953273005405087
 21
31.168615544174489
 31
0.0
  0
ARC
  5
214F
  8
0
 10
49.999999999999893
 20
50.000000000000817
 30
0.0
 40
19.74999999999914
 50
65.19066413358091
 51
72.456394689949505
  0
LINE
  5
2150
  8
0
 10
55.953273005405087
 20
68.831384455825585
 30
0.0
 11
55.131181063851038
 21
68.034230809490424
 31
0.0
  0
LINE
  5
2151
  8
0
 10
54.85187172618236
 20
30.855239861709791
 30
0.0
 11
55.131181063851038
 21
31.96576919050969
 31
0.0
  0
LINE
  5
2152
  8
0
 10
55.131181063851038
 20
68.034230809490424
 30
0.0
 11
54.85187172618236
 21
69.144760138290295
 31
0.0
  0
ARC
  5
2153
  8
0
 10
49.99999999999897
 20
50.000000000003332
 30
0.0
 40
19.750000000003311
 50
276.95537001593459
 51
284.22110057230111
  0
LINE
  5
2154
  8
0
 10
51.730031739936408
 20
31.329984194468171
 30
0.0
 11
52.391649405811108
 21
30.395344605944281
 31
0.0
  0
ARC
  5
2155
  8
0
 10
49.999999999999261
 20
49.999999999997833
 30
0.0
 40
19.75000000000222
 50
75.77889942769886
 51
83.044629984065423
  0
LINE
  5
2156
  8
0
 10
52.391649405811158
 20
69.604655394055811
 30
0.0
 11
51.730031739936408
 21
68.67001580553196
 31
0.0
  0
LINE
  5
2157
  8
0
 10
51.251418945829421
 20
30.289686693966161
 30
0.0
 11
51.730031739936408
 21
31.32998419446816
 31
0.0
  0
LINE
  5
2158
  8
0
 10
51.730031739936408
 20
68.67001580553196
 30
0.0
 11
51.251418945829421
 21
69.710313306033981
 31
0.0
  0
ARC
  5
2159
  8
0
 10
49.999999999999318
 20
50.000000000001407
 30
0.0
 40
19.750000000001339
 50
266.36713472181469
 51
273.63286527818531
  0
LINE
  5
215A
  8
0
 10
48.269968260062569
 20
31.329984194468171
 30
0.0
 11
48.748581054169563
 21
30.289686693966139
 31
0.0
  0
ARC
  5
215B
  8
0
 10
49.999999999999538
 20
49.999999999997769
 30
0.0
 40
19.750000000002281
 50
86.367134721814693
 51
93.632865278185278
  0
LINE
  5
215C
  8
0
 10
48.748581054169563
 20
69.710313306033953
 30
0.0
 11
48.269968260062569
 21
68.67001580553196
 31
0.0
  0
LINE
  5
215D
  8
0
 10
47.608350594187868
 20
30.395344605944281
 30
0.0
 11
48.269968260062569
 21
31.329984194468171
 31
0.0
  0
LINE
  5
215E
  8
0
 10
48.269968260062569
 20
68.67001580553196
 30
0.0
 11
47.608350594187868
 21
69.60465539405584
 31
0.0
  0
ARC
  5
215F
  8
0
 10
49.999999999999318
 20
49.999999999999282
 30
0.0
 40
19.749999999999218
 50
255.7788994276988
 51
263.04462998406871
  0
LINE
  5
2160
  8
0
 10
44.868818936147932
 20
31.965769190509711
 30
0.0
 11
45.14812827381661
 21
30.855239861709808
 31
0.0
  0
ARC
  5
2161
  8
0
 10
49.999999999999602
 20
49.999999999998899
 30
0.0
 40
19.750000000001151
 50
96.955370015931294
 51
104.2211005723011
  0
LINE
  5
2162
  8
0
 10
45.14812827381661
 20
69.144760138290295
 30
0.0
 11
44.868818936147932
 21
68.034230809490424
 31
0.0
  0
LINE
  5
2163
  8
0
 10
44.046726994593882
 20
31.168615544174489
 30
0.0
 11
44.868818936147932
 21
31.96576919050969
 31
0.0
  0
LINE
  5
2164
  8
0
 10
44.868818936147932
 20
68.034230809490424
 30
0.0
 11
44.046726994593882
 21
68.831384455825628
 31
0.0
  0
ARC
  5
2165
  8
0
 10
50.000000000000561
 20
50.000000000002622
 30
0.0
 40
19.750000000002782
 50
245.1906641335809
 51
252.45639468994949
  0
LINE
  5
2166
  8
0
 10
41.642405829189379
 20
33.215688287092647
 30
0.0
 11
41.712900165920068
 21
32.072744874354044
 31
0.0
  0
ARC
  5
2167
  8
0
 10
49.999999999999602
 20
49.999999999999503
 30
0.0
 40
19.750000000000551
 50
107.54360531005049
 51
114.8093358664191
  0
LINE
  5
2168
  8
0
 10
41.712900165920068
 20
67.92725512564607
 30
0.0
 11
41.642405829189379
 21
66.784311712907481
 31
0.0
  0
LINE
  5
2169
  8
0
 10
40.68783496703503
 20
32.583166694291648
 30
0.0
 11
41.642405829189379
 21
33.215688287092647
 31
0.0
  0
LINE
  5
216A
  8
0
 10
41.642405829189379
 20
66.784311712907481
 30
0.0
 11
40.68783496703503
 21
67.416833305708479
 31
0.0
  0
ARC
  5
216B
  8
0
 10
49.999999999997783
 20
49.999999999997449
 30
0.0
 40
19.749999999996891
 50
234.6024288394633
 51
241.86815939583141
  0
LINE
  5
216C
  8
0
 10
38.700600567888443
 20
35.037176988495581
 30
0.0
 11
38.559879303592432
 21
33.900741058929547
 31
0.0
  0
ARC
  5
216D
  8
0
 10
50.000000000000739
 20
49.999999999998089
 30
0.0
 40
19.75000000000232
 50
118.1318406041686
 51
125.3975711605364
  0
LINE
  5
216E
  8
0
 10
38.559879303592432
 20
66.099258941070559
 30
0.0
 11
38.700600567888443
 21
64.962823011504554
 31
0.0
  0
LINE
  5
216F
  8
0
 10
37.646057550962837
 20
34.590827213445579
 30
0.0
 11
38.700600567888443
 21
35.037176988495581
 31
0.0
  0
LINE
  5
2170
  8
0
 10
38.700600567888443
 20
64.962823011504554
 30
0.0
 11
37.646057550962887
 21
65.409172786554535
 31
0.0
  0
ARC
  5
2171
  8
0
 10
49.999999999999602
 20
50.000000000000071
 30
0.0
 40
19.750000000000099
 50
224.01419354534389
 51
231.2799241017141
  0
LINE
  5
2172
  8
0
 10
36.143582802112121
 20
37.368206681627122
 30
0.0
 11
35.796438030668469
 21
36.276978197810386
 31
0.0
  0
ARC
  5
2173
  8
0
 10
50.000000000000853
 20
49.99999999999882
 30
0.0
 40
19.750000000001819
 50
128.7200758982859
 51
135.985806454656
  0
LINE
  5
2174
  8
0
 10
35.796438030668469
 20
63.72302180218972
 30
0.0
 11
36.143582802112178
 21
62.631793318373013
 31
0.0
  0
LINE
  5
2175
  8
0
 10
35.024978828071824
 20
37.123228630579924
 30
0.0
 11
36.143582802112178
 21
37.368206681627122
 31
0.0
  0
LINE
  5
2176
  8
0
 10
36.143582802112121
 20
62.631793318373013
 30
0.0
 11
35.024978828071824
 21
62.87677136942019
 31
0.0
  0
ARC
  5
2177
  8
0
 10
50.000000000000959
 20
50.00000000000108
 30
0.0
 40
19.75000000000178
 50
213.4259582512274
 51
220.69168880759531
  0
LINE
  5
2178
  8
0
 10
34.058428705069218
 20
40.129396946049638
 30
0.0
 11
33.516682025315163
 21
39.120536385214272
 31
0.0
  0
ARC
  5
2179
  8
0
 10
49.999999999998572
 20
50.000000000000782
 30
0.0
 40
19.749999999998849
 50
139.30831119240449
 51
146.57404174877419
  0
LINE
  5
217A
  8
0
 10
33.516682025315163
 20
60.879463614785863
 30
0.0
 11
34.058428705069218
 21
59.870603053950468
 31
0.0
  0
LINE
  5
217B
  8
0
 10
32.913856490632561
 20
40.094133052714881
 30
0.0
 11
34.058428705069218
 21
40.129396946049653
 31
0.0
  0
LINE
  5
217C
  8
0
 10
34.058428705069218
 20
59.870603053950468
 30
0.0
 11
32.913856490632561
 21
59.905866947285261
 31
0.0
  0
ARC
  5
217D
  8
0
 10
50.000000000001251
 20
50.000000000001187
 30
0.0
 40
19.750000000002089
 50
202.83772295711091
 51
210.10345351347959
  0
LINE
  5
217E
  8
0
 10
32.516145698667799
 20
43.226718758990941
 30
0.0
 11
31.798245644028839
 21
42.334581657541293
 31
0.0
  0
ARC
  5
217F
  8
0
 10
49.999999999998181
 20
50.000000000000611
 30
0.0
 40
19.749999999998568
 50
149.89654648652041
 51
157.16227704288929
  0
LINE
  5
2180
  8
0
 10
31.798245644028839
 20
57.665418342458842
 30
0.0
 11
32.516145698667799
 21
56.773281241009173
 31
0.0
  0
LINE
  5
2181
  8
0
 10
31.38458227783428
 20
43.402369892961723
 30
0.0
 11
32.516145698667799
 21
43.226718758990941
 31
0.0
  0
LINE
  5
2182
  8
0
 10
32.516145698667799
 20
56.773281241009173
 30
0.0
 11
31.38458227783434
 21
56.597630107038398
 31
0.0
  0
ARC
  5
2183
  8
0
 10
50.000000000003119
 20
50.000000000001009
 30
0.0
 40
19.75000000000373
 50
192.24948766299241
 51
199.51521821936049
  0
LINE
  5
2184
  8
0
 10
31.569254380926338
 20
46.554696540939361
 30
0.0
 11
30.699648176736961
 21
45.809663557864788
 31
0.0
  0
ARC
  5
2185
  8
0
 10
49.99999999999801
 20
50.000000000000632
 30
0.0
 40
19.74999999999843
 50
160.48478178063851
 51
167.75051233700921
  0
LINE
  5
2186
  8
0
 10
30.699648176737021
 20
54.190336442135319
 30
0.0
 11
31.569254380926338
 21
53.44530345906076
 31
0.0
  0
LINE
  5
2187
  8
0
 10
30.489233788831768
 20
46.935281113518641
 30
0.0
 11
31.569254380926338
 21
46.554696540939368
 31
0.0
  0
LINE
  5
2188
  8
0
 10
31.569254380926338
 20
53.44530345906076
 30
0.0
 11
30.489233788831768
 21
53.064718886481486
 31
0.0
  0
ARC
  5
2189
  8
0
 10
50.000000000000462
 20
50.000000000000071
 30
0.0
 40
19.750000000000959
 50
181.6612523688739
 51
188.92698292524301
  0
LINE
  5
218A
  8
0
 10
31.249999999999488
 20
50.000000000000057
 30
0.0
 11
30.258301042565741
 21
49.427442339970597
 31
0.0
  0
ARC
  5
218B
  8
0
 10
50.000000000004491
 20
49.999999999999638
 30
0.0
 40
19.750000000004999
 50
171.07301707475801
 51
178.33874763112439
  0
LINE
  5
218C
  8
0
 10
30.258301042565741
 20
50.572557660029517
 30
0.0
 11
31.249999999999488
 21
50.000000000000057
 31
0.0
  0
CIRCLE
  5
218D
  8
0
 10
49.999999999999602
 20
50.000000000000099
 30
0.0
 40
18.75000000000011
  0
CIRCLE
  5
2197
  8
0
 10
49.999999999999829
 20
50.000000000000078
 30
0.0
 40
3.0
  0
CIRCLE
  5
2198
  8
0
 10
49.999999999999829
 20
50.000000000000092
 30
0.0
 40
3.999999999999992
  0
LINE
  5
24D9
  8
0
 10
88.113500000000002
 20
53.000000000000078
 30
0.0
 11
87.5
 21
52.386500000000083
 31
0.0
  0
LINE
  5
24DA
  8
0
 10
87.5
 20
47.613500000000087
 30
0.0
 11
88.113500000000002
 21
47.000000000000092
 31
0.0
  0
LINE
  5
24DB
  8
0
 10
107.5
 20
53.000000000000078
 30
0.0
 11
88.113500000000002
 21
53.000000000000078
 31
0.0
  0
LINE
  5
24DC
  8
0
 10
88.113500000000002
 20
47.000000000000092
 30
0.0
 11
107.5
 21
47.000000000000092
 31
0.0
  0
LINE
  5
2710
  8
0
 10
87.5
 20
47.613500000000087
 30
0.0
 11
87.5
 21
52.386500000000083
 31
0.0
  0
LINE
  5
2711
  8
0
 10
88.113500000000002
 20
47.000000000000092
 30
0.0
 11
88.113500000000002
 21
53.000000000000078
 31
0.0
  0
LINE
  5
2712
  8
3
 10
87.572000000000074
 20
52.45850000000015
 30
0.0
 11
106.5
 21
52.45850000000015
 31
0.0
  0
LINE
  5
2713
  8
3
 10
107.3826405867969
 20
53.000000000000092
 30
0.0
 11
106.5
 21
52.45850000000015
 31
0.0
  0
LINE
  5
2714
  8
0
 10
106.5
 20
53.000000000000078
 30
0.0
 11
106.5
 21
47.000000000000092
 31
0.0
  0
LINE
  5
2715
  8
3
 10
87.572000000000088
 20
47.541499999999978
 30
0.0
 11
106.5
 21
47.541499999999978
 31
0.0
  0
LINE
  5
2716
  8
3
 10
107.3826405867968
 20
47.000000000000092
 30
0.0
 11
106.5
 21
47.541499999999978
 31
0.0
  0
TEXT
  5
27B0
  8
0
 62
     3
 10
0.0
 20
0.0
 30
0.0
 40
10.0
  1
GK40X20N-GR
  7
STANDARD1
  0
ENDSEC
  0
EOF
