  0
SECTION
  2
HEADER
  9
$ACADVER
  1
AC1009
  9
$INSBASE
 10
0.0
 20
0.0
 30
0.0
  9
$EXTMIN
 10
0.0
 20
-2.960436562073669
 30
0.0
  9
$EXTMAX
 10
155.0
 20
408.99999999999977
 30
0.0
  9
$LIMMIN
 10
0.0
 20
0.0
  9
$LIMMAX
 10
187.5
 20
135.0
  9
$ORTHOMODE
 70
     1
  9
$REGENMODE
 70
     1
  9
$FILLMODE
 70
     1
  9
$QTEXTMODE
 70
     0
  9
$MIRRTEXT
 70
     0
  9
$DRAGMODE
 70
     2
  9
$LTSCALE
 40
5.0
  9
$OSMODE
 70
    37
  9
$ATTMODE
 70
     1
  9
$TEXTSIZE
 40
2.5000000000000488
  9
$TRACEWID
 40
0.05
  9
$TEXTSTYLE
  7
STANDARD
  9
$CLAYER
  8
0
  9
$CELTYPE
  6
BYLAYER
  9
$CECOLOR
 62
   256
  9
$DIMSCALE
 40
0.5
  9
$DIMASZ
 40
3.0
  9
$DIMEXO
 40
2.0
  9
$DIMDLI
 40
0.38
  9
$DIMRND
 40
0.0
  9
$DIMDLE
 40
0.0
  9
$DIMEXE
 40
2.0
  9
$DIMTP
 40
0.0
  9
$DIMTM
 40
0.0
  9
$DIMTXT
 40
3.2000000000000002
  9
$DIMCEN
 40
0.0
  9
$DIMTSZ
 40
0.0
  9
$DIMTOL
 70
     0
  9
$DIMLIM
 70
     0
  9
$DIMTIH
 70
     0
  9
$DIMTOH
 70
     0
  9
$DIMSE1
 70
     0
  9
$DIMSE2
 70
     0
  9
$DIMTAD
 70
     1
  9
$DIMZIN
 70
     0
  9
$DIMBLK
  1

  9
$DIMASO
 70
     1
  9
$DIMSHO
 70
     0
  9
$DIMPOST
  1

  9
$DIMAPOST
  1

  9
$DIMALT
 70
     0
  9
$DIMALTD
 70
     2
  9
$DIMALTF
 40
25.399999999999999
  9
$DIMLFAC
 40
1.0
  9
$DIMTOFL
 70
     1
  9
$DIMTVP
 40
1.6000000000000001
  9
$DIMTIX
 70
     1
  9
$DIMSOXD
 70
     0
  9
$DIMSAH
 70
     0
  9
$DIMBLK1
  1

  9
$DIMBLK2
  1

  9
$DIMSTYLE
  2
STANDARD
  9
$DIMCLRD
 70
     0
  9
$DIMCLRE
 70
     0
  9
$DIMCLRT
 70
     0
  9
$DIMTFAC
 40
1.0
  9
$DIMGAP
 40
0.09
  9
$LUNITS
 70
     2
  9
$LUPREC
 70
     1
  9
$SKETCHINC
 40
0.1
  9
$FILLETRAD
 40
0.0
  9
$AUNITS
 70
     0
  9
$AUPREC
 70
     1
  9
$MENU
  1
E:\r13\win\SUPPORT\ACAD
  9
$ELEVATION
 40
0.0
  9
$PELEVATION
 40
0.0
  9
$THICKNESS
 40
0.0
  9
$LIMCHECK
 70
     0
  9
$BLIPMODE
 70
     0
  9
$CHAMFERA
 40
0.0
  9
$CHAMFERB
 40
0.0
  9
$SKPOLY
 70
     0
  9
$TDCREATE
 40
2449839.787418982
  9
$TDUPDATE
 40
2457162.602236921
  9
$TDINDWG
 40
0.3761634722
  9
$TDUSRTIMER
 40
0.3761634722
  9
$USRTIMER
 70
     1
  9
$ANGBASE
 50
0.0
  9
$ANGDIR
 70
     0
  9
$PDMODE
 70
     0
  9
$PDSIZE
 40
0.0
  9
$PLINEWID
 40
0.0
  9
$COORDS
 70
     1
  9
$SPLFRAME
 70
     0
  9
$SPLINETYPE
 70
     6
  9
$SPLINESEGS
 70
     8
  9
$ATTDIA
 70
     0
  9
$ATTREQ
 70
     1
  9
$HANDLING
 70
     1
  9
$HANDSEED
  5
708A
  9
$SURFTAB1
 70
     6
  9
$SURFTAB2
 70
     6
  9
$SURFTYPE
 70
     6
  9
$SURFU
 70
     6
  9
$SURFV
 70
     6
  9
$UCSNAME
  2

  9
$UCSORG
 10
0.0
 20
0.0
 30
0.0
  9
$UCSXDIR
 10
1.0
 20
0.0
 30
0.0
  9
$UCSYDIR
 10
0.0
 20
1.0
 30
0.0
  9
$PUCSNAME
  2

  9
$PUCSORG
 10
0.0
 20
0.0
 30
0.0
  9
$PUCSXDIR
 10
1.0
 20
0.0
 30
0.0
  9
$PUCSYDIR
 10
0.0
 20
1.0
 30
0.0
  9
$USERI1
 70
     0
  9
$USERI2
 70
     1
  9
$USERI3
 70
     1
  9
$USERI4
 70
     0
  9
$USERI5
 70
     0
  9
$USERR1
 40
0.0
  9
$USERR2
 40
0.0
  9
$USERR3
 40
0.0
  9
$USERR4
 40
0.0
  9
$USERR5
 40
0.0
  9
$WORLDVIEW
 70
     1
  9
$SHADEDGE
 70
     3
  9
$SHADEDIF
 70
    70
  9
$TILEMODE
 70
     1
  9
$MAXACTVP
 70
    16
  9
$PLIMCHECK
 70
     0
  9
$PEXTMIN
 10
1.0000000000000000E+020
 20
1.0000000000000000E+020
 30
1.0000000000000000E+020
  9
$PEXTMAX
 10
-1.0000000000000000E+020
 20
-1.0000000000000000E+020
 30
-1.0000000000000000E+020
  9
$PLIMMIN
 10
0.0
 20
0.0
  9
$PLIMMAX
 10
12.0
 20
9.0
  9
$UNITMODE
 70
     0
  9
$VISRETAIN
 70
     0
  9
$PLINEGEN
 70
     0
  9
$PSLTSCALE
 70
     0
  0
ENDSEC
  0
SECTION
  2
TABLES
  0
TABLE
  2
VPORT
 70
     1
  0
VPORT
  2
*ACTIVE
 70
     0
 10
0.0
 20
0.0
 11
1.0
 21
1.0
 12
408.67443249808741
 22
225.0
 13
0.0
 23
0.0
 14
5.0
 24
5.0
 15
5.0
 25
5.0
 16
0.0
 26
0.0
 36
1.0
 17
0.0
 27
0.0
 37
0.0
 40
450.17717188645298
 41
1.816239316239316
 42
50.0
 43
0.0
 44
0.0
 50
0.0
 51
0.0
 71
     0
 72
   500
 73
     1
 74
     0
 75
     0
 76
     0
 77
     0
 78
     2
  0
ENDTAB
  0
TABLE
  2
LTYPE
 70
     4
  0
LTYPE
  2
CONTINUOUS
 70
     0
  3
Solid Line
 72
    65
 73
     0
 40
0.0
  0
LTYPE
  2
HIDDEN
 70
     0
  3
_ _ _ _ _ _ _ _ _ _ _ _ _ _ _ _ _ _ _ _ _ _ _
 72
    65
 73
     2
 40
0.375
 49
0.25
 49
-0.125
  0
LTYPE
  2
CENTER
 70
     0
  3
____ _ ____ _ ____ _ ____ _ ____ _ ____ _ ____
 72
    65
 73
     4
 40
2.0
 49
1.25
 49
-0.25
 49
0.25
 49
-0.25
  0
LTYPE
  2
PHANTOM2
 70
     0
  3
___ _ _ ___ _ _ ___ _ _ ___ _ _
 72
    65
 73
     6
 40
1.25
 49
0.625
 49
-0.125
 49
0.125
 49
-0.125
 49
0.125
 49
-0.125
  0
ENDTAB
  0
TABLE
  2
LAYER
 70
     5
  0
LAYER
  2
0
 70
     0
 62
     7
  6
CONTINUOUS
  0
LAYER
  2
2
 70
     0
 62
     2
  6
HIDDEN
  0
LAYER
  2
1
 70
     0
 62
     1
  6
CENTER
  0
LAYER
  2
3
 70
     0
 62
     3
  6
CONTINUOUS
  0
LAYER
  2
DEFPOINTS
 70
     0
 62
     7
  6
CONTINUOUS
  0
ENDTAB
  0
TABLE
  2
STYLE
 70
     2
  0
STYLE
  2
STANDARD
 70
     0
 40
0.0
 41
1.0
 50
0.0
 71
     0
 42
2.5000000000000488
  3
TXT
  4
BIGFONT
  0
STYLE
  2
STANDARD1
 70
     0
 40
0.0
 41
1.0
 50
0.0
 71
     0
 42
3.0
  3
txt
  4

  0
ENDTAB
  0
TABLE
  2
VIEW
 70
     0
  0
ENDTAB
  0
TABLE
  2
UCS
 70
     0
  0
ENDTAB
  0
TABLE
  2
APPID
 70
     6
  0
APPID
  2
ACAD
 70
     0
  0
APPID
  2
ACAD_NAV_VCDISPLAY
 70
     0
  0
APPID
  2
ACAD_EXEMPT_FROM_CAD_STANDARDS
 70
     0
  0
APPID
  2
ACAD_MLEADERVER
 70
     0
  0
APPID
  2
ACAD_DSTYLE_DIMJAG
 70
     0
  0
APPID
  2
ACAD_DSTYLE_DIMTALN
 70
     0
  0
ENDTAB
  0
TABLE
  2
DIMSTYLE
 70
     1
  0
DIMSTYLE
  2
STANDARD
 70
     0
  3

  4

  5

  6

  7

 40
1.0
 41
0.18
 42
0.0625
 43
0.38
 44
0.18
 45
0.0
 46
0.0
 47
0.0
 48
0.0
140
0.18
141
0.09
142
0.0
143
25.399999999999999
144
1.0
145
0.0
146
1.0
147
0.09
 71
     0
 72
     0
 73
     1
 74
     1
 75
     0
 76
     0
 77
     0
 78
     0
170
     0
171
     2
172
     0
173
     0
174
     0
175
     0
176
     0
177
     0
178
     0
  0
ENDTAB
  0
ENDSEC
  0
SECTION
  2
BLOCKS
  0
BLOCK
  8
0
  2
$MODEL_SPACE
 70
     0
 10
0.0
 20
0.0
 30
0.0
  3
$MODEL_SPACE
  1

  0
ENDBLK
  5
65B
  8
0
  0
BLOCK
 67
     1
  8
0
  2
$PAPER_SPACE
 70
     0
 10
0.0
 20
0.0
 30
0.0
  3
$PAPER_SPACE
  1

  0
ENDBLK
  5
659
 67
     1
  8
0
  0
ENDSEC
  0
SECTION
  2
ENTITIES
  0
LINE
  5
67C7
  8
2
 10
105.0
 20
199.99999999999989
 30
0.0
 11
105.0
 21
221.99999999999989
 31
0.0
  0
LINE
  5
67C8
  8
2
 10
95.0
 20
221.99999999999989
 30
0.0
 11
95.0
 21
199.99999999999989
 31
0.0
  0
LINE
  5
67CF
  8
2
 10
117.5
 20
208.7777777777776
 30
0.0
 11
108.0
 21
208.7777777777776
 31
0.0
  0
LINE
  5
67D0
  8
2
 10
108.0
 20
203.22222222222209
 30
0.0
 11
117.5
 21
203.22222222222209
 31
0.0
  0
LINE
  5
67D1
  8
2
 10
117.40574374989821
 20
208.10375625010161
 30
0.0
 11
117.0095
 21
208.49999999999989
 31
0.0
  0
LINE
  5
67D2
  8
2
 10
117.0095
 20
203.49999999999989
 30
0.0
 11
117.40574374989821
 21
203.8962437498981
 31
0.0
  0
LINE
  5
67D3
  8
2
 10
105.4905
 20
208.49999999999989
 30
0.0
 11
105.0
 21
208.00949999999989
 31
0.0
  0
LINE
  5
67D4
  8
2
 10
105.0
 20
203.99049999999991
 30
0.0
 11
105.4905
 21
203.4999999999998
 31
0.0
  0
LINE
  5
67D5
  8
2
 10
117.0095
 20
208.49999999999989
 30
0.0
 11
105.4905000000001
 21
208.49999999999989
 31
0.0
  0
LINE
  5
67D6
  8
2
 10
105.4905000000001
 20
203.49999999999989
 30
0.0
 11
117.0095
 21
203.49999999999989
 31
0.0
  0
LINE
  5
67DD
  8
2
 10
95.0
 20
221.99999999999989
 30
0.0
 11
105.0
 21
221.99999999999989
 31
0.0
  0
LINE
  5
6826
  8
2
 10
105.4905
 20
208.49999999999989
 30
0.0
 11
105.4905000000001
 21
203.4999999999998
 31
0.0
  0
LINE
  5
6827
  8
2
 10
108.0
 20
230.99999999999989
 30
0.0
 11
108.0
 21
208.49999999999989
 31
0.0
  0
LINE
  5
6828
  8
2
 10
117.0095
 20
203.49999999999989
 30
0.0
 11
117.0095
 21
208.49999999999989
 31
0.0
  0
LINE
  5
6829
  8
2
 10
117.5
 20
207.44337567297401
 30
0.0
 11
113.3333333333333
 21
207.44337567297401
 31
0.0
  0
LINE
  5
682A
  8
2
 10
117.5
 20
206.72168783648689
 30
0.0
 11
113.3333333333333
 21
206.72168783648689
 31
0.0
  0
LINE
  5
682B
  8
2
 10
117.5
 20
204.55662432702579
 30
0.0
 11
113.3333333333333
 21
204.55662432702579
 31
0.0
  0
LINE
  5
682C
  8
2
 10
117.5
 20
205.27831216351279
 30
0.0
 11
113.3333333333333
 21
205.27831216351279
 31
0.0
  0
LINE
  5
682D
  8
2
 10
113.3333333333333
 20
207.44337567297401
 30
0.0
 11
113.3333333333333
 21
204.55662432702579
 31
0.0
  0
LINE
  5
682E
  8
1
 10
100.0
 20
194.99999999999989
 30
0.0
 11
99.999999999999943
 21
235.99999999999989
 31
0.0
  0
LINE
  5
682F
  8
1
 10
61.0
 20
255.99999999999989
 30
0.0
 11
61.0
 21
228.99999999999989
 31
0.0
  0
LINE
  5
6830
  8
1
 10
103.0
 20
205.9999999999998
 30
0.0
 11
119.5
 21
205.99999999999989
 31
0.0
  0
ARC
  5
6831
  8
0
 10
52.000000000000057
 20
229.99999999999989
 30
0.0
 40
1.0000000000000171
 50
90.0
 51
180.0
  0
ARC
  5
6832
  8
0
 10
148.0
 20
229.99999999999989
 30
0.0
 40
1.0000000000000211
 50
0.0
 51
90.0
  0
LINE
  5
6833
  8
0
 10
150.0
 20
229.39999999999989
 30
0.0
 11
149.0
 21
229.99999999999989
 31
0.0
  0
LINE
  5
6834
  8
0
 10
51.0
 20
229.99999999999989
 30
0.0
 11
50.0
 21
229.40000000000001
 31
0.0
  0
ARC
  5
6835
  8
0
 10
52.0
 20
211.99999999999989
 30
0.0
 40
1.0
 50
180.0
 51
270.0
  0
ARC
  5
6836
  8
0
 10
148.0
 20
211.99999999999989
 30
0.0
 40
1.0000000000000031
 50
270.0
 51
0.0
  0
LINE
  5
6837
  8
0
 10
116.0
 20
200.2999999999999
 30
0.0
 11
117.5
 21
201.7999999999999
 31
0.0
  0
LINE
  5
6838
  8
0
 10
82.5
 20
201.7999999999999
 30
0.0
 11
84.0
 21
200.2999999999999
 31
0.0
  0
LINE
  5
6839
  8
0
 10
108.0
 20
199.99999999999989
 30
0.0
 11
108.0
 21
200.2999999999999
 31
0.0
  0
LINE
  5
683A
  8
0
 10
92.0
 20
200.2999999999999
 30
0.0
 11
92.0
 21
199.99999999999989
 31
0.0
  0
ARC
  5
683B
  8
0
 10
61.0
 20
224.35909090909209
 30
0.0
 40
29.640909090907769
 50
77.463027721169325
 51
102.5369722788306
  0
ARC
  5
683C
  8
0
 10
54.999999999999943
 20
251.3409339775674
 30
0.0
 40
1.9999999999999909
 50
102.5369722788306
 51
180.0
  0
ARC
  5
683D
  8
0
 10
67.000000000000057
 20
251.3409339775674
 30
0.0
 40
2.0000000000000062
 50
0.0
 51
77.463027721169325
  0
LINE
  5
683E
  8
0
 10
69.0
 20
233.5499999999999
 30
0.0
 11
69.0
 21
251.3409339775674
 31
0.0
  0
LINE
  5
683F
  8
0
 10
53.0
 20
251.3409339775674
 30
0.0
 11
53.0
 21
233.5499999999999
 31
0.0
  0
LINE
  5
6840
  8
0
 10
67.25
 20
231.7999999999999
 30
0.0
 11
69.0
 21
233.5499999999999
 31
0.0
  0
LINE
  5
6841
  8
0
 10
53.000000000000057
 20
233.5499999999999
 30
0.0
 11
54.75
 21
231.7999999999999
 31
0.0
  0
LINE
  5
6842
  8
0
 10
64.0
 20
230.99999999999989
 30
0.0
 11
64.0
 21
231.7999999999999
 31
0.0
  0
LINE
  5
6843
  8
0
 10
58.0
 20
231.7999999999999
 30
0.0
 11
58.0
 21
230.99999999999989
 31
0.0
  0
LINE
  5
6844
  8
0
 10
117.5
 20
208.7777777777776
 30
0.0
 11
117.5
 21
210.99999999999989
 31
0.0
  0
LINE
  5
6845
  8
0
 10
117.5
 20
201.7999999999999
 30
0.0
 11
117.5
 21
203.22222222222209
 31
0.0
  0
LINE
  5
6846
  8
0
 10
82.5
 20
210.99999999999989
 30
0.0
 11
82.5
 21
201.7999999999999
 31
0.0
  0
LINE
  5
6847
  8
0
 10
150.0
 20
225.51037695893709
 30
0.0
 11
148.94999999999999
 21
225.99999999999989
 31
0.0
  0
LINE
  5
6848
  8
0
 10
51.050000000000011
 20
225.99999999999989
 30
0.0
 11
50.0
 21
225.51037695893709
 31
0.0
  0
LINE
  5
6849
  8
0
 10
150.0
 20
215.51037695893709
 30
0.0
 11
148.94999999999999
 21
215.99999999999989
 31
0.0
  0
LINE
  5
684A
  8
0
 10
51.050000000000011
 20
215.99999999999989
 30
0.0
 11
50.0
 21
215.51037695893709
 31
0.0
  0
LINE
  5
684B
  8
0
 10
150.0
 20
220.51037695893709
 30
0.0
 11
148.94999999999999
 21
220.99999999999989
 31
0.0
  0
LINE
  5
684C
  8
0
 10
51.050000000000011
 20
220.99999999999989
 30
0.0
 11
50.0
 21
220.5103769589372
 31
0.0
  0
LINE
  5
684D
  8
0
 10
50.0
 20
225.51037695893709
 30
0.0
 11
50.0
 21
221.48962304106271
 31
0.0
  0
LINE
  5
684E
  8
0
 10
150.0
 20
221.4896230410626
 30
0.0
 11
150.0
 21
225.51037695893709
 31
0.0
  0
LINE
  5
684F
  8
0
 10
148.94999999999999
 20
220.99999999999989
 30
0.0
 11
150.0
 21
221.4896230410626
 31
0.0
  0
LINE
  5
6850
  8
0
 10
50.0
 20
221.48962304106271
 30
0.0
 11
51.050000000000011
 21
220.99999999999989
 31
0.0
  0
LINE
  5
6851
  8
0
 10
148.94999999999999
 20
225.99999999999989
 30
0.0
 11
150.0
 21
226.48962304106271
 31
0.0
  0
LINE
  5
6852
  8
0
 10
50.0
 20
226.48962304106271
 30
0.0
 11
51.050000000000011
 21
225.99999999999989
 31
0.0
  0
LINE
  5
6853
  8
0
 10
50.0
 20
229.40000000000001
 30
0.0
 11
50.0
 21
226.48962304106271
 31
0.0
  0
LINE
  5
6854
  8
0
 10
150.0
 20
226.48962304106271
 30
0.0
 11
150.0
 21
229.39999999999989
 31
0.0
  0
LINE
  5
6855
  8
0
 10
50.0
 20
215.51037695893709
 30
0.0
 11
50.0
 21
212.59999999999991
 31
0.0
  0
LINE
  5
6856
  8
0
 10
150.0
 20
212.59999999999991
 30
0.0
 11
150.0
 21
215.51037695893709
 31
0.0
  0
LINE
  5
6857
  8
0
 10
149.0
 20
211.99999999999989
 30
0.0
 11
150.0
 21
212.59999999999991
 31
0.0
  0
LINE
  5
6858
  8
0
 10
50.0
 20
212.59999999999991
 30
0.0
 11
51.0
 21
211.99999999999989
 31
0.0
  0
LINE
  5
6859
  8
0
 10
148.94999999999999
 20
215.99999999999989
 30
0.0
 11
150.0
 21
216.48962304106271
 31
0.0
  0
LINE
  5
685A
  8
0
 10
50.0
 20
216.48962304106271
 30
0.0
 11
51.050000000000011
 21
215.99999999999989
 31
0.0
  0
LINE
  5
685B
  8
0
 10
50.0
 20
220.5103769589372
 30
0.0
 11
50.0
 21
216.48962304106271
 31
0.0
  0
LINE
  5
685C
  8
0
 10
150.0
 20
216.48962304106271
 30
0.0
 11
150.0
 21
220.51037695893709
 31
0.0
  0
LINE
  5
685D
  8
0
 10
117.5
 20
208.00949999999989
 30
0.0
 11
117.40574374989821
 21
208.10375625010161
 31
0.0
  0
LINE
  5
685E
  8
0
 10
117.40574374989821
 20
203.8962437498981
 30
0.0
 11
117.5
 21
203.99049999999991
 31
0.0
  0
LINE
  5
685F
  8
0
 10
52.0
 20
230.99999999999989
 30
0.0
 11
148.0
 21
230.99999999999989
 31
0.0
  0
LINE
  5
6860
  8
0
 10
51.0
 20
229.99999999999989
 30
0.0
 11
149.0
 21
229.99999999999989
 31
0.0
  0
LINE
  5
6861
  8
0
 10
52.0
 20
210.99999999999989
 30
0.0
 11
148.0
 21
210.99999999999989
 31
0.0
  0
LINE
  5
6862
  8
0
 10
84.0
 20
200.2999999999999
 30
0.0
 11
116.0
 21
200.2999999999999
 31
0.0
  0
LINE
  5
6863
  8
0
 10
92.0
 20
199.99999999999989
 30
0.0
 11
108.0
 21
199.99999999999989
 31
0.0
  0
LINE
  5
6865
  8
0
 10
52.999999999999943
 20
251.3409339775674
 30
0.0
 11
69.000000000000057
 21
251.3409339775674
 31
0.0
  0
LINE
  5
6866
  8
0
 10
53.000000000000057
 20
233.5499999999999
 30
0.0
 11
69.0
 21
233.5499999999999
 31
0.0
  0
LINE
  5
6867
  8
0
 10
54.75
 20
231.7999999999999
 30
0.0
 11
67.25
 21
231.7999999999999
 31
0.0
  0
LINE
  5
6868
  8
0
 10
82.5
 20
201.7999999999999
 30
0.0
 11
117.5
 21
201.7999999999999
 31
0.0
  0
POLYLINE
  5
6869
  8
0
 66
     1
 10
0.0
 20
0.0
 30
0.0
  0
VERTEX
  5
7005
  8
0
 10
117.5
 20
203.22222222222209
 30
0.0
  0
VERTEX
  5
7006
  8
0
 10
117.4999567246192
 20
203.2224948701645
 30
0.0
  0
VERTEX
  5
7007
  8
0
 10
117.49960708541551
 20
203.22469866021001
 30
0.0
  0
VERTEX
  5
7008
  8
0
 10
117.4989002381778
 20
203.22915916580999
 30
0.0
  0
VERTEX
  5
7009
  8
0
 10
117.4984110098961
 20
203.2322505073671
 30
0.0
  0
VERTEX
  5
700A
  8
0
 10
117.4978305595954
 20
203.23592263584581
 30
0.0
  0
VERTEX
  5
700B
  8
0
 10
117.4963948482586
 20
203.24502594043261
 30
0.0
  0
VERTEX
  5
700C
  8
0
 10
117.4945923258052
 20
203.256496759827
 30
0.0
  0
VERTEX
  5
700D
  8
0
 10
117.49242459173681
 20
203.2703539642815
 30
0.0
  0
VERTEX
  5
700E
  8
0
 10
117.4898955360413
 20
203.28660816608519
 30
0.0
  0
VERTEX
  5
700F
  8
0
 10
117.4870112999035
 20
203.30526187066931
 30
0.0
  0
VERTEX
  5
7010
  8
0
 10
117.4854385376845
 20
203.31548696448311
 30
0.0
  0
VERTEX
  5
7011
  8
0
 10
117.4837803234069
 20
203.32630895953409
 30
0.0
  0
VERTEX
  5
7012
  8
0
 10
117.4802132989219
 20
203.34973466261869
 30
0.0
  0
VERTEX
  5
7013
  8
0
 10
117.4763230664405
 20
203.3755158020447
 30
0.0
  0
VERTEX
  5
7014
  8
0
 10
117.4721244701434
 20
203.4036211981105
 30
0.0
  0
VERTEX
  5
7015
  8
0
 10
117.4676341791578
 20
203.43401223705169
 30
0.0
  0
VERTEX
  5
7016
  8
0
 10
117.46286931910819
 20
203.4666515756868
 30
0.0
  0
VERTEX
  5
7017
  8
0
 10
117.4603895669628
 20
203.4838018335553
 30
0.0
  0
VERTEX
  5
7018
  8
0
 10
117.4578483583789
 20
203.50149671065449
 30
0.0
  0
VERTEX
  5
7019
  8
0
 10
117.45259242905441
 20
203.53848991929661
 30
0.0
  0
VERTEX
  5
701A
  8
0
 10
117.4471241151449
 20
203.57756542462141
 30
0.0
  0
VERTEX
  5
701B
  8
0
 10
117.4443177154956
 20
203.59786138162841
 30
0.0
  0
VERTEX
  5
701C
  8
0
 10
117.44146723512451
 20
203.61864981646119
 30
0.0
  0
VERTEX
  5
701D
  8
0
 10
117.43564659972139
 20
203.6616626135023
 30
0.0
  0
VERTEX
  5
701E
  8
0
 10
117.4296877493635
 20
203.70651696691959
 30
0.0
  0
VERTEX
  5
701F
  8
0
 10
117.4266646121285
 20
203.72960600636651
 30
0.0
  0
VERTEX
  5
7020
  8
0
 10
117.4236167252446
 20
203.75312012538731
 30
0.0
  0
VERTEX
  5
7021
  8
0
 10
117.41746008163361
 20
203.8013720009927
 30
0.0
  0
VERTEX
  5
7022
  8
0
 10
117.4112447982309
 20
203.8511643137177
 30
0.0
  0
VERTEX
  5
7023
  8
0
 10
117.4049980172684
 20
203.90238102510651
 30
0.0
  0
VERTEX
  5
7024
  8
0
 10
117.3987467620025
 20
203.9548989582398
 30
0.0
  0
VERTEX
  5
7025
  8
0
 10
117.392517649525
 20
204.008588547849
 30
0.0
  0
VERTEX
  5
7026
  8
0
 10
117.389419532704
 20
204.03583069286211
 30
0.0
  0
VERTEX
  5
7027
  8
0
 10
117.3863208507418
 20
204.0634561436265
 30
0.0
  0
VERTEX
  5
7028
  8
0
 10
117.3800872917388
 20
204.12024372559179
 30
0.0
  0
VERTEX
  5
7029
  8
0
 10
117.37382712376061
 20
204.1790336881111
 30
0.0
  0
VERTEX
  5
702A
  8
0
 10
117.36756697623839
 20
204.2397636360862
 30
0.0
  0
VERTEX
  5
702B
  8
0
 10
117.3613339616675
 20
204.3023644939905
 30
0.0
  0
VERTEX
  5
702C
  8
0
 10
117.3551553884916
 20
204.3667615172896
 30
0.0
  0
VERTEX
  5
702D
  8
0
 10
117.35209503498299
 20
204.39960895847361
 30
0.0
  0
VERTEX
  5
702E
  8
0
 10
117.3490584776775
 20
204.43287542148289
 30
0.0
  0
VERTEX
  5
702F
  8
0
 10
117.3430700960251
 20
204.5006235501522
 30
0.0
  0
VERTEX
  5
7030
  8
0
 10
117.3372166638943
 20
204.5699192213267
 30
0.0
  0
VERTEX
  5
7031
  8
0
 10
117.3315241620725
 20
204.64066959012069
 30
0.0
  0
VERTEX
  5
7032
  8
0
 10
117.3260178953069
 20
204.712776052425
 30
0.0
  0
VERTEX
  5
7033
  8
0
 10
117.320722220634
 20
204.78613525173341
 30
0.0
  0
VERTEX
  5
7034
  8
0
 10
117.31816064514059
 20
204.82325129546959
 30
0.0
  0
VERTEX
  5
7035
  8
0
 10
117.3156602947995
 20
204.86064016763169
 30
0.0
  0
VERTEX
  5
7036
  8
0
 10
117.3108538454981
 20
204.93618129227161
 30
0.0
  0
VERTEX
  5
7037
  8
0
 10
117.3063219376284
 20
205.01266601823019
 30
0.0
  0
VERTEX
  5
7038
  8
0
 10
117.3020822963596
 20
205.08999935565041
 30
0.0
  0
VERTEX
  5
7039
  8
0
 10
117.2981521909597
 20
205.16806334116069
 30
0.0
  0
VERTEX
  5
703A
  8
0
 10
117.29454704531059
 20
205.2467358463459
 30
0.0
  0
VERTEX
  5
703B
  8
0
 10
117.2928706000415
 20
205.28626127154499
 30
0.0
  0
VERTEX
  5
703C
  8
0
 10
117.2912802470015
 20
205.3258917274926
 30
0.0
  0
VERTEX
  5
703D
  8
0
 10
117.2883629930231
 20
205.40540403529181
 30
0.0
  0
VERTEX
  5
703E
  8
0
 10
117.2858041754057
 20
205.4851452892413
 30
0.0
  0
VERTEX
  5
703F
  8
0
 10
117.2836103266452
 20
205.5649881541452
 30
0.0
  0
VERTEX
  5
7040
  8
0
 10
117.28178566197541
 20
205.64480280240929
 30
0.0
  0
VERTEX
  5
7041
  8
0
 10
117.2803320349399
 20
205.72445577398969
 30
0.0
  0
VERTEX
  5
7042
  8
0
 10
117.27974427052089
 20
205.7641792262846
 30
0.0
  0
VERTEX
  5
7043
  8
0
 10
117.2792488455806
 20
205.8038111873318
 30
0.0
  0
VERTEX
  5
7044
  8
0
 10
117.27853299283019
 20
205.8827320715626
 30
0.0
  0
VERTEX
  5
7045
  8
0
 10
117.27817887540149
 20
205.9610817126848
 30
0.0
  0
VERTEX
  5
7046
  8
0
 10
117.27813504453771
 20
205.99999999999989
 30
0.0
  0
VERTEX
  5
7047
  8
0
 10
117.27817887540149
 20
206.038918287315
 30
0.0
  0
VERTEX
  5
7048
  8
0
 10
117.27853299283019
 20
206.1172679284372
 30
0.0
  0
VERTEX
  5
7049
  8
0
 10
117.2792488455806
 20
206.19618881266791
 30
0.0
  0
VERTEX
  5
704A
  8
0
 10
117.27974427052089
 20
206.2358207737152
 30
0.0
  0
VERTEX
  5
704B
  8
0
 10
117.2803320349399
 20
206.27554422601011
 30
0.0
  0
VERTEX
  5
704C
  8
0
 10
117.28178566197541
 20
206.35519719759051
 30
0.0
  0
VERTEX
  5
704D
  8
0
 10
117.2836103266452
 20
206.4350118458546
 30
0.0
  0
VERTEX
  5
704E
  8
0
 10
117.2858041754057
 20
206.5148547107585
 30
0.0
  0
VERTEX
  5
704F
  8
0
 10
117.2883629930231
 20
206.59459596470791
 30
0.0
  0
VERTEX
  5
7050
  8
0
 10
117.2912802470015
 20
206.6741082725072
 30
0.0
  0
VERTEX
  5
7051
  8
0
 10
117.2928706000415
 20
206.71373872845481
 30
0.0
  0
VERTEX
  5
7052
  8
0
 10
117.29454704531059
 20
206.75326415365379
 30
0.0
  0
VERTEX
  5
7053
  8
0
 10
117.2981521909597
 20
206.83193665883911
 30
0.0
  0
VERTEX
  5
7054
  8
0
 10
117.3020822963596
 20
206.91000064434931
 30
0.0
  0
VERTEX
  5
7055
  8
0
 10
117.3063219376284
 20
206.98733398176961
 30
0.0
  0
VERTEX
  5
7056
  8
0
 10
117.3108538454981
 20
207.06381870772819
 30
0.0
  0
VERTEX
  5
7057
  8
0
 10
117.3156602947995
 20
207.139359832368
 30
0.0
  0
VERTEX
  5
7058
  8
0
 10
117.31816064514059
 20
207.17674870453021
 30
0.0
  0
VERTEX
  5
7059
  8
0
 10
117.320722220634
 20
207.21386474826639
 30
0.0
  0
VERTEX
  5
705A
  8
0
 10
117.3260178953069
 20
207.2872239475748
 30
0.0
  0
VERTEX
  5
705B
  8
0
 10
117.3315241620725
 20
207.35933040987911
 30
0.0
  0
VERTEX
  5
705C
  8
0
 10
117.3372166638943
 20
207.4300807786731
 30
0.0
  0
VERTEX
  5
705D
  8
0
 10
117.3430700960251
 20
207.4993764498476
 30
0.0
  0
VERTEX
  5
705E
  8
0
 10
117.3490584776775
 20
207.56712457851691
 30
0.0
  0
VERTEX
  5
705F
  8
0
 10
117.35209503498299
 20
207.60039104152619
 30
0.0
  0
VERTEX
  5
7060
  8
0
 10
117.3551553884916
 20
207.6332384827102
 30
0.0
  0
VERTEX
  5
7061
  8
0
 10
117.3613339616675
 20
207.69763550600931
 30
0.0
  0
VERTEX
  5
7062
  8
0
 10
117.36756697623839
 20
207.76023636391349
 30
0.0
  0
VERTEX
  5
7063
  8
0
 10
117.37382712376061
 20
207.82096631188861
 30
0.0
  0
VERTEX
  5
7064
  8
0
 10
117.3800872917388
 20
207.87975627440801
 30
0.0
  0
VERTEX
  5
7065
  8
0
 10
117.3863208507418
 20
207.93654385637331
 30
0.0
  0
VERTEX
  5
7066
  8
0
 10
117.389419532704
 20
207.96416930713761
 30
0.0
  0
VERTEX
  5
7067
  8
0
 10
117.392517649525
 20
207.99141145215069
 30
0.0
  0
VERTEX
  5
7068
  8
0
 10
117.3987467620025
 20
208.04510104176001
 30
0.0
  0
VERTEX
  5
7069
  8
0
 10
117.4049980172684
 20
208.09761897489329
 30
0.0
  0
VERTEX
  5
706A
  8
0
 10
117.4112447982309
 20
208.14883568628201
 30
0.0
  0
VERTEX
  5
706B
  8
0
 10
117.41746008163361
 20
208.19862799900699
 30
0.0
  0
VERTEX
  5
706C
  8
0
 10
117.4236167252446
 20
208.24687987461249
 30
0.0
  0
VERTEX
  5
706D
  8
0
 10
117.4266646121285
 20
208.27039399363329
 30
0.0
  0
VERTEX
  5
706E
  8
0
 10
117.4296877493635
 20
208.29348303308009
 30
0.0
  0
VERTEX
  5
706F
  8
0
 10
117.43564659972139
 20
208.3383373864975
 30
0.0
  0
VERTEX
  5
7070
  8
0
 10
117.44146723512451
 20
208.3813501835385
 30
0.0
  0
VERTEX
  5
7071
  8
0
 10
117.4443177154956
 20
208.40213861837131
 30
0.0
  0
VERTEX
  5
7072
  8
0
 10
117.4471241151449
 20
208.42243457537839
 30
0.0
  0
VERTEX
  5
7073
  8
0
 10
117.45259242905441
 20
208.46151008070311
 30
0.0
  0
VERTEX
  5
7074
  8
0
 10
117.4578483583789
 20
208.49850328934519
 30
0.0
  0
VERTEX
  5
7075
  8
0
 10
117.4603895669628
 20
208.5161981664445
 30
0.0
  0
VERTEX
  5
7076
  8
0
 10
117.46286931910819
 20
208.533348424313
 30
0.0
  0
VERTEX
  5
7077
  8
0
 10
117.4676341791578
 20
208.56598776294811
 30
0.0
  0
VERTEX
  5
7078
  8
0
 10
117.4721244701434
 20
208.59637880188919
 30
0.0
  0
VERTEX
  5
7079
  8
0
 10
117.4763230664405
 20
208.6244841979551
 30
0.0
  0
VERTEX
  5
707A
  8
0
 10
117.4802132989219
 20
208.65026533738109
 30
0.0
  0
VERTEX
  5
707B
  8
0
 10
117.4837803234069
 20
208.6736910404656
 30
0.0
  0
VERTEX
  5
707C
  8
0
 10
117.4854385376845
 20
208.6845130355166
 30
0.0
  0
VERTEX
  5
707D
  8
0
 10
117.4870112999035
 20
208.69473812933049
 30
0.0
  0
VERTEX
  5
707E
  8
0
 10
117.4898955360413
 20
208.71339183391461
 30
0.0
  0
VERTEX
  5
707F
  8
0
 10
117.49242459173681
 20
208.7296460357183
 30
0.0
  0
VERTEX
  5
7080
  8
0
 10
117.4945923258052
 20
208.7435032401728
 30
0.0
  0
VERTEX
  5
7081
  8
0
 10
117.4963948482586
 20
208.75497405956719
 30
0.0
  0
VERTEX
  5
7082
  8
0
 10
117.4978305595954
 20
208.76407736415399
 30
0.0
  0
VERTEX
  5
7083
  8
0
 10
117.4984110098961
 20
208.76774949263259
 30
0.0
  0
VERTEX
  5
7084
  8
0
 10
117.4989002381778
 20
208.77084083418981
 30
0.0
  0
VERTEX
  5
7085
  8
0
 10
117.49960708541551
 20
208.77530133978979
 30
0.0
  0
VERTEX
  5
7086
  8
0
 10
117.4999567246192
 20
208.7775051298353
 30
0.0
  0
VERTEX
  5
7087
  8
0
 10
117.5
 20
208.7777777777776
 30
0.0
  0
SEQEND
  5
7088
  8
0
  0
LINE
  5
686A
  8
0
 10
51.050595370922792
 20
225.51037695893709
 30
0.0
 11
50.160881375774629
 21
225.51037695893709
 31
0.0
  0
LINE
  5
686B
  8
0
 10
51.050595370922792
 20
215.51037695893709
 30
0.0
 11
50.160881375774629
 21
215.51037695893709
 31
0.0
  0
LINE
  5
686C
  8
0
 10
50.097805991362861
 20
225.51037695893709
 30
0.0
 11
50.0
 21
225.51037695893709
 31
0.0
  0
LINE
  5
686D
  8
0
 10
52.999853470304352
 20
225.51037695893709
 30
0.0
 11
51.238537491225941
 21
225.51037695893709
 31
0.0
  0
LINE
  5
686E
  8
0
 10
55.90589901580028
 20
225.51037695893709
 30
0.0
 11
53.308836366909809
 21
225.51037695893709
 31
0.0
  0
LINE
  5
686F
  8
0
 10
59.70957330044763
 20
225.51037695893709
 30
0.0
 11
56.329632687966289
 21
225.51037695893709
 31
0.0
  0
LINE
  5
6870
  8
0
 10
64.333444484701772
 20
225.51037695893709
 30
0.0
 11
60.239431752555852
 21
225.51037695893709
 31
0.0
  0
LINE
  5
6871
  8
0
 10
69.683383885394676
 20
225.51037695893709
 30
0.0
 11
64.958641326652867
 21
225.51037695893709
 31
0.0
  0
LINE
  5
6872
  8
0
 10
75.650482164279595
 20
225.51037695893709
 30
0.0
 11
70.391191912405404
 21
225.51037695893709
 31
0.0
  0
LINE
  5
6873
  8
0
 10
82.113266408088748
 20
225.51037695893709
 30
0.0
 11
76.426492446069744
 21
225.51037695893709
 31
0.0
  0
LINE
  5
6874
  8
0
 10
88.940172966749003
 20
225.51037695893709
 30
0.0
 11
82.941681613149967
 21
225.51037695893709
 31
0.0
  0
LINE
  5
6875
  8
0
 10
95.992225709898776
 20
225.51037695893709
 30
0.0
 11
89.804128950458392
 21
225.51037695893709
 31
0.0
  0
LINE
  5
6876
  8
0
 10
103.1258651801284
 20
225.51037695893709
 30
0.0
 11
96.874134819871415
 21
225.51037695893709
 31
0.0
  0
LINE
  5
6877
  8
0
 10
110.1958710495414
 20
225.51037695893709
 30
0.0
 11
104.007774290101
 21
225.51037695893709
 31
0.0
  0
LINE
  5
6878
  8
0
 10
117.05831838684981
 20
225.51037695893709
 30
0.0
 11
111.0598270332508
 21
225.51037695893709
 31
0.0
  0
LINE
  5
6879
  8
0
 10
123.5735075539301
 20
225.51037695893709
 30
0.0
 11
117.8867335919111
 21
225.51037695893709
 31
0.0
  0
LINE
  5
687A
  8
0
 10
129.60880808759441
 20
225.51037695893709
 30
0.0
 11
124.34951783572031
 21
225.51037695893709
 31
0.0
  0
LINE
  5
687B
  8
0
 10
135.04135867334699
 20
225.51037695893709
 30
0.0
 11
130.31661611460521
 21
225.51037695893709
 31
0.0
  0
LINE
  5
687C
  8
0
 10
139.76056824744401
 20
225.51037695893709
 30
0.0
 11
135.6665555152982
 21
225.51037695893709
 31
0.0
  0
LINE
  5
687D
  8
0
 10
143.67036731203359
 20
225.51037695893709
 30
0.0
 11
140.29042669955231
 21
225.51037695893709
 31
0.0
  0
LINE
  5
687E
  8
0
 10
146.69116363309001
 20
225.51037695893709
 30
0.0
 11
144.0941009841996
 21
225.51037695893709
 31
0.0
  0
LINE
  5
687F
  8
0
 10
148.761462508774
 20
225.51037695893709
 30
0.0
 11
147.0001465296956
 21
225.51037695893709
 31
0.0
  0
LINE
  5
6880
  8
0
 10
149.83911862422531
 20
225.51037695893709
 30
0.0
 11
148.94940462907709
 21
225.51037695893709
 31
0.0
  0
LINE
  5
6881
  8
0
 10
150.0
 20
225.51037695893709
 30
0.0
 11
149.9021940086372
 21
225.51037695893709
 31
0.0
  0
LINE
  5
6882
  8
0
 10
50.160881375774629
 20
221.48962304106271
 30
0.0
 11
51.050595370922792
 21
221.48962304106271
 31
0.0
  0
LINE
  5
6883
  8
0
 10
51.238537491225941
 20
221.48962304106271
 30
0.0
 11
52.999853470304352
 21
221.48962304106271
 31
0.0
  0
LINE
  5
6884
  8
0
 10
53.308836366909809
 20
221.48962304106271
 30
0.0
 11
55.90589901580028
 21
221.48962304106271
 31
0.0
  0
LINE
  5
6885
  8
0
 10
56.329632687966289
 20
221.48962304106271
 30
0.0
 11
59.70957330044763
 21
221.48962304106271
 31
0.0
  0
LINE
  5
6886
  8
0
 10
60.239431752555852
 20
221.48962304106271
 30
0.0
 11
64.333444484701772
 21
221.48962304106271
 31
0.0
  0
LINE
  5
6887
  8
0
 10
64.958641326652867
 20
221.48962304106271
 30
0.0
 11
69.683383885394676
 21
221.48962304106271
 31
0.0
  0
LINE
  5
6888
  8
0
 10
70.391191912405404
 20
221.48962304106271
 30
0.0
 11
75.650482164279595
 21
221.48962304106271
 31
0.0
  0
LINE
  5
6889
  8
0
 10
76.426492446069744
 20
221.48962304106271
 30
0.0
 11
82.113266408088748
 21
221.4896230410626
 31
0.0
  0
LINE
  5
688A
  8
0
 10
82.941681613149967
 20
221.4896230410626
 30
0.0
 11
88.940172966749003
 21
221.4896230410626
 31
0.0
  0
LINE
  5
688B
  8
0
 10
89.804128950458392
 20
221.4896230410626
 30
0.0
 11
95.992225709898776
 21
221.4896230410626
 31
0.0
  0
LINE
  5
688C
  8
0
 10
96.874134819871415
 20
221.4896230410626
 30
0.0
 11
103.1258651801284
 21
221.4896230410626
 31
0.0
  0
LINE
  5
688D
  8
0
 10
104.007774290101
 20
221.4896230410626
 30
0.0
 11
110.1958710495414
 21
221.4896230410626
 31
0.0
  0
LINE
  5
688E
  8
0
 10
111.0598270332508
 20
221.4896230410626
 30
0.0
 11
117.05831838684981
 21
221.4896230410626
 31
0.0
  0
LINE
  5
688F
  8
0
 10
117.8867335919111
 20
221.4896230410626
 30
0.0
 11
123.5735075539301
 21
221.4896230410626
 31
0.0
  0
LINE
  5
6890
  8
0
 10
124.34951783572031
 20
221.4896230410626
 30
0.0
 11
129.60880808759441
 21
221.4896230410626
 31
0.0
  0
LINE
  5
6891
  8
0
 10
130.3166161146051
 20
221.4896230410626
 30
0.0
 11
135.04135867334691
 21
221.4896230410626
 31
0.0
  0
LINE
  5
6892
  8
0
 10
135.66655551529811
 20
221.4896230410626
 30
0.0
 11
139.76056824744401
 21
221.4896230410626
 31
0.0
  0
LINE
  5
6893
  8
0
 10
140.29042669955231
 20
221.4896230410626
 30
0.0
 11
143.67036731203359
 21
221.4896230410626
 31
0.0
  0
LINE
  5
6894
  8
0
 10
144.0941009841996
 20
221.4896230410626
 30
0.0
 11
146.69116363309001
 21
221.4896230410626
 31
0.0
  0
LINE
  5
6895
  8
0
 10
147.0001465296956
 20
221.4896230410626
 30
0.0
 11
148.761462508774
 21
221.4896230410626
 31
0.0
  0
LINE
  5
6896
  8
0
 10
148.94940462907709
 20
221.4896230410626
 30
0.0
 11
149.83911862422531
 21
221.4896230410626
 31
0.0
  0
LINE
  5
6897
  8
0
 10
149.90219400863711
 20
221.4896230410626
 30
0.0
 11
150.0
 21
221.4896230410626
 31
0.0
  0
LINE
  5
6898
  8
0
 10
50.0
 20
221.48962304106271
 30
0.0
 11
50.097805991362861
 21
221.48962304106271
 31
0.0
  0
LINE
  5
6899
  8
0
 10
51.050000000000011
 20
220.99999999999989
 30
0.0
 11
148.94999999999999
 21
220.99999999999989
 31
0.0
  0
LINE
  5
689A
  8
0
 10
51.050000000000011
 20
225.99999999999989
 30
0.0
 11
148.94999999999999
 21
225.99999999999989
 31
0.0
  0
LINE
  5
689B
  8
0
 10
50.160881375774629
 20
229.39999999999989
 30
0.0
 11
51.050595370922792
 21
229.39999999999989
 31
0.0
  0
LINE
  5
689C
  8
0
 10
50.160881375774629
 20
226.48962304106271
 30
0.0
 11
51.050595370922792
 21
226.48962304106271
 31
0.0
  0
LINE
  5
689D
  8
0
 10
50.0
 20
226.48962304106271
 30
0.0
 11
50.097805991362861
 21
226.48962304106271
 31
0.0
  0
LINE
  5
689E
  8
0
 10
50.0
 20
229.39999999999989
 30
0.0
 11
50.097805991362861
 21
229.39999999999989
 31
0.0
  0
LINE
  5
689F
  8
0
 10
51.238537491225941
 20
229.39999999999989
 30
0.0
 11
52.999853470304352
 21
229.39999999999989
 31
0.0
  0
LINE
  5
68A0
  8
0
 10
51.238537491225941
 20
226.48962304106271
 30
0.0
 11
52.999853470304352
 21
226.48962304106271
 31
0.0
  0
LINE
  5
68A1
  8
0
 10
53.308836366909809
 20
229.39999999999989
 30
0.0
 11
55.90589901580028
 21
229.39999999999989
 31
0.0
  0
LINE
  5
68A2
  8
0
 10
53.308836366909809
 20
226.48962304106271
 30
0.0
 11
55.90589901580028
 21
226.48962304106271
 31
0.0
  0
LINE
  5
68A3
  8
0
 10
56.329632687966289
 20
229.39999999999989
 30
0.0
 11
59.70957330044763
 21
229.39999999999989
 31
0.0
  0
LINE
  5
68A4
  8
0
 10
56.329632687966289
 20
226.48962304106271
 30
0.0
 11
59.70957330044763
 21
226.48962304106271
 31
0.0
  0
LINE
  5
68A5
  8
0
 10
60.239431752555852
 20
229.39999999999989
 30
0.0
 11
64.333444484701715
 21
229.39999999999989
 31
0.0
  0
LINE
  5
68A6
  8
0
 10
60.239431752555852
 20
226.48962304106271
 30
0.0
 11
64.333444484701772
 21
226.48962304106271
 31
0.0
  0
LINE
  5
68A7
  8
0
 10
64.958641326652867
 20
229.39999999999989
 30
0.0
 11
69.683383885394676
 21
229.39999999999989
 31
0.0
  0
LINE
  5
68A8
  8
0
 10
64.958641326652867
 20
226.48962304106271
 30
0.0
 11
69.683383885394676
 21
226.48962304106271
 31
0.0
  0
LINE
  5
68A9
  8
0
 10
70.391191912405404
 20
229.39999999999989
 30
0.0
 11
75.650482164279595
 21
229.39999999999989
 31
0.0
  0
LINE
  5
68AA
  8
0
 10
70.391191912405404
 20
226.48962304106271
 30
0.0
 11
75.650482164279595
 21
226.48962304106271
 31
0.0
  0
LINE
  5
68AB
  8
0
 10
76.426492446069744
 20
229.39999999999989
 30
0.0
 11
82.113266408088748
 21
229.39999999999989
 31
0.0
  0
LINE
  5
68AC
  8
0
 10
76.426492446069744
 20
226.48962304106271
 30
0.0
 11
82.113266408088748
 21
226.48962304106271
 31
0.0
  0
LINE
  5
68AD
  8
0
 10
82.941681613150024
 20
229.39999999999989
 30
0.0
 11
88.940172966749003
 21
229.39999999999989
 31
0.0
  0
LINE
  5
68AE
  8
0
 10
82.941681613149967
 20
226.48962304106271
 30
0.0
 11
88.940172966749003
 21
226.48962304106271
 31
0.0
  0
LINE
  5
68AF
  8
0
 10
89.804128950458392
 20
229.39999999999989
 30
0.0
 11
95.992225709898776
 21
229.39999999999989
 31
0.0
  0
LINE
  5
68B0
  8
0
 10
89.804128950458392
 20
226.48962304106271
 30
0.0
 11
95.992225709898776
 21
226.48962304106271
 31
0.0
  0
LINE
  5
68B1
  8
0
 10
96.874134819871415
 20
229.39999999999989
 30
0.0
 11
103.1258651801284
 21
229.39999999999989
 31
0.0
  0
LINE
  5
68B2
  8
0
 10
96.874134819871415
 20
226.48962304106271
 30
0.0
 11
103.1258651801284
 21
226.48962304106271
 31
0.0
  0
LINE
  5
68B3
  8
0
 10
104.007774290101
 20
229.39999999999989
 30
0.0
 11
110.1958710495414
 21
229.39999999999989
 31
0.0
  0
LINE
  5
68B4
  8
0
 10
104.007774290101
 20
226.48962304106271
 30
0.0
 11
110.1958710495414
 21
226.48962304106271
 31
0.0
  0
LINE
  5
68B5
  8
0
 10
111.0598270332508
 20
229.39999999999989
 30
0.0
 11
117.05831838684981
 21
229.39999999999989
 31
0.0
  0
LINE
  5
68B6
  8
0
 10
111.0598270332508
 20
226.48962304106271
 30
0.0
 11
117.05831838684981
 21
226.48962304106271
 31
0.0
  0
LINE
  5
68B7
  8
0
 10
117.8867335919111
 20
229.39999999999989
 30
0.0
 11
123.5735075539301
 21
229.39999999999989
 31
0.0
  0
LINE
  5
68B8
  8
0
 10
117.8867335919111
 20
226.48962304106271
 30
0.0
 11
123.5735075539301
 21
226.48962304106271
 31
0.0
  0
LINE
  5
68B9
  8
0
 10
124.34951783572021
 20
229.39999999999989
 30
0.0
 11
129.60880808759441
 21
229.39999999999989
 31
0.0
  0
LINE
  5
68BA
  8
0
 10
124.34951783572031
 20
226.48962304106271
 30
0.0
 11
129.60880808759441
 21
226.48962304106271
 31
0.0
  0
LINE
  5
68BB
  8
0
 10
130.31661611460521
 20
229.39999999999989
 30
0.0
 11
135.04135867334699
 21
229.39999999999989
 31
0.0
  0
LINE
  5
68BC
  8
0
 10
130.31661611460521
 20
226.48962304106271
 30
0.0
 11
135.04135867334699
 21
226.48962304106271
 31
0.0
  0
LINE
  5
68BD
  8
0
 10
135.6665555152982
 20
229.39999999999989
 30
0.0
 11
139.76056824744401
 21
229.39999999999989
 31
0.0
  0
LINE
  5
68BE
  8
0
 10
135.6665555152982
 20
226.48962304106271
 30
0.0
 11
139.76056824744401
 21
226.48962304106271
 31
0.0
  0
LINE
  5
68BF
  8
0
 10
140.2904266995522
 20
229.39999999999989
 30
0.0
 11
143.67036731203359
 21
229.39999999999989
 31
0.0
  0
LINE
  5
68C0
  8
0
 10
140.29042669955231
 20
226.48962304106271
 30
0.0
 11
143.67036731203359
 21
226.48962304106271
 31
0.0
  0
LINE
  5
68C1
  8
0
 10
144.0941009841996
 20
229.39999999999989
 30
0.0
 11
146.69116363309001
 21
229.39999999999989
 31
0.0
  0
LINE
  5
68C2
  8
0
 10
144.0941009841996
 20
226.48962304106271
 30
0.0
 11
146.69116363309001
 21
226.48962304106271
 31
0.0
  0
LINE
  5
68C3
  8
0
 10
147.00014652969551
 20
229.39999999999989
 30
0.0
 11
148.76146250877389
 21
229.39999999999989
 31
0.0
  0
LINE
  5
68C4
  8
0
 10
147.0001465296956
 20
226.48962304106271
 30
0.0
 11
148.761462508774
 21
226.48962304106271
 31
0.0
  0
LINE
  5
68C5
  8
0
 10
148.94940462907709
 20
229.39999999999989
 30
0.0
 11
149.83911862422531
 21
229.39999999999989
 31
0.0
  0
LINE
  5
68C6
  8
0
 10
148.94940462907709
 20
226.48962304106271
 30
0.0
 11
149.83911862422531
 21
226.48962304106271
 31
0.0
  0
LINE
  5
68C7
  8
0
 10
149.9021940086372
 20
229.39999999999989
 30
0.0
 11
150.0
 21
229.39999999999989
 31
0.0
  0
LINE
  5
68C8
  8
0
 10
149.9021940086372
 20
226.48962304106271
 30
0.0
 11
150.0
 21
226.48962304106271
 31
0.0
  0
LINE
  5
68C9
  8
0
 10
50.097805991362861
 20
215.51037695893709
 30
0.0
 11
50.0
 21
215.51037695893709
 31
0.0
  0
LINE
  5
68CA
  8
0
 10
52.999853470304352
 20
215.51037695893709
 30
0.0
 11
51.238537491225941
 21
215.51037695893709
 31
0.0
  0
LINE
  5
68CB
  8
0
 10
55.90589901580028
 20
215.51037695893709
 30
0.0
 11
53.308836366909809
 21
215.51037695893709
 31
0.0
  0
LINE
  5
68CC
  8
0
 10
59.70957330044763
 20
215.51037695893709
 30
0.0
 11
56.329632687966289
 21
215.51037695893709
 31
0.0
  0
LINE
  5
68CD
  8
0
 10
64.333444484701772
 20
215.51037695893709
 30
0.0
 11
60.239431752555852
 21
215.51037695893709
 31
0.0
  0
LINE
  5
68CE
  8
0
 10
69.683383885394676
 20
215.51037695893709
 30
0.0
 11
64.958641326652867
 21
215.51037695893709
 31
0.0
  0
LINE
  5
68CF
  8
0
 10
75.650482164279595
 20
215.51037695893709
 30
0.0
 11
70.391191912405404
 21
215.51037695893709
 31
0.0
  0
LINE
  5
68D0
  8
0
 10
82.113266408088748
 20
215.51037695893709
 30
0.0
 11
76.426492446069744
 21
215.51037695893709
 31
0.0
  0
LINE
  5
68D1
  8
0
 10
88.940172966749003
 20
215.51037695893709
 30
0.0
 11
82.941681613149967
 21
215.51037695893709
 31
0.0
  0
LINE
  5
68D2
  8
0
 10
95.992225709898776
 20
215.51037695893709
 30
0.0
 11
89.804128950458392
 21
215.51037695893709
 31
0.0
  0
LINE
  5
68D3
  8
0
 10
103.1258651801284
 20
215.51037695893709
 30
0.0
 11
96.874134819871415
 21
215.51037695893709
 31
0.0
  0
LINE
  5
68D4
  8
0
 10
110.1958710495414
 20
215.51037695893709
 30
0.0
 11
104.007774290101
 21
215.51037695893709
 31
0.0
  0
LINE
  5
68D5
  8
0
 10
117.05831838684981
 20
215.51037695893709
 30
0.0
 11
111.0598270332508
 21
215.51037695893709
 31
0.0
  0
LINE
  5
68D6
  8
0
 10
123.5735075539301
 20
215.51037695893709
 30
0.0
 11
117.8867335919111
 21
215.51037695893709
 31
0.0
  0
LINE
  5
68D7
  8
0
 10
129.60880808759441
 20
215.51037695893709
 30
0.0
 11
124.34951783572031
 21
215.51037695893709
 31
0.0
  0
LINE
  5
68D8
  8
0
 10
135.04135867334691
 20
215.51037695893709
 30
0.0
 11
130.3166161146051
 21
215.51037695893709
 31
0.0
  0
LINE
  5
68D9
  8
0
 10
139.76056824744401
 20
215.51037695893709
 30
0.0
 11
135.66655551529811
 21
215.51037695893709
 31
0.0
  0
LINE
  5
68DA
  8
0
 10
143.67036731203359
 20
215.51037695893709
 30
0.0
 11
140.29042669955231
 21
215.51037695893709
 31
0.0
  0
LINE
  5
68DB
  8
0
 10
146.69116363309001
 20
215.51037695893709
 30
0.0
 11
144.0941009841996
 21
215.51037695893709
 31
0.0
  0
LINE
  5
68DC
  8
0
 10
148.761462508774
 20
215.51037695893709
 30
0.0
 11
147.0001465296956
 21
215.51037695893709
 31
0.0
  0
LINE
  5
68DD
  8
0
 10
149.83911862422531
 20
215.51037695893709
 30
0.0
 11
148.94940462907709
 21
215.51037695893709
 31
0.0
  0
LINE
  5
68DE
  8
0
 10
150.0
 20
215.51037695893709
 30
0.0
 11
149.90219400863711
 21
215.51037695893709
 31
0.0
  0
LINE
  5
68DF
  8
0
 10
50.160881375774629
 20
212.59999999999991
 30
0.0
 11
51.050595370922792
 21
212.59999999999991
 31
0.0
  0
LINE
  5
68E0
  8
0
 10
51.238537491225941
 20
212.59999999999991
 30
0.0
 11
52.999853470304352
 21
212.59999999999991
 31
0.0
  0
LINE
  5
68E1
  8
0
 10
53.308836366909809
 20
212.59999999999991
 30
0.0
 11
55.90589901580028
 21
212.59999999999991
 31
0.0
  0
LINE
  5
68E2
  8
0
 10
56.329632687966289
 20
212.59999999999991
 30
0.0
 11
59.70957330044763
 21
212.59999999999991
 31
0.0
  0
LINE
  5
68E3
  8
0
 10
60.239431752555852
 20
212.59999999999991
 30
0.0
 11
64.333444484701715
 21
212.59999999999991
 31
0.0
  0
LINE
  5
68E4
  8
0
 10
64.958641326652867
 20
212.59999999999991
 30
0.0
 11
69.683383885394676
 21
212.59999999999991
 31
0.0
  0
LINE
  5
68E5
  8
0
 10
70.391191912405404
 20
212.59999999999991
 30
0.0
 11
75.650482164279595
 21
212.59999999999991
 31
0.0
  0
LINE
  5
68E6
  8
0
 10
76.426492446069744
 20
212.59999999999991
 30
0.0
 11
82.113266408088748
 21
212.59999999999991
 31
0.0
  0
LINE
  5
68E7
  8
0
 10
82.941681613149967
 20
212.59999999999991
 30
0.0
 11
88.940172966749003
 21
212.59999999999991
 31
0.0
  0
LINE
  5
68E8
  8
0
 10
89.804128950458392
 20
212.59999999999991
 30
0.0
 11
95.992225709898776
 21
212.59999999999991
 31
0.0
  0
LINE
  5
68E9
  8
0
 10
96.874134819871415
 20
212.59999999999991
 30
0.0
 11
103.1258651801284
 21
212.59999999999991
 31
0.0
  0
LINE
  5
68EA
  8
0
 10
104.007774290101
 20
212.59999999999991
 30
0.0
 11
110.1958710495414
 21
212.59999999999991
 31
0.0
  0
LINE
  5
68EB
  8
0
 10
111.0598270332508
 20
212.59999999999991
 30
0.0
 11
117.05831838684981
 21
212.59999999999991
 31
0.0
  0
LINE
  5
68EC
  8
0
 10
117.8867335919111
 20
212.59999999999991
 30
0.0
 11
123.5735075539301
 21
212.59999999999991
 31
0.0
  0
LINE
  5
68ED
  8
0
 10
124.34951783572031
 20
212.59999999999991
 30
0.0
 11
129.60880808759441
 21
212.59999999999991
 31
0.0
  0
LINE
  5
68EE
  8
0
 10
130.3166161146051
 20
212.59999999999991
 30
0.0
 11
135.04135867334691
 21
212.59999999999991
 31
0.0
  0
LINE
  5
68EF
  8
0
 10
135.66655551529811
 20
212.59999999999991
 30
0.0
 11
139.76056824744401
 21
212.59999999999991
 31
0.0
  0
LINE
  5
68F0
  8
0
 10
140.2904266995522
 20
212.59999999999991
 30
0.0
 11
143.67036731203359
 21
212.59999999999991
 31
0.0
  0
LINE
  5
68F1
  8
0
 10
144.0941009841996
 20
212.59999999999991
 30
0.0
 11
146.69116363309001
 21
212.59999999999991
 31
0.0
  0
LINE
  5
68F2
  8
0
 10
147.00014652969551
 20
212.59999999999991
 30
0.0
 11
148.76146250877389
 21
212.59999999999991
 31
0.0
  0
LINE
  5
68F3
  8
0
 10
148.94940462907709
 20
212.59999999999991
 30
0.0
 11
149.83911862422531
 21
212.59999999999991
 31
0.0
  0
LINE
  5
68F4
  8
0
 10
149.90219400863711
 20
212.59999999999991
 30
0.0
 11
150.0
 21
212.59999999999991
 31
0.0
  0
LINE
  5
68F5
  8
0
 10
50.0
 20
212.59999999999991
 30
0.0
 11
50.097805991362861
 21
212.59999999999991
 31
0.0
  0
LINE
  5
68F6
  8
0
 10
51.0
 20
211.99999999999989
 30
0.0
 11
149.0
 21
211.99999999999989
 31
0.0
  0
LINE
  5
68F7
  8
0
 10
51.050000000000011
 20
215.99999999999989
 30
0.0
 11
148.94999999999999
 21
215.99999999999989
 31
0.0
  0
LINE
  5
68F8
  8
0
 10
51.050595370922792
 20
220.5103769589372
 30
0.0
 11
50.160881375774629
 21
220.5103769589372
 31
0.0
  0
LINE
  5
68F9
  8
0
 10
50.160881375774629
 20
216.48962304106271
 30
0.0
 11
51.050595370922792
 21
216.48962304106271
 31
0.0
  0
LINE
  5
68FA
  8
0
 10
50.0
 20
216.48962304106271
 30
0.0
 11
50.097805991362861
 21
216.48962304106271
 31
0.0
  0
LINE
  5
68FB
  8
0
 10
50.097805991362861
 20
220.5103769589372
 30
0.0
 11
50.0
 21
220.5103769589372
 31
0.0
  0
LINE
  5
68FC
  8
0
 10
52.999853470304352
 20
220.5103769589372
 30
0.0
 11
51.238537491225941
 21
220.5103769589372
 31
0.0
  0
LINE
  5
68FD
  8
0
 10
51.238537491225941
 20
216.48962304106271
 30
0.0
 11
52.999853470304352
 21
216.48962304106271
 31
0.0
  0
LINE
  5
68FE
  8
0
 10
55.90589901580028
 20
220.5103769589372
 30
0.0
 11
53.308836366909809
 21
220.5103769589372
 31
0.0
  0
LINE
  5
68FF
  8
0
 10
53.308836366909809
 20
216.48962304106271
 30
0.0
 11
55.90589901580028
 21
216.48962304106271
 31
0.0
  0
LINE
  5
6900
  8
0
 10
59.70957330044763
 20
220.5103769589372
 30
0.0
 11
56.329632687966289
 21
220.5103769589372
 31
0.0
  0
LINE
  5
6901
  8
0
 10
56.329632687966289
 20
216.48962304106271
 30
0.0
 11
59.70957330044763
 21
216.48962304106271
 31
0.0
  0
LINE
  5
6902
  8
0
 10
64.333444484701772
 20
220.5103769589372
 30
0.0
 11
60.239431752555852
 21
220.5103769589372
 31
0.0
  0
LINE
  5
6903
  8
0
 10
60.239431752555852
 20
216.48962304106271
 30
0.0
 11
64.333444484701772
 21
216.48962304106271
 31
0.0
  0
LINE
  5
6904
  8
0
 10
69.683383885394676
 20
220.5103769589372
 30
0.0
 11
64.958641326652867
 21
220.5103769589372
 31
0.0
  0
LINE
  5
6905
  8
0
 10
64.958641326652867
 20
216.48962304106271
 30
0.0
 11
69.683383885394676
 21
216.48962304106271
 31
0.0
  0
LINE
  5
6906
  8
0
 10
75.650482164279595
 20
220.5103769589372
 30
0.0
 11
70.391191912405404
 21
220.5103769589372
 31
0.0
  0
LINE
  5
6907
  8
0
 10
70.391191912405404
 20
216.48962304106271
 30
0.0
 11
75.650482164279595
 21
216.48962304106271
 31
0.0
  0
LINE
  5
6908
  8
0
 10
82.113266408088748
 20
220.51037695893709
 30
0.0
 11
76.426492446069744
 21
220.5103769589372
 31
0.0
  0
LINE
  5
6909
  8
0
 10
76.426492446069744
 20
216.48962304106271
 30
0.0
 11
82.113266408088748
 21
216.48962304106271
 31
0.0
  0
LINE
  5
690A
  8
0
 10
88.940172966749003
 20
220.51037695893709
 30
0.0
 11
82.941681613149967
 21
220.51037695893709
 31
0.0
  0
LINE
  5
690B
  8
0
 10
82.941681613149967
 20
216.48962304106271
 30
0.0
 11
88.940172966749003
 21
216.48962304106271
 31
0.0
  0
LINE
  5
690C
  8
0
 10
95.992225709898776
 20
220.51037695893709
 30
0.0
 11
89.804128950458392
 21
220.51037695893709
 31
0.0
  0
LINE
  5
690D
  8
0
 10
89.804128950458392
 20
216.48962304106271
 30
0.0
 11
95.992225709898776
 21
216.48962304106271
 31
0.0
  0
LINE
  5
690E
  8
0
 10
103.1258651801284
 20
220.51037695893709
 30
0.0
 11
96.874134819871415
 21
220.51037695893709
 31
0.0
  0
LINE
  5
690F
  8
0
 10
96.874134819871415
 20
216.48962304106271
 30
0.0
 11
103.1258651801284
 21
216.48962304106271
 31
0.0
  0
LINE
  5
6910
  8
0
 10
110.1958710495414
 20
220.51037695893709
 30
0.0
 11
104.007774290101
 21
220.51037695893709
 31
0.0
  0
LINE
  5
6911
  8
0
 10
104.007774290101
 20
216.48962304106271
 30
0.0
 11
110.1958710495414
 21
216.48962304106271
 31
0.0
  0
LINE
  5
6912
  8
0
 10
117.05831838684981
 20
220.51037695893709
 30
0.0
 11
111.0598270332508
 21
220.51037695893709
 31
0.0
  0
LINE
  5
6913
  8
0
 10
111.0598270332508
 20
216.48962304106271
 30
0.0
 11
117.05831838684981
 21
216.48962304106271
 31
0.0
  0
LINE
  5
6914
  8
0
 10
123.5735075539301
 20
220.51037695893709
 30
0.0
 11
117.8867335919111
 21
220.51037695893709
 31
0.0
  0
LINE
  5
6915
  8
0
 10
117.8867335919111
 20
216.48962304106271
 30
0.0
 11
123.5735075539301
 21
216.48962304106271
 31
0.0
  0
LINE
  5
6916
  8
0
 10
129.60880808759441
 20
220.51037695893709
 30
0.0
 11
124.34951783572031
 21
220.51037695893709
 31
0.0
  0
LINE
  5
6917
  8
0
 10
124.34951783572031
 20
216.48962304106271
 30
0.0
 11
129.60880808759441
 21
216.48962304106271
 31
0.0
  0
LINE
  5
6918
  8
0
 10
135.04135867334691
 20
220.51037695893709
 30
0.0
 11
130.3166161146051
 21
220.51037695893709
 31
0.0
  0
LINE
  5
6919
  8
0
 10
130.3166161146051
 20
216.48962304106271
 30
0.0
 11
135.04135867334691
 21
216.48962304106271
 31
0.0
  0
LINE
  5
691A
  8
0
 10
139.76056824744401
 20
220.51037695893709
 30
0.0
 11
135.66655551529811
 21
220.51037695893709
 31
0.0
  0
LINE
  5
691B
  8
0
 10
135.66655551529811
 20
216.48962304106271
 30
0.0
 11
139.76056824744401
 21
216.48962304106271
 31
0.0
  0
LINE
  5
691C
  8
0
 10
143.67036731203359
 20
220.51037695893709
 30
0.0
 11
140.29042669955231
 21
220.51037695893709
 31
0.0
  0
LINE
  5
691D
  8
0
 10
140.29042669955231
 20
216.48962304106271
 30
0.0
 11
143.67036731203359
 21
216.48962304106271
 31
0.0
  0
LINE
  5
691E
  8
0
 10
146.69116363309001
 20
220.51037695893709
 30
0.0
 11
144.0941009841996
 21
220.51037695893709
 31
0.0
  0
LINE
  5
691F
  8
0
 10
144.0941009841996
 20
216.48962304106271
 30
0.0
 11
146.69116363309001
 21
216.48962304106271
 31
0.0
  0
LINE
  5
6920
  8
0
 10
148.761462508774
 20
220.51037695893709
 30
0.0
 11
147.0001465296956
 21
220.51037695893709
 31
0.0
  0
LINE
  5
6921
  8
0
 10
147.0001465296956
 20
216.48962304106271
 30
0.0
 11
148.761462508774
 21
216.48962304106271
 31
0.0
  0
LINE
  5
6922
  8
0
 10
149.83911862422531
 20
220.51037695893709
 30
0.0
 11
148.94940462907709
 21
220.51037695893709
 31
0.0
  0
LINE
  5
6923
  8
0
 10
148.94940462907709
 20
216.48962304106271
 30
0.0
 11
149.83911862422531
 21
216.48962304106271
 31
0.0
  0
LINE
  5
6924
  8
0
 10
150.0
 20
220.51037695893709
 30
0.0
 11
149.90219400863711
 21
220.51037695893709
 31
0.0
  0
LINE
  5
6925
  8
0
 10
149.90219400863711
 20
216.48962304106271
 30
0.0
 11
150.0
 21
216.48962304106271
 31
0.0
  0
LINE
  5
6926
  8
0
 10
148.92502622163289
 20
216.04663076581539
 30
0.0
 11
149.83911862422531
 21
216.48962304106271
 31
0.0
  0
LINE
  5
6927
  8
0
 10
149.83911862422531
 20
216.48962304106271
 30
0.0
 11
149.83911862422531
 21
220.51037695893709
 31
0.0
  0
LINE
  5
6928
  8
0
 10
149.83911862422531
 20
220.51037695893709
 30
0.0
 11
148.92502622163289
 21
220.95336923418441
 31
0.0
  0
LINE
  5
6929
  8
0
 10
147.92905377588531
 20
216.04663076581539
 30
0.0
 11
148.761462508774
 21
216.48962304106271
 31
0.0
  0
LINE
  5
692A
  8
0
 10
148.761462508774
 20
216.48962304106271
 30
0.0
 11
148.761462508774
 21
220.51037695893709
 31
0.0
  0
LINE
  5
692B
  8
0
 10
148.761462508774
 20
220.51037695893709
 30
0.0
 11
147.92905377588531
 21
220.95336923418441
 31
0.0
  0
LINE
  5
692C
  8
0
 10
145.9573840112383
 20
216.04663076581539
 30
0.0
 11
146.69116363309001
 21
216.48962304106271
 31
0.0
  0
LINE
  5
692D
  8
0
 10
146.6911636330901
 20
216.48962304106271
 30
0.0
 11
146.6911636330901
 21
220.51037695893709
 31
0.0
  0
LINE
  5
692E
  8
0
 10
146.69116363309001
 20
220.51037695893709
 30
0.0
 11
145.9573840112383
 21
220.95336923418441
 31
0.0
  0
LINE
  5
692F
  8
0
 10
143.05015443827381
 20
216.04663076581539
 30
0.0
 11
143.67036731203359
 21
216.48962304106271
 31
0.0
  0
LINE
  5
6930
  8
0
 10
143.67036731203359
 20
216.48962304106271
 30
0.0
 11
143.67036731203359
 21
220.51037695893709
 31
0.0
  0
LINE
  5
6931
  8
0
 10
143.67036731203359
 20
220.51037695893709
 30
0.0
 11
143.05015443827381
 21
220.95336923418441
 31
0.0
  0
LINE
  5
6932
  8
0
 10
139.2665478673398
 20
216.04663076581539
 30
0.0
 11
139.76056824744401
 21
216.48962304106271
 31
0.0
  0
LINE
  5
6933
  8
0
 10
139.76056824744401
 20
216.48962304106271
 30
0.0
 11
139.76056824744401
 21
220.51037695893709
 31
0.0
  0
LINE
  5
6934
  8
0
 10
139.76056824744401
 20
220.51037695893709
 30
0.0
 11
139.2665478673398
 21
220.95336923418441
 31
0.0
  0
LINE
  5
6935
  8
0
 10
134.68358761720009
 20
216.04663076581539
 30
0.0
 11
135.04135867334691
 21
216.48962304106271
 31
0.0
  0
LINE
  5
6936
  8
0
 10
135.04135867334691
 20
216.48962304106271
 30
0.0
 11
135.04135867334691
 21
220.51037695893709
 31
0.0
  0
LINE
  5
6937
  8
0
 10
135.04135867334691
 20
220.51037695893709
 30
0.0
 11
134.68358761720009
 21
220.95336923418441
 31
0.0
  0
LINE
  5
6938
  8
0
 10
129.3945695423815
 20
216.04663076581539
 30
0.0
 11
129.60880808759441
 21
216.48962304106271
 31
0.0
  0
LINE
  5
6939
  8
0
 10
129.60880808759441
 20
216.48962304106271
 30
0.0
 11
129.60880808759441
 21
220.51037695893709
 31
0.0
  0
LINE
  5
693A
  8
0
 10
129.60880808759441
 20
220.51037695893709
 30
0.0
 11
129.3945695423815
 21
220.95336923418441
 31
0.0
  0
LINE
  5
693B
  8
0
 10
123.50716279861869
 20
216.04663076581539
 30
0.0
 11
123.5735075539301
 21
216.48962304106271
 31
0.0
  0
LINE
  5
693C
  8
0
 10
123.5735075539301
 20
216.48962304106271
 30
0.0
 11
123.5735075539301
 21
220.51037695893709
 31
0.0
  0
LINE
  5
693D
  8
0
 10
123.5735075539301
 20
220.51037695893709
 30
0.0
 11
123.50716279861869
 21
220.95336923418441
 31
0.0
  0
LINE
  5
693E
  8
0
 10
117.1412180093356
 20
216.04663076581539
 30
0.0
 11
117.05831838684981
 21
216.48962304106271
 31
0.0
  0
LINE
  5
693F
  8
0
 10
117.05831838684981
 20
216.48962304106271
 30
0.0
 11
117.05831838684981
 21
220.51037695893709
 31
0.0
  0
LINE
  5
6940
  8
0
 10
117.05831838684981
 20
220.51037695893709
 30
0.0
 11
117.1412180093356
 21
220.95336923418441
 31
0.0
  0
LINE
  5
6941
  8
0
 10
110.4263274525734
 20
216.04663076581539
 30
0.0
 11
110.1958710495414
 21
216.48962304106271
 31
0.0
  0
LINE
  5
6942
  8
0
 10
110.1958710495414
 20
216.48962304106271
 30
0.0
 11
110.1958710495414
 21
220.51037695893709
 31
0.0
  0
LINE
  5
6943
  8
0
 10
110.1958710495414
 20
220.51037695893709
 30
0.0
 11
110.4263274525734
 21
220.95336923418441
 31
0.0
  0
LINE
  5
6944
  8
0
 10
103.4991869359222
 20
216.04663076581539
 30
0.0
 11
103.1258651801284
 21
216.48962304106271
 31
0.0
  0
LINE
  5
6945
  8
0
 10
103.1258651801284
 20
216.48962304106271
 30
0.0
 11
103.1258651801284
 21
220.51037695893709
 31
0.0
  0
LINE
  5
6946
  8
0
 10
103.1258651801284
 20
220.51037695893709
 30
0.0
 11
103.4991869359222
 21
220.95336923418441
 31
0.0
  0
LINE
  5
6947
  8
0
 10
96.50081306407759
 20
216.04663076581539
 30
0.0
 11
95.992225709898833
 21
216.48962304106271
 31
0.0
  0
LINE
  5
6948
  8
0
 10
95.992225709898833
 20
216.48962304106271
 30
0.0
 11
95.992225709898833
 21
220.51037695893709
 31
0.0
  0
LINE
  5
6949
  8
0
 10
95.992225709898833
 20
220.51037695893709
 30
0.0
 11
96.50081306407759
 21
220.95336923418441
 31
0.0
  0
LINE
  5
694A
  8
0
 10
89.573672547426384
 20
216.04663076581539
 30
0.0
 11
88.940172966749003
 21
216.48962304106271
 31
0.0
  0
LINE
  5
694B
  8
0
 10
88.940172966749003
 20
216.48962304106271
 30
0.0
 11
88.940172966749003
 21
220.51037695893709
 31
0.0
  0
LINE
  5
694C
  8
0
 10
88.940172966749003
 20
220.51037695893709
 30
0.0
 11
89.573672547426384
 21
220.95336923418441
 31
0.0
  0
LINE
  5
694D
  8
0
 10
82.858781990664113
 20
216.04663076581539
 30
0.0
 11
82.113266408088748
 21
216.48962304106271
 31
0.0
  0
LINE
  5
694E
  8
0
 10
82.113266408088748
 20
216.48962304106271
 30
0.0
 11
82.113266408088748
 21
220.51037695893709
 31
0.0
  0
LINE
  5
694F
  8
0
 10
82.113266408088748
 20
220.51037695893709
 30
0.0
 11
82.858781990664113
 21
220.95336923418441
 31
0.0
  0
LINE
  5
6950
  8
0
 10
76.492837201381121
 20
216.04663076581539
 30
0.0
 11
75.650482164279595
 21
216.48962304106271
 31
0.0
  0
LINE
  5
6951
  8
0
 10
75.650482164279595
 20
216.48962304106271
 30
0.0
 11
75.650482164279595
 21
220.5103769589372
 31
0.0
  0
LINE
  5
6952
  8
0
 10
75.650482164279595
 20
220.5103769589372
 30
0.0
 11
76.492837201381121
 21
220.95336923418441
 31
0.0
  0
LINE
  5
6953
  8
0
 10
70.605430457618354
 20
216.04663076581539
 30
0.0
 11
69.683383885394676
 21
216.48962304106271
 31
0.0
  0
LINE
  5
6954
  8
0
 10
69.683383885394676
 20
216.48962304106271
 30
0.0
 11
69.683383885394676
 21
220.5103769589372
 31
0.0
  0
LINE
  5
6955
  8
0
 10
69.683383885394676
 20
220.5103769589372
 30
0.0
 11
70.605430457618354
 21
220.95336923418449
 31
0.0
  0
LINE
  5
6956
  8
0
 10
65.316412382799797
 20
216.04663076581539
 30
0.0
 11
64.333444484701772
 21
216.48962304106271
 31
0.0
  0
LINE
  5
6957
  8
0
 10
64.333444484701715
 20
216.48962304106271
 30
0.0
 11
64.333444484701715
 21
220.5103769589372
 31
0.0
  0
LINE
  5
6958
  8
0
 10
64.333444484701772
 20
220.5103769589372
 30
0.0
 11
65.316412382799797
 21
220.95336923418449
 31
0.0
  0
LINE
  5
6959
  8
0
 10
60.733452132660091
 20
216.04663076581539
 30
0.0
 11
59.70957330044763
 21
216.48962304106271
 31
0.0
  0
LINE
  5
695A
  8
0
 10
59.70957330044763
 20
216.48962304106271
 30
0.0
 11
59.70957330044763
 21
220.5103769589372
 31
0.0
  0
LINE
  5
695B
  8
0
 10
59.70957330044763
 20
220.5103769589372
 30
0.0
 11
60.733452132660091
 21
220.95336923418441
 31
0.0
  0
LINE
  5
695C
  8
0
 10
56.949845561726079
 20
216.04663076581539
 30
0.0
 11
55.90589901580028
 21
216.48962304106271
 31
0.0
  0
LINE
  5
695D
  8
0
 10
55.90589901580028
 20
216.48962304106271
 30
0.0
 11
55.90589901580028
 21
220.5103769589372
 31
0.0
  0
LINE
  5
695E
  8
0
 10
55.90589901580028
 20
220.5103769589372
 30
0.0
 11
56.949845561726079
 21
220.95336923418449
 31
0.0
  0
LINE
  5
695F
  8
0
 10
54.042615988761668
 20
216.04663076581539
 30
0.0
 11
52.999853470304352
 21
216.48962304106271
 31
0.0
  0
LINE
  5
6960
  8
0
 10
52.999853470304352
 20
216.48962304106271
 30
0.0
 11
52.999853470304352
 21
220.5103769589372
 31
0.0
  0
LINE
  5
6961
  8
0
 10
52.999853470304352
 20
220.5103769589372
 30
0.0
 11
54.042615988761717
 21
220.95336923418449
 31
0.0
  0
LINE
  5
6962
  8
0
 10
52.0709462241146
 20
216.04663076581539
 30
0.0
 11
51.050595370922792
 21
216.48962304106271
 31
0.0
  0
LINE
  5
6963
  8
0
 10
51.050595370922792
 20
216.48962304106271
 30
0.0
 11
51.050595370922792
 21
220.5103769589372
 31
0.0
  0
LINE
  5
6964
  8
0
 10
51.050595370922792
 20
220.5103769589372
 30
0.0
 11
52.0709462241146
 21
220.95336923418449
 31
0.0
  0
LINE
  5
6965
  8
0
 10
51.074973778367109
 20
216.04663076581539
 30
0.0
 11
50.097805991362861
 21
216.48962304106271
 31
0.0
  0
LINE
  5
6966
  8
0
 10
50.097805991362861
 20
216.48962304106271
 30
0.0
 11
50.097805991362861
 21
220.5103769589372
 31
0.0
  0
LINE
  5
6967
  8
0
 10
50.097805991362861
 20
220.5103769589372
 30
0.0
 11
51.074973778367109
 21
220.95336923418449
 31
0.0
  0
LINE
  5
6968
  8
0
 10
149.83911862422531
 20
212.59999999999991
 30
0.0
 11
149.83911862422531
 21
215.51037695893709
 31
0.0
  0
LINE
  5
6969
  8
0
 10
149.83911862422531
 20
215.51037695893709
 30
0.0
 11
148.92502622163289
 21
215.95336923418441
 31
0.0
  0
LINE
  5
696A
  8
0
 10
148.92502622163289
 20
212.0299999999998
 30
0.0
 11
149.83911862422531
 21
212.59999999999991
 31
0.0
  0
LINE
  5
696B
  8
0
 10
148.92502622163289
 20
226.04663076581539
 30
0.0
 11
149.83911862422531
 21
226.48962304106271
 31
0.0
  0
LINE
  5
696C
  8
0
 10
149.83911862422531
 20
226.48962304106271
 30
0.0
 11
149.83911862422531
 21
229.39999999999989
 31
0.0
  0
LINE
  5
696D
  8
0
 10
149.83911862422531
 20
229.39999999999989
 30
0.0
 11
148.92502622163289
 21
229.96999999999991
 31
0.0
  0
LINE
  5
696E
  8
0
 10
149.83911862422531
 20
221.4896230410626
 30
0.0
 11
149.83911862422531
 21
225.51037695893709
 31
0.0
  0
LINE
  5
696F
  8
0
 10
149.83911862422531
 20
225.51037695893709
 30
0.0
 11
148.92502622163289
 21
225.95336923418441
 31
0.0
  0
LINE
  5
6970
  8
0
 10
148.92502622163289
 20
221.04663076581539
 30
0.0
 11
149.83911862422531
 21
221.4896230410626
 31
0.0
  0
LINE
  5
6971
  8
0
 10
149.90219400863711
 20
220.51037695893709
 30
0.0
 11
149.90219400863711
 21
216.48962304106271
 31
0.0
  0
LINE
  5
6972
  8
0
 10
149.90219400863711
 20
216.48962304106271
 30
0.0
 11
148.92502622163289
 21
216.04663076581539
 31
0.0
  0
LINE
  5
6973
  8
0
 10
148.92502622163289
 20
220.95336923418441
 30
0.0
 11
149.90219400863711
 21
220.51037695893709
 31
0.0
  0
LINE
  5
6974
  8
0
 10
148.92502622163289
 20
225.95336923418441
 30
0.0
 11
149.90219400863711
 21
225.51037695893709
 31
0.0
  0
LINE
  5
6975
  8
0
 10
149.9021940086372
 20
225.51037695893709
 30
0.0
 11
149.90219400863711
 21
221.4896230410626
 31
0.0
  0
LINE
  5
6976
  8
0
 10
149.90219400863711
 20
221.4896230410626
 30
0.0
 11
148.92502622163289
 21
221.04663076581539
 31
0.0
  0
LINE
  5
6977
  8
0
 10
149.9021940086372
 20
229.39999999999989
 30
0.0
 11
149.9021940086372
 21
226.48962304106271
 31
0.0
  0
LINE
  5
6978
  8
0
 10
149.90219400863711
 20
226.48962304106271
 30
0.0
 11
148.92502622163289
 21
226.04663076581539
 31
0.0
  0
LINE
  5
6979
  8
0
 10
148.92502622163289
 20
229.96999999999991
 30
0.0
 11
149.90219400863711
 21
229.39999999999989
 31
0.0
  0
LINE
  5
697A
  8
0
 10
148.92502622163289
 20
215.95336923418441
 30
0.0
 11
149.90219400863711
 21
215.51037695893709
 31
0.0
  0
LINE
  5
697B
  8
0
 10
149.90219400863711
 20
215.51037695893709
 30
0.0
 11
149.90219400863711
 21
212.59999999999991
 31
0.0
  0
LINE
  5
697C
  8
0
 10
149.90219400863711
 20
212.59999999999991
 30
0.0
 11
148.92502622163289
 21
212.0299999999998
 31
0.0
  0
LINE
  5
697D
  8
0
 10
148.761462508774
 20
212.59999999999991
 30
0.0
 11
148.761462508774
 21
215.51037695893709
 31
0.0
  0
LINE
  5
697E
  8
0
 10
148.761462508774
 20
215.51037695893709
 30
0.0
 11
147.92905377588531
 21
215.95336923418441
 31
0.0
  0
LINE
  5
697F
  8
0
 10
147.92905377588531
 20
212.0299999999998
 30
0.0
 11
148.761462508774
 21
212.59999999999991
 31
0.0
  0
LINE
  5
6980
  8
0
 10
147.92905377588539
 20
226.04663076581539
 30
0.0
 11
148.761462508774
 21
226.48962304106271
 31
0.0
  0
LINE
  5
6981
  8
0
 10
148.761462508774
 20
226.48962304106271
 30
0.0
 11
148.761462508774
 21
229.39999999999989
 31
0.0
  0
LINE
  5
6982
  8
0
 10
148.76146250877389
 20
229.39999999999989
 30
0.0
 11
147.92905377588539
 21
229.96999999999991
 31
0.0
  0
LINE
  5
6983
  8
0
 10
148.761462508774
 20
221.4896230410626
 30
0.0
 11
148.761462508774
 21
225.51037695893709
 31
0.0
  0
LINE
  5
6984
  8
0
 10
148.761462508774
 20
225.51037695893709
 30
0.0
 11
147.92905377588539
 21
225.95336923418441
 31
0.0
  0
LINE
  5
6985
  8
0
 10
147.92905377588531
 20
221.04663076581539
 30
0.0
 11
148.761462508774
 21
221.4896230410626
 31
0.0
  0
LINE
  5
6986
  8
0
 10
148.94940462907709
 20
220.51037695893709
 30
0.0
 11
148.94940462907709
 21
216.48962304106271
 31
0.0
  0
LINE
  5
6987
  8
0
 10
148.94940462907709
 20
216.48962304106271
 30
0.0
 11
147.92905377588531
 21
216.04663076581539
 31
0.0
  0
LINE
  5
6988
  8
0
 10
147.92905377588531
 20
220.95336923418441
 30
0.0
 11
148.94940462907709
 21
220.51037695893709
 31
0.0
  0
LINE
  5
6989
  8
0
 10
147.92905377588539
 20
225.95336923418441
 30
0.0
 11
148.94940462907709
 21
225.51037695893709
 31
0.0
  0
LINE
  5
698A
  8
0
 10
148.94940462907709
 20
225.51037695893709
 30
0.0
 11
148.94940462907709
 21
221.4896230410626
 31
0.0
  0
LINE
  5
698B
  8
0
 10
148.94940462907709
 20
221.4896230410626
 30
0.0
 11
147.92905377588531
 21
221.04663076581539
 31
0.0
  0
LINE
  5
698C
  8
0
 10
148.94940462907709
 20
229.39999999999989
 30
0.0
 11
148.94940462907709
 21
226.48962304106271
 31
0.0
  0
LINE
  5
698D
  8
0
 10
148.94940462907709
 20
226.48962304106271
 30
0.0
 11
147.92905377588539
 21
226.04663076581539
 31
0.0
  0
LINE
  5
698E
  8
0
 10
147.92905377588539
 20
229.96999999999991
 30
0.0
 11
148.94940462907709
 21
229.39999999999989
 31
0.0
  0
LINE
  5
698F
  8
0
 10
147.92905377588531
 20
215.95336923418441
 30
0.0
 11
148.94940462907709
 21
215.51037695893709
 31
0.0
  0
LINE
  5
6990
  8
0
 10
148.94940462907709
 20
215.51037695893709
 30
0.0
 11
148.94940462907709
 21
212.59999999999991
 31
0.0
  0
LINE
  5
6991
  8
0
 10
148.94940462907709
 20
212.59999999999991
 30
0.0
 11
147.92905377588531
 21
212.0299999999998
 31
0.0
  0
LINE
  5
6992
  8
0
 10
146.6911636330901
 20
212.59999999999991
 30
0.0
 11
146.6911636330901
 21
215.51037695893709
 31
0.0
  0
LINE
  5
6993
  8
0
 10
146.69116363309001
 20
215.51037695893709
 30
0.0
 11
145.9573840112383
 21
215.95336923418441
 31
0.0
  0
LINE
  5
6994
  8
0
 10
145.9573840112383
 20
212.0299999999998
 30
0.0
 11
146.69116363309001
 21
212.59999999999991
 31
0.0
  0
LINE
  5
6995
  8
0
 10
145.9573840112383
 20
226.04663076581539
 30
0.0
 11
146.69116363309001
 21
226.48962304106271
 31
0.0
  0
LINE
  5
6996
  8
0
 10
146.69116363309021
 20
226.48962304106271
 30
0.0
 11
146.69116363309021
 21
229.39999999999989
 31
0.0
  0
LINE
  5
6997
  8
0
 10
146.69116363309001
 20
229.39999999999989
 30
0.0
 11
145.9573840112383
 21
229.96999999999991
 31
0.0
  0
LINE
  5
6998
  8
0
 10
146.6911636330901
 20
221.4896230410626
 30
0.0
 11
146.69116363309021
 21
225.51037695893709
 31
0.0
  0
LINE
  5
6999
  8
0
 10
146.69116363309001
 20
225.51037695893709
 30
0.0
 11
145.9573840112383
 21
225.95336923418441
 31
0.0
  0
LINE
  5
699A
  8
0
 10
145.9573840112383
 20
221.04663076581539
 30
0.0
 11
146.69116363309001
 21
221.4896230410626
 31
0.0
  0
LINE
  5
699B
  8
0
 10
147.0001465296956
 20
220.51037695893709
 30
0.0
 11
147.0001465296956
 21
216.48962304106271
 31
0.0
  0
LINE
  5
699C
  8
0
 10
147.0001465296956
 20
216.48962304106271
 30
0.0
 11
145.9573840112383
 21
216.04663076581539
 31
0.0
  0
LINE
  5
699D
  8
0
 10
145.9573840112383
 20
220.95336923418441
 30
0.0
 11
147.0001465296956
 21
220.51037695893709
 31
0.0
  0
LINE
  5
699E
  8
0
 10
145.9573840112383
 20
225.95336923418441
 30
0.0
 11
147.0001465296956
 21
225.51037695893709
 31
0.0
  0
LINE
  5
699F
  8
0
 10
147.0001465296956
 20
225.51037695893709
 30
0.0
 11
147.0001465296956
 21
221.4896230410626
 31
0.0
  0
LINE
  5
69A0
  8
0
 10
147.0001465296956
 20
221.4896230410626
 30
0.0
 11
145.9573840112383
 21
221.04663076581539
 31
0.0
  0
LINE
  5
69A1
  8
0
 10
147.0001465296956
 20
229.39999999999989
 30
0.0
 11
147.0001465296956
 21
226.48962304106271
 31
0.0
  0
LINE
  5
69A2
  8
0
 10
147.0001465296956
 20
226.48962304106271
 30
0.0
 11
145.9573840112383
 21
226.04663076581539
 31
0.0
  0
LINE
  5
69A3
  8
0
 10
145.9573840112383
 20
229.96999999999991
 30
0.0
 11
147.0001465296956
 21
229.39999999999989
 31
0.0
  0
LINE
  5
69A4
  8
0
 10
145.9573840112383
 20
215.95336923418441
 30
0.0
 11
147.0001465296956
 21
215.51037695893709
 31
0.0
  0
LINE
  5
69A5
  8
0
 10
147.0001465296956
 20
215.51037695893709
 30
0.0
 11
147.0001465296956
 21
212.59999999999991
 31
0.0
  0
LINE
  5
69A6
  8
0
 10
147.0001465296956
 20
212.59999999999991
 30
0.0
 11
145.9573840112383
 21
212.0299999999998
 31
0.0
  0
LINE
  5
69A7
  8
0
 10
143.67036731203359
 20
212.59999999999991
 30
0.0
 11
143.67036731203359
 21
215.51037695893709
 31
0.0
  0
LINE
  5
69A8
  8
0
 10
143.67036731203359
 20
215.51037695893709
 30
0.0
 11
143.05015443827381
 21
215.95336923418441
 31
0.0
  0
LINE
  5
69A9
  8
0
 10
143.05015443827381
 20
212.0299999999998
 30
0.0
 11
143.67036731203359
 21
212.59999999999991
 31
0.0
  0
LINE
  5
69AA
  8
0
 10
143.05015443827381
 20
226.04663076581531
 30
0.0
 11
143.67036731203359
 21
226.48962304106271
 31
0.0
  0
LINE
  5
69AB
  8
0
 10
143.67036731203359
 20
226.48962304106271
 30
0.0
 11
143.67036731203359
 21
229.39999999999989
 31
0.0
  0
LINE
  5
69AC
  8
0
 10
143.67036731203359
 20
229.39999999999989
 30
0.0
 11
143.05015443827381
 21
229.96999999999991
 31
0.0
  0
LINE
  5
69AD
  8
0
 10
143.67036731203359
 20
221.4896230410626
 30
0.0
 11
143.67036731203359
 21
225.51037695893709
 31
0.0
  0
LINE
  5
69AE
  8
0
 10
143.67036731203359
 20
225.51037695893709
 30
0.0
 11
143.05015443827381
 21
225.95336923418441
 31
0.0
  0
LINE
  5
69AF
  8
0
 10
143.05015443827381
 20
221.04663076581531
 30
0.0
 11
143.67036731203359
 21
221.4896230410626
 31
0.0
  0
LINE
  5
69B0
  8
0
 10
144.0941009841996
 20
220.51037695893709
 30
0.0
 11
144.0941009841996
 21
216.48962304106271
 31
0.0
  0
LINE
  5
69B1
  8
0
 10
144.0941009841996
 20
216.48962304106271
 30
0.0
 11
143.05015443827381
 21
216.04663076581539
 31
0.0
  0
LINE
  5
69B2
  8
0
 10
143.05015443827381
 20
220.95336923418441
 30
0.0
 11
144.0941009841996
 21
220.51037695893709
 31
0.0
  0
LINE
  5
69B3
  8
0
 10
143.05015443827381
 20
225.95336923418441
 30
0.0
 11
144.0941009841996
 21
225.51037695893709
 31
0.0
  0
LINE
  5
69B4
  8
0
 10
144.0941009841996
 20
225.51037695893709
 30
0.0
 11
144.0941009841996
 21
221.4896230410626
 31
0.0
  0
LINE
  5
69B5
  8
0
 10
144.0941009841996
 20
221.4896230410626
 30
0.0
 11
143.05015443827381
 21
221.04663076581531
 31
0.0
  0
LINE
  5
69B6
  8
0
 10
144.0941009841996
 20
229.39999999999989
 30
0.0
 11
144.0941009841996
 21
226.48962304106271
 31
0.0
  0
LINE
  5
69B7
  8
0
 10
144.0941009841996
 20
226.48962304106271
 30
0.0
 11
143.05015443827381
 21
226.04663076581531
 31
0.0
  0
LINE
  5
69B8
  8
0
 10
143.05015443827381
 20
229.96999999999991
 30
0.0
 11
144.0941009841996
 21
229.39999999999989
 31
0.0
  0
LINE
  5
69B9
  8
0
 10
143.05015443827381
 20
215.95336923418441
 30
0.0
 11
144.0941009841996
 21
215.51037695893709
 31
0.0
  0
LINE
  5
69BA
  8
0
 10
144.0941009841996
 20
215.51037695893709
 30
0.0
 11
144.0941009841996
 21
212.59999999999991
 31
0.0
  0
LINE
  5
69BB
  8
0
 10
144.0941009841996
 20
212.59999999999991
 30
0.0
 11
143.05015443827381
 21
212.0299999999998
 31
0.0
  0
LINE
  5
69BC
  8
0
 10
139.76056824744401
 20
212.59999999999991
 30
0.0
 11
139.76056824744401
 21
215.51037695893709
 31
0.0
  0
LINE
  5
69BD
  8
0
 10
139.76056824744401
 20
215.51037695893709
 30
0.0
 11
139.2665478673398
 21
215.95336923418441
 31
0.0
  0
LINE
  5
69BE
  8
0
 10
139.2665478673398
 20
212.0299999999998
 30
0.0
 11
139.76056824744401
 21
212.59999999999991
 31
0.0
  0
LINE
  5
69BF
  8
0
 10
139.2665478673398
 20
226.04663076581531
 30
0.0
 11
139.76056824744401
 21
226.48962304106271
 31
0.0
  0
LINE
  5
69C0
  8
0
 10
139.76056824744401
 20
226.48962304106271
 30
0.0
 11
139.76056824744401
 21
229.39999999999989
 31
0.0
  0
LINE
  5
69C1
  8
0
 10
139.76056824744401
 20
229.39999999999989
 30
0.0
 11
139.2665478673398
 21
229.96999999999991
 31
0.0
  0
LINE
  5
69C2
  8
0
 10
139.76056824744401
 20
221.4896230410626
 30
0.0
 11
139.76056824744401
 21
225.51037695893709
 31
0.0
  0
LINE
  5
69C3
  8
0
 10
139.76056824744401
 20
225.51037695893709
 30
0.0
 11
139.2665478673398
 21
225.95336923418441
 31
0.0
  0
LINE
  5
69C4
  8
0
 10
139.2665478673398
 20
221.04663076581539
 30
0.0
 11
139.76056824744401
 21
221.4896230410626
 31
0.0
  0
LINE
  5
69C5
  8
0
 10
140.29042669955231
 20
220.51037695893709
 30
0.0
 11
140.29042669955231
 21
216.48962304106271
 31
0.0
  0
LINE
  5
69C6
  8
0
 10
140.29042669955231
 20
216.48962304106271
 30
0.0
 11
139.2665478673398
 21
216.04663076581539
 31
0.0
  0
LINE
  5
69C7
  8
0
 10
139.2665478673398
 20
220.95336923418441
 30
0.0
 11
140.29042669955231
 21
220.51037695893709
 31
0.0
  0
LINE
  5
69C8
  8
0
 10
139.2665478673398
 20
225.95336923418441
 30
0.0
 11
140.29042669955231
 21
225.51037695893709
 31
0.0
  0
LINE
  5
69C9
  8
0
 10
140.29042669955231
 20
225.51037695893709
 30
0.0
 11
140.29042669955231
 21
221.4896230410626
 31
0.0
  0
LINE
  5
69CA
  8
0
 10
140.29042669955231
 20
221.4896230410626
 30
0.0
 11
139.2665478673398
 21
221.04663076581539
 31
0.0
  0
LINE
  5
69CB
  8
0
 10
140.29042669955231
 20
229.39999999999989
 30
0.0
 11
140.29042669955231
 21
226.48962304106271
 31
0.0
  0
LINE
  5
69CC
  8
0
 10
140.29042669955231
 20
226.48962304106271
 30
0.0
 11
139.2665478673398
 21
226.04663076581539
 31
0.0
  0
LINE
  5
69CD
  8
0
 10
139.2665478673398
 20
229.96999999999991
 30
0.0
 11
140.2904266995522
 21
229.39999999999989
 31
0.0
  0
LINE
  5
69CE
  8
0
 10
139.2665478673398
 20
215.95336923418441
 30
0.0
 11
140.29042669955231
 21
215.51037695893709
 31
0.0
  0
LINE
  5
69CF
  8
0
 10
140.29042669955231
 20
215.51037695893709
 30
0.0
 11
140.29042669955231
 21
212.59999999999991
 31
0.0
  0
LINE
  5
69D0
  8
0
 10
140.2904266995522
 20
212.59999999999991
 30
0.0
 11
139.2665478673398
 21
212.0299999999998
 31
0.0
  0
LINE
  5
69D1
  8
0
 10
135.04135867334691
 20
212.59999999999991
 30
0.0
 11
135.04135867334691
 21
215.51037695893709
 31
0.0
  0
LINE
  5
69D2
  8
0
 10
135.04135867334691
 20
215.51037695893709
 30
0.0
 11
134.68358761720009
 21
215.95336923418441
 31
0.0
  0
LINE
  5
69D3
  8
0
 10
134.68358761720009
 20
212.0299999999998
 30
0.0
 11
135.04135867334691
 21
212.59999999999991
 31
0.0
  0
LINE
  5
69D4
  8
0
 10
134.68358761720009
 20
226.04663076581539
 30
0.0
 11
135.04135867334699
 21
226.48962304106271
 31
0.0
  0
LINE
  5
69D5
  8
0
 10
135.04135867334699
 20
226.48962304106271
 30
0.0
 11
135.04135867334699
 21
229.39999999999989
 31
0.0
  0
LINE
  5
69D6
  8
0
 10
135.04135867334699
 20
229.39999999999989
 30
0.0
 11
134.68358761720009
 21
229.96999999999991
 31
0.0
  0
LINE
  5
69D7
  8
0
 10
135.04135867334691
 20
221.4896230410626
 30
0.0
 11
135.04135867334699
 21
225.51037695893709
 31
0.0
  0
LINE
  5
69D8
  8
0
 10
135.04135867334699
 20
225.51037695893709
 30
0.0
 11
134.68358761720009
 21
225.95336923418441
 31
0.0
  0
LINE
  5
69D9
  8
0
 10
134.68358761720009
 20
221.04663076581539
 30
0.0
 11
135.04135867334691
 21
221.4896230410626
 31
0.0
  0
LINE
  5
69DA
  8
0
 10
135.66655551529811
 20
220.51037695893709
 30
0.0
 11
135.66655551529811
 21
216.48962304106271
 31
0.0
  0
LINE
  5
69DB
  8
0
 10
135.66655551529811
 20
216.48962304106271
 30
0.0
 11
134.68358761720009
 21
216.04663076581539
 31
0.0
  0
LINE
  5
69DC
  8
0
 10
134.68358761720009
 20
220.95336923418441
 30
0.0
 11
135.66655551529811
 21
220.51037695893709
 31
0.0
  0
LINE
  5
69DD
  8
0
 10
134.68358761720009
 20
225.95336923418441
 30
0.0
 11
135.6665555152982
 21
225.51037695893709
 31
0.0
  0
LINE
  5
69DE
  8
0
 10
135.6665555152982
 20
225.51037695893709
 30
0.0
 11
135.66655551529811
 21
221.4896230410626
 31
0.0
  0
LINE
  5
69DF
  8
0
 10
135.66655551529811
 20
221.4896230410626
 30
0.0
 11
134.68358761720009
 21
221.04663076581539
 31
0.0
  0
LINE
  5
69E0
  8
0
 10
135.6665555152982
 20
229.39999999999989
 30
0.0
 11
135.6665555152982
 21
226.48962304106271
 31
0.0
  0
LINE
  5
69E1
  8
0
 10
135.6665555152982
 20
226.48962304106271
 30
0.0
 11
134.68358761720009
 21
226.04663076581539
 31
0.0
  0
LINE
  5
69E2
  8
0
 10
134.68358761720009
 20
229.96999999999991
 30
0.0
 11
135.6665555152982
 21
229.39999999999989
 31
0.0
  0
LINE
  5
69E3
  8
0
 10
134.68358761720009
 20
215.95336923418441
 30
0.0
 11
135.66655551529811
 21
215.51037695893709
 31
0.0
  0
LINE
  5
69E4
  8
0
 10
135.66655551529811
 20
215.51037695893709
 30
0.0
 11
135.66655551529811
 21
212.59999999999991
 31
0.0
  0
LINE
  5
69E5
  8
0
 10
135.66655551529811
 20
212.59999999999991
 30
0.0
 11
134.68358761720009
 21
212.0299999999998
 31
0.0
  0
LINE
  5
69E6
  8
0
 10
129.60880808759441
 20
212.59999999999991
 30
0.0
 11
129.60880808759441
 21
215.51037695893709
 31
0.0
  0
LINE
  5
69E7
  8
0
 10
129.60880808759441
 20
215.51037695893709
 30
0.0
 11
129.3945695423815
 21
215.95336923418441
 31
0.0
  0
LINE
  5
69E8
  8
0
 10
129.3945695423815
 20
212.0299999999998
 30
0.0
 11
129.60880808759441
 21
212.59999999999991
 31
0.0
  0
LINE
  5
69E9
  8
0
 10
129.3945695423815
 20
226.04663076581539
 30
0.0
 11
129.60880808759441
 21
226.48962304106271
 31
0.0
  0
LINE
  5
69EA
  8
0
 10
129.60880808759441
 20
226.48962304106271
 30
0.0
 11
129.60880808759441
 21
229.39999999999989
 31
0.0
  0
LINE
  5
69EB
  8
0
 10
129.60880808759441
 20
229.39999999999989
 30
0.0
 11
129.3945695423815
 21
229.96999999999991
 31
0.0
  0
LINE
  5
69EC
  8
0
 10
129.60880808759441
 20
221.4896230410626
 30
0.0
 11
129.60880808759441
 21
225.51037695893709
 31
0.0
  0
LINE
  5
69ED
  8
0
 10
129.60880808759441
 20
225.51037695893709
 30
0.0
 11
129.3945695423815
 21
225.95336923418441
 31
0.0
  0
LINE
  5
69EE
  8
0
 10
129.3945695423815
 20
221.04663076581539
 30
0.0
 11
129.60880808759441
 21
221.4896230410626
 31
0.0
  0
LINE
  5
69EF
  8
0
 10
130.3166161146051
 20
220.51037695893709
 30
0.0
 11
130.3166161146051
 21
216.48962304106271
 31
0.0
  0
LINE
  5
69F0
  8
0
 10
130.3166161146051
 20
216.48962304106271
 30
0.0
 11
129.3945695423815
 21
216.04663076581539
 31
0.0
  0
LINE
  5
69F1
  8
0
 10
129.3945695423815
 20
220.95336923418441
 30
0.0
 11
130.3166161146051
 21
220.51037695893709
 31
0.0
  0
LINE
  5
69F2
  8
0
 10
129.3945695423815
 20
225.95336923418441
 30
0.0
 11
130.31661611460521
 21
225.51037695893709
 31
0.0
  0
LINE
  5
69F3
  8
0
 10
130.31661611460521
 20
225.51037695893709
 30
0.0
 11
130.3166161146051
 21
221.4896230410626
 31
0.0
  0
LINE
  5
69F4
  8
0
 10
130.3166161146051
 20
221.4896230410626
 30
0.0
 11
129.3945695423815
 21
221.04663076581539
 31
0.0
  0
LINE
  5
69F5
  8
0
 10
130.31661611460521
 20
229.39999999999989
 30
0.0
 11
130.31661611460521
 21
226.48962304106271
 31
0.0
  0
LINE
  5
69F6
  8
0
 10
130.31661611460521
 20
226.48962304106271
 30
0.0
 11
129.3945695423815
 21
226.04663076581539
 31
0.0
  0
LINE
  5
69F7
  8
0
 10
129.3945695423815
 20
229.96999999999991
 30
0.0
 11
130.31661611460521
 21
229.39999999999989
 31
0.0
  0
LINE
  5
69F8
  8
0
 10
129.3945695423815
 20
215.95336923418441
 30
0.0
 11
130.3166161146051
 21
215.51037695893709
 31
0.0
  0
LINE
  5
69F9
  8
0
 10
130.3166161146051
 20
215.51037695893709
 30
0.0
 11
130.3166161146051
 21
212.59999999999991
 31
0.0
  0
LINE
  5
69FA
  8
0
 10
130.3166161146051
 20
212.59999999999991
 30
0.0
 11
129.3945695423815
 21
212.0299999999998
 31
0.0
  0
LINE
  5
69FB
  8
0
 10
123.5735075539301
 20
212.59999999999991
 30
0.0
 11
123.5735075539301
 21
215.51037695893709
 31
0.0
  0
LINE
  5
69FC
  8
0
 10
123.5735075539301
 20
215.51037695893709
 30
0.0
 11
123.50716279861869
 21
215.95336923418441
 31
0.0
  0
LINE
  5
69FD
  8
0
 10
123.50716279861869
 20
212.0299999999998
 30
0.0
 11
123.5735075539301
 21
212.59999999999991
 31
0.0
  0
LINE
  5
69FE
  8
0
 10
123.50716279861869
 20
226.04663076581539
 30
0.0
 11
123.5735075539301
 21
226.48962304106271
 31
0.0
  0
LINE
  5
69FF
  8
0
 10
123.5735075539301
 20
226.48962304106271
 30
0.0
 11
123.5735075539301
 21
229.39999999999989
 31
0.0
  0
LINE
  5
6A00
  8
0
 10
123.5735075539301
 20
229.39999999999989
 30
0.0
 11
123.50716279861869
 21
229.96999999999991
 31
0.0
  0
LINE
  5
6A01
  8
0
 10
123.5735075539301
 20
221.4896230410626
 30
0.0
 11
123.5735075539301
 21
225.51037695893709
 31
0.0
  0
LINE
  5
6A02
  8
0
 10
123.5735075539301
 20
225.51037695893709
 30
0.0
 11
123.50716279861869
 21
225.95336923418441
 31
0.0
  0
LINE
  5
6A03
  8
0
 10
123.50716279861869
 20
221.04663076581539
 30
0.0
 11
123.5735075539301
 21
221.4896230410626
 31
0.0
  0
LINE
  5
6A04
  8
0
 10
124.34951783572031
 20
220.51037695893709
 30
0.0
 11
124.34951783572031
 21
216.48962304106271
 31
0.0
  0
LINE
  5
6A05
  8
0
 10
124.34951783572031
 20
216.48962304106271
 30
0.0
 11
123.50716279861869
 21
216.04663076581539
 31
0.0
  0
LINE
  5
6A06
  8
0
 10
123.50716279861869
 20
220.95336923418441
 30
0.0
 11
124.34951783572031
 21
220.51037695893709
 31
0.0
  0
LINE
  5
6A07
  8
0
 10
123.50716279861869
 20
225.95336923418441
 30
0.0
 11
124.34951783572031
 21
225.51037695893709
 31
0.0
  0
LINE
  5
6A08
  8
0
 10
124.34951783572031
 20
225.51037695893709
 30
0.0
 11
124.34951783572031
 21
221.4896230410626
 31
0.0
  0
LINE
  5
6A09
  8
0
 10
124.34951783572031
 20
221.4896230410626
 30
0.0
 11
123.50716279861869
 21
221.04663076581539
 31
0.0
  0
LINE
  5
6A0A
  8
0
 10
124.34951783572031
 20
229.39999999999989
 30
0.0
 11
124.34951783572031
 21
226.48962304106271
 31
0.0
  0
LINE
  5
6A0B
  8
0
 10
124.34951783572031
 20
226.48962304106271
 30
0.0
 11
123.50716279861869
 21
226.04663076581539
 31
0.0
  0
LINE
  5
6A0C
  8
0
 10
123.50716279861869
 20
229.96999999999991
 30
0.0
 11
124.34951783572031
 21
229.39999999999989
 31
0.0
  0
LINE
  5
6A0D
  8
0
 10
123.50716279861869
 20
215.95336923418441
 30
0.0
 11
124.34951783572031
 21
215.51037695893709
 31
0.0
  0
LINE
  5
6A0E
  8
0
 10
124.34951783572031
 20
215.51037695893709
 30
0.0
 11
124.34951783572031
 21
212.59999999999991
 31
0.0
  0
LINE
  5
6A0F
  8
0
 10
124.34951783572031
 20
212.59999999999991
 30
0.0
 11
123.50716279861869
 21
212.0299999999998
 31
0.0
  0
LINE
  5
6A10
  8
0
 10
117.05831838684981
 20
212.59999999999991
 30
0.0
 11
117.05831838684981
 21
215.51037695893709
 31
0.0
  0
LINE
  5
6A11
  8
0
 10
117.05831838684981
 20
215.51037695893709
 30
0.0
 11
117.1412180093356
 21
215.95336923418441
 31
0.0
  0
LINE
  5
6A12
  8
0
 10
117.1412180093356
 20
212.0299999999998
 30
0.0
 11
117.05831838684981
 21
212.59999999999991
 31
0.0
  0
LINE
  5
6A13
  8
0
 10
117.1412180093356
 20
226.04663076581539
 30
0.0
 11
117.05831838684981
 21
226.48962304106271
 31
0.0
  0
LINE
  5
6A14
  8
0
 10
117.05831838684981
 20
226.48962304106271
 30
0.0
 11
117.05831838684981
 21
229.39999999999989
 31
0.0
  0
LINE
  5
6A15
  8
0
 10
117.05831838684981
 20
229.39999999999989
 30
0.0
 11
117.1412180093357
 21
229.96999999999991
 31
0.0
  0
LINE
  5
6A16
  8
0
 10
117.05831838684981
 20
221.4896230410626
 30
0.0
 11
117.05831838684981
 21
225.51037695893709
 31
0.0
  0
LINE
  5
6A17
  8
0
 10
117.05831838684981
 20
225.51037695893709
 30
0.0
 11
117.1412180093356
 21
225.95336923418441
 31
0.0
  0
LINE
  5
6A18
  8
0
 10
117.1412180093356
 20
221.04663076581539
 30
0.0
 11
117.05831838684981
 21
221.4896230410626
 31
0.0
  0
LINE
  5
6A19
  8
0
 10
117.8867335919111
 20
220.51037695893709
 30
0.0
 11
117.8867335919111
 21
216.48962304106271
 31
0.0
  0
LINE
  5
6A1A
  8
0
 10
117.8867335919111
 20
216.48962304106271
 30
0.0
 11
117.1412180093356
 21
216.04663076581539
 31
0.0
  0
LINE
  5
6A1B
  8
0
 10
117.1412180093356
 20
216.04663076581539
 30
0.0
 11
117.1412180093356
 21
220.95336923418441
 31
0.0
  0
LINE
  5
6A1C
  8
0
 10
117.1412180093356
 20
220.95336923418441
 30
0.0
 11
117.8867335919111
 21
220.5103769589372
 31
0.0
  0
LINE
  5
6A1D
  8
0
 10
117.1412180093356
 20
221.04663076581539
 30
0.0
 11
117.1412180093356
 21
225.95336923418441
 31
0.0
  0
LINE
  5
6A1E
  8
0
 10
117.1412180093356
 20
225.95336923418441
 30
0.0
 11
117.8867335919111
 21
225.5103769589372
 31
0.0
  0
LINE
  5
6A1F
  8
0
 10
117.8867335919111
 20
225.51037695893709
 30
0.0
 11
117.8867335919111
 21
221.4896230410626
 31
0.0
  0
LINE
  5
6A20
  8
0
 10
117.8867335919111
 20
221.4896230410626
 30
0.0
 11
117.1412180093356
 21
221.04663076581539
 31
0.0
  0
LINE
  5
6A21
  8
0
 10
117.8867335919111
 20
229.39999999999989
 30
0.0
 11
117.8867335919111
 21
226.48962304106271
 31
0.0
  0
LINE
  5
6A22
  8
0
 10
117.8867335919111
 20
226.4896230410626
 30
0.0
 11
117.1412180093356
 21
226.04663076581539
 31
0.0
  0
LINE
  5
6A23
  8
0
 10
117.1412180093356
 20
226.04663076581539
 30
0.0
 11
117.1412180093357
 21
229.96999999999991
 31
0.0
  0
LINE
  5
6A24
  8
0
 10
117.1412180093357
 20
229.96999999999991
 30
0.0
 11
117.8867335919111
 21
229.39999999999989
 31
0.0
  0
LINE
  5
6A25
  8
0
 10
117.1412180093356
 20
212.0299999999998
 30
0.0
 11
117.1412180093356
 21
215.95336923418441
 31
0.0
  0
LINE
  5
6A26
  8
0
 10
117.1412180093356
 20
215.95336923418441
 30
0.0
 11
117.8867335919111
 21
215.51037695893709
 31
0.0
  0
LINE
  5
6A27
  8
0
 10
117.8867335919111
 20
215.51037695893709
 30
0.0
 11
117.8867335919111
 21
212.59999999999991
 31
0.0
  0
LINE
  5
6A28
  8
0
 10
117.8867335919111
 20
212.59999999999991
 30
0.0
 11
117.1412180093356
 21
212.0299999999998
 31
0.0
  0
LINE
  5
6A29
  8
0
 10
110.1958710495414
 20
212.59999999999991
 30
0.0
 11
110.1958710495414
 21
215.51037695893709
 31
0.0
  0
LINE
  5
6A2A
  8
0
 10
110.1958710495414
 20
215.51037695893709
 30
0.0
 11
110.4263274525734
 21
215.95336923418441
 31
0.0
  0
LINE
  5
6A2B
  8
0
 10
110.4263274525734
 20
212.0299999999998
 30
0.0
 11
110.1958710495414
 21
212.59999999999991
 31
0.0
  0
LINE
  5
6A2C
  8
0
 10
110.4263274525734
 20
226.04663076581539
 30
0.0
 11
110.1958710495414
 21
226.48962304106271
 31
0.0
  0
LINE
  5
6A2D
  8
0
 10
110.1958710495414
 20
226.48962304106271
 30
0.0
 11
110.1958710495414
 21
229.39999999999989
 31
0.0
  0
LINE
  5
6A2E
  8
0
 10
110.1958710495414
 20
229.39999999999989
 30
0.0
 11
110.4263274525734
 21
229.96999999999991
 31
0.0
  0
LINE
  5
6A2F
  8
0
 10
110.1958710495414
 20
221.4896230410626
 30
0.0
 11
110.1958710495414
 21
225.51037695893709
 31
0.0
  0
LINE
  5
6A30
  8
0
 10
110.1958710495414
 20
225.51037695893709
 30
0.0
 11
110.4263274525734
 21
225.95336923418441
 31
0.0
  0
LINE
  5
6A31
  8
0
 10
110.4263274525734
 20
221.04663076581539
 30
0.0
 11
110.1958710495414
 21
221.4896230410626
 31
0.0
  0
LINE
  5
6A32
  8
0
 10
111.0598270332508
 20
220.51037695893709
 30
0.0
 11
111.0598270332508
 21
216.48962304106271
 31
0.0
  0
LINE
  5
6A33
  8
0
 10
111.0598270332508
 20
216.48962304106271
 30
0.0
 11
110.4263274525734
 21
216.04663076581539
 31
0.0
  0
LINE
  5
6A34
  8
0
 10
110.4263274525734
 20
216.04663076581539
 30
0.0
 11
110.4263274525734
 21
220.95336923418441
 31
0.0
  0
LINE
  5
6A35
  8
0
 10
110.4263274525734
 20
220.95336923418441
 30
0.0
 11
111.0598270332508
 21
220.51037695893709
 31
0.0
  0
LINE
  5
6A36
  8
0
 10
110.4263274525734
 20
221.04663076581539
 30
0.0
 11
110.4263274525734
 21
225.95336923418441
 31
0.0
  0
LINE
  5
6A37
  8
0
 10
110.4263274525734
 20
225.95336923418441
 30
0.0
 11
111.0598270332508
 21
225.51037695893709
 31
0.0
  0
LINE
  5
6A38
  8
0
 10
111.0598270332508
 20
225.51037695893709
 30
0.0
 11
111.0598270332508
 21
221.4896230410626
 31
0.0
  0
LINE
  5
6A39
  8
0
 10
111.0598270332508
 20
221.4896230410626
 30
0.0
 11
110.4263274525734
 21
221.04663076581539
 31
0.0
  0
LINE
  5
6A3A
  8
0
 10
111.0598270332508
 20
229.39999999999989
 30
0.0
 11
111.0598270332508
 21
226.48962304106271
 31
0.0
  0
LINE
  5
6A3B
  8
0
 10
111.0598270332508
 20
226.48962304106271
 30
0.0
 11
110.4263274525734
 21
226.04663076581539
 31
0.0
  0
LINE
  5
6A3C
  8
0
 10
110.4263274525734
 20
226.04663076581539
 30
0.0
 11
110.4263274525734
 21
229.96999999999991
 31
0.0
  0
LINE
  5
6A3D
  8
0
 10
110.4263274525734
 20
229.96999999999991
 30
0.0
 11
111.0598270332508
 21
229.39999999999989
 31
0.0
  0
LINE
  5
6A3E
  8
0
 10
110.4263274525734
 20
212.0299999999998
 30
0.0
 11
110.4263274525734
 21
215.95336923418441
 31
0.0
  0
LINE
  5
6A3F
  8
0
 10
110.4263274525734
 20
215.95336923418441
 30
0.0
 11
111.0598270332508
 21
215.51037695893709
 31
0.0
  0
LINE
  5
6A40
  8
0
 10
111.0598270332508
 20
215.51037695893709
 30
0.0
 11
111.0598270332508
 21
212.59999999999991
 31
0.0
  0
LINE
  5
6A41
  8
0
 10
111.0598270332508
 20
212.59999999999991
 30
0.0
 11
110.4263274525734
 21
212.0299999999998
 31
0.0
  0
LINE
  5
6A42
  8
0
 10
103.1258651801284
 20
212.59999999999991
 30
0.0
 11
103.1258651801284
 21
215.51037695893709
 31
0.0
  0
LINE
  5
6A43
  8
0
 10
103.1258651801284
 20
215.51037695893709
 30
0.0
 11
103.4991869359222
 21
215.95336923418441
 31
0.0
  0
LINE
  5
6A44
  8
0
 10
103.4991869359222
 20
212.0299999999998
 30
0.0
 11
103.1258651801284
 21
212.59999999999991
 31
0.0
  0
LINE
  5
6A45
  8
0
 10
103.4991869359222
 20
226.04663076581539
 30
0.0
 11
103.1258651801284
 21
226.48962304106271
 31
0.0
  0
LINE
  5
6A46
  8
0
 10
103.1258651801284
 20
226.48962304106271
 30
0.0
 11
103.1258651801284
 21
229.39999999999989
 31
0.0
  0
LINE
  5
6A47
  8
0
 10
103.1258651801284
 20
229.39999999999989
 30
0.0
 11
103.4991869359222
 21
229.96999999999991
 31
0.0
  0
LINE
  5
6A48
  8
0
 10
103.1258651801284
 20
221.4896230410626
 30
0.0
 11
103.1258651801284
 21
225.51037695893709
 31
0.0
  0
LINE
  5
6A49
  8
0
 10
103.1258651801284
 20
225.51037695893709
 30
0.0
 11
103.4991869359222
 21
225.95336923418441
 31
0.0
  0
LINE
  5
6A4A
  8
0
 10
103.4991869359222
 20
221.04663076581539
 30
0.0
 11
103.1258651801284
 21
221.4896230410626
 31
0.0
  0
LINE
  5
6A4B
  8
0
 10
104.007774290101
 20
220.51037695893709
 30
0.0
 11
104.007774290101
 21
216.48962304106271
 31
0.0
  0
LINE
  5
6A4C
  8
0
 10
104.007774290101
 20
216.48962304106271
 30
0.0
 11
103.4991869359222
 21
216.04663076581539
 31
0.0
  0
LINE
  5
6A4D
  8
0
 10
103.4991869359222
 20
216.04663076581539
 30
0.0
 11
103.4991869359222
 21
220.95336923418441
 31
0.0
  0
LINE
  5
6A4E
  8
0
 10
103.4991869359222
 20
220.95336923418441
 30
0.0
 11
104.007774290101
 21
220.51037695893709
 31
0.0
  0
LINE
  5
6A4F
  8
0
 10
103.4991869359222
 20
221.04663076581539
 30
0.0
 11
103.4991869359222
 21
225.95336923418441
 31
0.0
  0
LINE
  5
6A50
  8
0
 10
103.4991869359222
 20
225.95336923418441
 30
0.0
 11
104.007774290101
 21
225.51037695893709
 31
0.0
  0
LINE
  5
6A51
  8
0
 10
104.007774290101
 20
225.51037695893709
 30
0.0
 11
104.007774290101
 21
221.4896230410626
 31
0.0
  0
LINE
  5
6A52
  8
0
 10
104.007774290101
 20
221.4896230410626
 30
0.0
 11
103.4991869359222
 21
221.04663076581539
 31
0.0
  0
LINE
  5
6A53
  8
0
 10
104.007774290101
 20
229.39999999999989
 30
0.0
 11
104.007774290101
 21
226.48962304106271
 31
0.0
  0
LINE
  5
6A54
  8
0
 10
104.007774290101
 20
226.48962304106271
 30
0.0
 11
103.4991869359222
 21
226.04663076581539
 31
0.0
  0
LINE
  5
6A55
  8
0
 10
103.4991869359222
 20
226.04663076581539
 30
0.0
 11
103.4991869359222
 21
229.96999999999991
 31
0.0
  0
LINE
  5
6A56
  8
0
 10
103.4991869359222
 20
229.96999999999991
 30
0.0
 11
104.007774290101
 21
229.39999999999989
 31
0.0
  0
LINE
  5
6A57
  8
0
 10
103.4991869359222
 20
212.0299999999998
 30
0.0
 11
103.4991869359222
 21
215.95336923418441
 31
0.0
  0
LINE
  5
6A58
  8
0
 10
103.4991869359222
 20
215.95336923418441
 30
0.0
 11
104.007774290101
 21
215.51037695893709
 31
0.0
  0
LINE
  5
6A59
  8
0
 10
104.007774290101
 20
215.51037695893709
 30
0.0
 11
104.007774290101
 21
212.59999999999991
 31
0.0
  0
LINE
  5
6A5A
  8
0
 10
104.007774290101
 20
212.59999999999991
 30
0.0
 11
103.4991869359222
 21
212.0299999999998
 31
0.0
  0
LINE
  5
6A5B
  8
0
 10
95.992225709898776
 20
212.59999999999991
 30
0.0
 11
95.992225709898776
 21
215.51037695893709
 31
0.0
  0
LINE
  5
6A5C
  8
0
 10
95.992225709898833
 20
215.51037695893709
 30
0.0
 11
96.50081306407759
 21
215.95336923418441
 31
0.0
  0
LINE
  5
6A5D
  8
0
 10
96.50081306407759
 20
212.0299999999998
 30
0.0
 11
95.992225709898833
 21
212.59999999999991
 31
0.0
  0
LINE
  5
6A5E
  8
0
 10
96.50081306407759
 20
226.04663076581539
 30
0.0
 11
95.992225709898833
 21
226.48962304106271
 31
0.0
  0
LINE
  5
6A5F
  8
0
 10
95.992225709898776
 20
226.48962304106271
 30
0.0
 11
95.992225709898776
 21
229.39999999999989
 31
0.0
  0
LINE
  5
6A60
  8
0
 10
95.992225709898833
 20
229.39999999999989
 30
0.0
 11
96.50081306407759
 21
229.96999999999991
 31
0.0
  0
LINE
  5
6A61
  8
0
 10
95.992225709898776
 20
221.4896230410626
 30
0.0
 11
95.992225709898776
 21
225.51037695893709
 31
0.0
  0
LINE
  5
6A62
  8
0
 10
95.992225709898833
 20
225.51037695893709
 30
0.0
 11
96.50081306407759
 21
225.95336923418441
 31
0.0
  0
LINE
  5
6A63
  8
0
 10
96.50081306407759
 20
221.04663076581539
 30
0.0
 11
95.992225709898833
 21
221.4896230410626
 31
0.0
  0
LINE
  5
6A64
  8
0
 10
96.874134819871415
 20
220.51037695893709
 30
0.0
 11
96.874134819871415
 21
216.48962304106271
 31
0.0
  0
LINE
  5
6A65
  8
0
 10
96.874134819871415
 20
216.48962304106271
 30
0.0
 11
96.50081306407759
 21
216.04663076581539
 31
0.0
  0
LINE
  5
6A66
  8
0
 10
96.50081306407759
 20
216.04663076581539
 30
0.0
 11
96.50081306407759
 21
220.95336923418441
 31
0.0
  0
LINE
  5
6A67
  8
0
 10
96.50081306407759
 20
220.95336923418441
 30
0.0
 11
96.874134819871415
 21
220.51037695893709
 31
0.0
  0
LINE
  5
6A68
  8
0
 10
96.50081306407759
 20
221.04663076581539
 30
0.0
 11
96.50081306407759
 21
225.95336923418441
 31
0.0
  0
LINE
  5
6A69
  8
0
 10
96.50081306407759
 20
225.95336923418441
 30
0.0
 11
96.874134819871415
 21
225.51037695893709
 31
0.0
  0
LINE
  5
6A6A
  8
0
 10
96.874134819871415
 20
225.51037695893709
 30
0.0
 11
96.874134819871415
 21
221.4896230410626
 31
0.0
  0
LINE
  5
6A6B
  8
0
 10
96.874134819871415
 20
221.4896230410626
 30
0.0
 11
96.50081306407759
 21
221.04663076581539
 31
0.0
  0
LINE
  5
6A6C
  8
0
 10
96.874134819871415
 20
229.39999999999989
 30
0.0
 11
96.874134819871415
 21
226.48962304106271
 31
0.0
  0
LINE
  5
6A6D
  8
0
 10
96.874134819871415
 20
226.48962304106271
 30
0.0
 11
96.50081306407759
 21
226.04663076581539
 31
0.0
  0
LINE
  5
6A6E
  8
0
 10
96.50081306407759
 20
226.04663076581539
 30
0.0
 11
96.50081306407759
 21
229.96999999999991
 31
0.0
  0
LINE
  5
6A6F
  8
0
 10
96.50081306407759
 20
229.96999999999991
 30
0.0
 11
96.874134819871415
 21
229.39999999999989
 31
0.0
  0
LINE
  5
6A70
  8
0
 10
96.50081306407759
 20
212.0299999999998
 30
0.0
 11
96.50081306407759
 21
215.95336923418441
 31
0.0
  0
LINE
  5
6A71
  8
0
 10
96.50081306407759
 20
215.95336923418441
 30
0.0
 11
96.874134819871415
 21
215.51037695893709
 31
0.0
  0
LINE
  5
6A72
  8
0
 10
96.874134819871415
 20
215.51037695893709
 30
0.0
 11
96.874134819871415
 21
212.59999999999991
 31
0.0
  0
LINE
  5
6A73
  8
0
 10
96.874134819871415
 20
212.59999999999991
 30
0.0
 11
96.50081306407759
 21
212.0299999999998
 31
0.0
  0
LINE
  5
6A74
  8
0
 10
88.940172966749003
 20
212.59999999999991
 30
0.0
 11
88.940172966749003
 21
215.51037695893709
 31
0.0
  0
LINE
  5
6A75
  8
0
 10
88.940172966749003
 20
215.51037695893709
 30
0.0
 11
89.573672547426384
 21
215.95336923418441
 31
0.0
  0
LINE
  5
6A76
  8
0
 10
89.573672547426384
 20
212.0299999999998
 30
0.0
 11
88.940172966749003
 21
212.59999999999991
 31
0.0
  0
LINE
  5
6A77
  8
0
 10
89.573672547426384
 20
226.04663076581539
 30
0.0
 11
88.940172966749003
 21
226.48962304106271
 31
0.0
  0
LINE
  5
6A78
  8
0
 10
88.940172966749003
 20
226.48962304106271
 30
0.0
 11
88.940172966749003
 21
229.39999999999989
 31
0.0
  0
LINE
  5
6A79
  8
0
 10
88.940172966749003
 20
229.39999999999989
 30
0.0
 11
89.573672547426384
 21
229.96999999999991
 31
0.0
  0
LINE
  5
6A7A
  8
0
 10
88.940172966749003
 20
221.4896230410626
 30
0.0
 11
88.940172966749003
 21
225.51037695893709
 31
0.0
  0
LINE
  5
6A7B
  8
0
 10
88.940172966749003
 20
225.51037695893709
 30
0.0
 11
89.573672547426384
 21
225.95336923418441
 31
0.0
  0
LINE
  5
6A7C
  8
0
 10
89.573672547426384
 20
221.04663076581539
 30
0.0
 11
88.940172966749003
 21
221.4896230410626
 31
0.0
  0
LINE
  5
6A7D
  8
0
 10
89.804128950458392
 20
220.51037695893709
 30
0.0
 11
89.804128950458392
 21
216.48962304106271
 31
0.0
  0
LINE
  5
6A7E
  8
0
 10
89.804128950458392
 20
216.48962304106271
 30
0.0
 11
89.573672547426384
 21
216.04663076581539
 31
0.0
  0
LINE
  5
6A7F
  8
0
 10
89.573672547426384
 20
216.04663076581539
 30
0.0
 11
89.573672547426384
 21
220.95336923418441
 31
0.0
  0
LINE
  5
6A80
  8
0
 10
89.573672547426384
 20
220.95336923418441
 30
0.0
 11
89.804128950458392
 21
220.51037695893709
 31
0.0
  0
LINE
  5
6A81
  8
0
 10
89.573672547426384
 20
221.04663076581539
 30
0.0
 11
89.573672547426384
 21
225.95336923418441
 31
0.0
  0
LINE
  5
6A82
  8
0
 10
89.573672547426384
 20
225.95336923418441
 30
0.0
 11
89.804128950458392
 21
225.51037695893709
 31
0.0
  0
LINE
  5
6A83
  8
0
 10
89.804128950458392
 20
225.51037695893709
 30
0.0
 11
89.804128950458392
 21
221.4896230410626
 31
0.0
  0
LINE
  5
6A84
  8
0
 10
89.804128950458392
 20
221.4896230410626
 30
0.0
 11
89.573672547426384
 21
221.04663076581539
 31
0.0
  0
LINE
  5
6A85
  8
0
 10
89.804128950458392
 20
229.39999999999989
 30
0.0
 11
89.804128950458392
 21
226.48962304106271
 31
0.0
  0
LINE
  5
6A86
  8
0
 10
89.804128950458392
 20
226.48962304106271
 30
0.0
 11
89.573672547426384
 21
226.04663076581539
 31
0.0
  0
LINE
  5
6A87
  8
0
 10
89.573672547426384
 20
226.04663076581539
 30
0.0
 11
89.573672547426384
 21
229.96999999999991
 31
0.0
  0
LINE
  5
6A88
  8
0
 10
89.573672547426384
 20
229.96999999999991
 30
0.0
 11
89.804128950458392
 21
229.39999999999989
 31
0.0
  0
LINE
  5
6A89
  8
0
 10
89.573672547426384
 20
212.0299999999998
 30
0.0
 11
89.573672547426384
 21
215.95336923418441
 31
0.0
  0
LINE
  5
6A8A
  8
0
 10
89.573672547426384
 20
215.95336923418441
 30
0.0
 11
89.804128950458392
 21
215.51037695893709
 31
0.0
  0
LINE
  5
6A8B
  8
0
 10
89.804128950458392
 20
215.51037695893709
 30
0.0
 11
89.804128950458392
 21
212.59999999999991
 31
0.0
  0
LINE
  5
6A8C
  8
0
 10
89.804128950458392
 20
212.59999999999991
 30
0.0
 11
89.573672547426384
 21
212.0299999999998
 31
0.0
  0
LINE
  5
6A8D
  8
0
 10
82.113266408088748
 20
212.59999999999991
 30
0.0
 11
82.113266408088748
 21
215.51037695893709
 31
0.0
  0
LINE
  5
6A8E
  8
0
 10
82.113266408088748
 20
215.51037695893709
 30
0.0
 11
82.858781990664113
 21
215.95336923418441
 31
0.0
  0
LINE
  5
6A8F
  8
0
 10
82.858781990664113
 20
212.0299999999998
 30
0.0
 11
82.113266408088748
 21
212.59999999999991
 31
0.0
  0
LINE
  5
6A90
  8
0
 10
82.858781990664113
 20
226.04663076581539
 30
0.0
 11
82.113266408088748
 21
226.48962304106271
 31
0.0
  0
LINE
  5
6A91
  8
0
 10
82.113266408088748
 20
226.48962304106271
 30
0.0
 11
82.113266408088748
 21
229.39999999999989
 31
0.0
  0
LINE
  5
6A92
  8
0
 10
82.113266408088748
 20
229.39999999999989
 30
0.0
 11
82.858781990664156
 21
229.96999999999991
 31
0.0
  0
LINE
  5
6A93
  8
0
 10
82.113266408088748
 20
221.4896230410626
 30
0.0
 11
82.113266408088748
 21
225.51037695893709
 31
0.0
  0
LINE
  5
6A94
  8
0
 10
82.113266408088748
 20
225.51037695893709
 30
0.0
 11
82.858781990664113
 21
225.95336923418441
 31
0.0
  0
LINE
  5
6A95
  8
0
 10
82.858781990664113
 20
221.04663076581531
 30
0.0
 11
82.113266408088748
 21
221.4896230410626
 31
0.0
  0
LINE
  5
6A96
  8
0
 10
82.941681613149967
 20
220.51037695893709
 30
0.0
 11
82.941681613149967
 21
216.48962304106271
 31
0.0
  0
LINE
  5
6A97
  8
0
 10
82.941681613149967
 20
216.48962304106271
 30
0.0
 11
82.858781990664113
 21
216.04663076581539
 31
0.0
  0
LINE
  5
6A98
  8
0
 10
82.858781990664113
 20
216.04663076581539
 30
0.0
 11
82.858781990664113
 21
220.95336923418441
 31
0.0
  0
LINE
  5
6A99
  8
0
 10
82.858781990664113
 20
220.95336923418441
 30
0.0
 11
82.941681613149967
 21
220.51037695893709
 31
0.0
  0
LINE
  5
6A9A
  8
0
 10
82.858781990664113
 20
221.04663076581531
 30
0.0
 11
82.858781990664113
 21
225.95336923418441
 31
0.0
  0
LINE
  5
6A9B
  8
0
 10
82.858781990664113
 20
225.95336923418441
 30
0.0
 11
82.941681613149967
 21
225.51037695893709
 31
0.0
  0
LINE
  5
6A9C
  8
0
 10
82.941681613149967
 20
225.51037695893709
 30
0.0
 11
82.941681613149967
 21
221.4896230410626
 31
0.0
  0
LINE
  5
6A9D
  8
0
 10
82.941681613149967
 20
221.4896230410626
 30
0.0
 11
82.858781990664113
 21
221.04663076581531
 31
0.0
  0
LINE
  5
6A9E
  8
0
 10
82.941681613149967
 20
229.39999999999989
 30
0.0
 11
82.941681613149967
 21
226.48962304106271
 31
0.0
  0
LINE
  5
6A9F
  8
0
 10
82.941681613149967
 20
226.48962304106271
 30
0.0
 11
82.858781990664113
 21
226.04663076581539
 31
0.0
  0
LINE
  5
6AA0
  8
0
 10
82.858781990664113
 20
226.04663076581539
 30
0.0
 11
82.858781990664156
 21
229.96999999999991
 31
0.0
  0
LINE
  5
6AA1
  8
0
 10
82.858781990664156
 20
229.96999999999991
 30
0.0
 11
82.941681613149967
 21
229.39999999999989
 31
0.0
  0
LINE
  5
6AA2
  8
0
 10
82.858781990664113
 20
212.0299999999998
 30
0.0
 11
82.858781990664113
 21
215.95336923418441
 31
0.0
  0
LINE
  5
6AA3
  8
0
 10
82.858781990664113
 20
215.95336923418441
 30
0.0
 11
82.941681613149967
 21
215.51037695893709
 31
0.0
  0
LINE
  5
6AA4
  8
0
 10
82.941681613149967
 20
215.51037695893709
 30
0.0
 11
82.941681613149967
 21
212.59999999999991
 31
0.0
  0
LINE
  5
6AA5
  8
0
 10
82.941681613149967
 20
212.59999999999991
 30
0.0
 11
82.858781990664113
 21
212.0299999999998
 31
0.0
  0
LINE
  5
6AA6
  8
0
 10
75.650482164279595
 20
212.59999999999991
 30
0.0
 11
75.650482164279595
 21
215.51037695893709
 31
0.0
  0
LINE
  5
6AA7
  8
0
 10
75.650482164279595
 20
215.51037695893709
 30
0.0
 11
76.492837201381121
 21
215.95336923418441
 31
0.0
  0
LINE
  5
6AA8
  8
0
 10
76.492837201381121
 20
212.02999999999989
 30
0.0
 11
75.650482164279595
 21
212.59999999999991
 31
0.0
  0
LINE
  5
6AA9
  8
0
 10
76.492837201381121
 20
226.04663076581539
 30
0.0
 11
75.650482164279595
 21
226.48962304106271
 31
0.0
  0
LINE
  5
6AAA
  8
0
 10
75.650482164279595
 20
226.48962304106271
 30
0.0
 11
75.650482164279595
 21
229.40000000000001
 31
0.0
  0
LINE
  5
6AAB
  8
0
 10
75.650482164279595
 20
229.39999999999989
 30
0.0
 11
76.492837201381121
 21
229.97
 31
0.0
  0
LINE
  5
6AAC
  8
0
 10
75.650482164279595
 20
221.48962304106271
 30
0.0
 11
75.650482164279595
 21
225.51037695893709
 31
0.0
  0
LINE
  5
6AAD
  8
0
 10
75.650482164279595
 20
225.51037695893709
 30
0.0
 11
76.492837201381121
 21
225.95336923418441
 31
0.0
  0
LINE
  5
6AAE
  8
0
 10
76.492837201381121
 20
221.04663076581539
 30
0.0
 11
75.650482164279595
 21
221.48962304106271
 31
0.0
  0
LINE
  5
6AAF
  8
0
 10
76.426492446069744
 20
220.5103769589372
 30
0.0
 11
76.426492446069744
 21
216.48962304106271
 31
0.0
  0
LINE
  5
6AB0
  8
0
 10
76.426492446069744
 20
216.48962304106271
 30
0.0
 11
76.492837201381121
 21
216.04663076581539
 31
0.0
  0
LINE
  5
6AB1
  8
0
 10
76.492837201381121
 20
220.95336923418441
 30
0.0
 11
76.426492446069744
 21
220.5103769589372
 31
0.0
  0
LINE
  5
6AB2
  8
0
 10
76.492837201381121
 20
225.95336923418441
 30
0.0
 11
76.426492446069744
 21
225.51037695893709
 31
0.0
  0
LINE
  5
6AB3
  8
0
 10
76.426492446069744
 20
225.51037695893709
 30
0.0
 11
76.426492446069744
 21
221.48962304106271
 31
0.0
  0
LINE
  5
6AB4
  8
0
 10
76.426492446069744
 20
221.48962304106271
 30
0.0
 11
76.492837201381121
 21
221.04663076581539
 31
0.0
  0
LINE
  5
6AB5
  8
0
 10
76.426492446069744
 20
229.39999999999989
 30
0.0
 11
76.426492446069744
 21
226.48962304106271
 31
0.0
  0
LINE
  5
6AB6
  8
0
 10
76.426492446069744
 20
226.48962304106271
 30
0.0
 11
76.492837201381121
 21
226.04663076581539
 31
0.0
  0
LINE
  5
6AB7
  8
0
 10
76.492837201381121
 20
229.97
 30
0.0
 11
76.426492446069744
 21
229.39999999999989
 31
0.0
  0
LINE
  5
6AB8
  8
0
 10
76.492837201381121
 20
215.95336923418441
 30
0.0
 11
76.426492446069744
 21
215.51037695893709
 31
0.0
  0
LINE
  5
6AB9
  8
0
 10
76.426492446069744
 20
215.51037695893709
 30
0.0
 11
76.426492446069744
 21
212.59999999999991
 31
0.0
  0
LINE
  5
6ABA
  8
0
 10
76.426492446069744
 20
212.59999999999991
 30
0.0
 11
76.492837201381121
 21
212.02999999999989
 31
0.0
  0
LINE
  5
6ABB
  8
0
 10
69.683383885394676
 20
212.59999999999991
 30
0.0
 11
69.683383885394676
 21
215.51037695893709
 31
0.0
  0
LINE
  5
6ABC
  8
0
 10
69.683383885394676
 20
215.51037695893709
 30
0.0
 11
70.605430457618354
 21
215.95336923418449
 31
0.0
  0
LINE
  5
6ABD
  8
0
 10
70.605430457618354
 20
212.02999999999989
 30
0.0
 11
69.683383885394676
 21
212.59999999999991
 31
0.0
  0
LINE
  5
6ABE
  8
0
 10
70.605430457618354
 20
226.04663076581539
 30
0.0
 11
69.683383885394676
 21
226.48962304106271
 31
0.0
  0
LINE
  5
6ABF
  8
0
 10
69.683383885394676
 20
226.48962304106271
 30
0.0
 11
69.683383885394676
 21
229.40000000000001
 31
0.0
  0
LINE
  5
6AC0
  8
0
 10
69.683383885394676
 20
229.39999999999989
 30
0.0
 11
70.605430457618354
 21
229.97
 31
0.0
  0
LINE
  5
6AC1
  8
0
 10
69.683383885394676
 20
221.48962304106271
 30
0.0
 11
69.683383885394676
 21
225.51037695893709
 31
0.0
  0
LINE
  5
6AC2
  8
0
 10
69.683383885394676
 20
225.51037695893709
 30
0.0
 11
70.605430457618354
 21
225.95336923418441
 31
0.0
  0
LINE
  5
6AC3
  8
0
 10
70.605430457618354
 20
221.04663076581539
 30
0.0
 11
69.683383885394676
 21
221.48962304106271
 31
0.0
  0
LINE
  5
6AC4
  8
0
 10
70.391191912405404
 20
220.5103769589372
 30
0.0
 11
70.391191912405404
 21
216.48962304106271
 31
0.0
  0
LINE
  5
6AC5
  8
0
 10
70.391191912405404
 20
216.48962304106271
 30
0.0
 11
70.605430457618354
 21
216.04663076581539
 31
0.0
  0
LINE
  5
6AC6
  8
0
 10
70.605430457618354
 20
220.95336923418441
 30
0.0
 11
70.391191912405404
 21
220.5103769589372
 31
0.0
  0
LINE
  5
6AC7
  8
0
 10
70.605430457618354
 20
225.95336923418441
 30
0.0
 11
70.391191912405404
 21
225.51037695893709
 31
0.0
  0
LINE
  5
6AC8
  8
0
 10
70.391191912405404
 20
225.51037695893709
 30
0.0
 11
70.391191912405404
 21
221.48962304106271
 31
0.0
  0
LINE
  5
6AC9
  8
0
 10
70.391191912405404
 20
221.48962304106271
 30
0.0
 11
70.605430457618354
 21
221.04663076581539
 31
0.0
  0
LINE
  5
6ACA
  8
0
 10
70.391191912405404
 20
229.40000000000001
 30
0.0
 11
70.391191912405404
 21
226.48962304106271
 31
0.0
  0
LINE
  5
6ACB
  8
0
 10
70.391191912405404
 20
226.48962304106271
 30
0.0
 11
70.605430457618354
 21
226.04663076581539
 31
0.0
  0
LINE
  5
6ACC
  8
0
 10
70.605430457618354
 20
229.97
 30
0.0
 11
70.391191912405404
 21
229.39999999999989
 31
0.0
  0
LINE
  5
6ACD
  8
0
 10
70.605430457618354
 20
215.95336923418449
 30
0.0
 11
70.391191912405404
 21
215.51037695893709
 31
0.0
  0
LINE
  5
6ACE
  8
0
 10
70.391191912405404
 20
215.51037695893709
 30
0.0
 11
70.391191912405404
 21
212.59999999999991
 31
0.0
  0
LINE
  5
6ACF
  8
0
 10
70.391191912405404
 20
212.59999999999991
 30
0.0
 11
70.605430457618354
 21
212.02999999999989
 31
0.0
  0
LINE
  5
6AD0
  8
0
 10
64.333444484701715
 20
212.59999999999991
 30
0.0
 11
64.333444484701715
 21
215.51037695893709
 31
0.0
  0
LINE
  5
6AD1
  8
0
 10
64.333444484701772
 20
215.51037695893709
 30
0.0
 11
65.316412382799797
 21
215.95336923418449
 31
0.0
  0
LINE
  5
6AD2
  8
0
 10
65.316412382799797
 20
212.02999999999989
 30
0.0
 11
64.333444484701715
 21
212.59999999999991
 31
0.0
  0
LINE
  5
6AD3
  8
0
 10
65.316412382799797
 20
226.04663076581539
 30
0.0
 11
64.333444484701772
 21
226.48962304106271
 31
0.0
  0
LINE
  5
6AD4
  8
0
 10
64.333444484701715
 20
226.48962304106271
 30
0.0
 11
64.333444484701715
 21
229.40000000000001
 31
0.0
  0
LINE
  5
6AD5
  8
0
 10
64.333444484701715
 20
229.39999999999989
 30
0.0
 11
65.316412382799797
 21
229.97
 31
0.0
  0
LINE
  5
6AD6
  8
0
 10
64.333444484701715
 20
221.48962304106271
 30
0.0
 11
64.333444484701715
 21
225.51037695893709
 31
0.0
  0
LINE
  5
6AD7
  8
0
 10
64.333444484701772
 20
225.51037695893709
 30
0.0
 11
65.316412382799797
 21
225.95336923418441
 31
0.0
  0
LINE
  5
6AD8
  8
0
 10
65.316412382799797
 20
221.04663076581539
 30
0.0
 11
64.333444484701772
 21
221.48962304106271
 31
0.0
  0
LINE
  5
6AD9
  8
0
 10
64.958641326652867
 20
220.5103769589372
 30
0.0
 11
64.958641326652867
 21
216.48962304106271
 31
0.0
  0
LINE
  5
6ADA
  8
0
 10
64.958641326652867
 20
216.48962304106271
 30
0.0
 11
65.316412382799797
 21
216.04663076581539
 31
0.0
  0
LINE
  5
6ADB
  8
0
 10
65.316412382799797
 20
220.95336923418449
 30
0.0
 11
64.958641326652867
 21
220.5103769589372
 31
0.0
  0
LINE
  5
6ADC
  8
0
 10
65.316412382799797
 20
225.95336923418441
 30
0.0
 11
64.958641326652867
 21
225.51037695893709
 31
0.0
  0
LINE
  5
6ADD
  8
0
 10
64.958641326652867
 20
225.51037695893709
 30
0.0
 11
64.958641326652867
 21
221.48962304106271
 31
0.0
  0
LINE
  5
6ADE
  8
0
 10
64.958641326652867
 20
221.48962304106271
 30
0.0
 11
65.316412382799797
 21
221.04663076581539
 31
0.0
  0
LINE
  5
6ADF
  8
0
 10
64.958641326652867
 20
229.40000000000001
 30
0.0
 11
64.958641326652867
 21
226.48962304106271
 31
0.0
  0
LINE
  5
6AE0
  8
0
 10
64.958641326652867
 20
226.48962304106271
 30
0.0
 11
65.316412382799797
 21
226.04663076581539
 31
0.0
  0
LINE
  5
6AE1
  8
0
 10
65.316412382799797
 20
229.97
 30
0.0
 11
64.958641326652867
 21
229.39999999999989
 31
0.0
  0
LINE
  5
6AE2
  8
0
 10
65.316412382799797
 20
215.95336923418449
 30
0.0
 11
64.958641326652867
 21
215.51037695893709
 31
0.0
  0
LINE
  5
6AE3
  8
0
 10
64.958641326652867
 20
215.51037695893709
 30
0.0
 11
64.958641326652867
 21
212.59999999999991
 31
0.0
  0
LINE
  5
6AE4
  8
0
 10
64.958641326652867
 20
212.59999999999991
 30
0.0
 11
65.316412382799797
 21
212.02999999999989
 31
0.0
  0
LINE
  5
6AE5
  8
0
 10
59.70957330044763
 20
212.59999999999991
 30
0.0
 11
59.70957330044763
 21
215.51037695893709
 31
0.0
  0
LINE
  5
6AE6
  8
0
 10
59.70957330044763
 20
215.51037695893709
 30
0.0
 11
60.733452132660091
 21
215.95336923418449
 31
0.0
  0
LINE
  5
6AE7
  8
0
 10
60.733452132660091
 20
212.02999999999989
 30
0.0
 11
59.70957330044763
 21
212.59999999999991
 31
0.0
  0
LINE
  5
6AE8
  8
0
 10
60.733452132660091
 20
226.04663076581539
 30
0.0
 11
59.70957330044763
 21
226.48962304106271
 31
0.0
  0
LINE
  5
6AE9
  8
0
 10
59.70957330044763
 20
226.48962304106271
 30
0.0
 11
59.70957330044763
 21
229.40000000000001
 31
0.0
  0
LINE
  5
6AEA
  8
0
 10
59.70957330044758
 20
229.39999999999989
 30
0.0
 11
60.733452132660091
 21
229.97
 31
0.0
  0
LINE
  5
6AEB
  8
0
 10
59.70957330044763
 20
221.48962304106271
 30
0.0
 11
59.70957330044763
 21
225.51037695893709
 31
0.0
  0
LINE
  5
6AEC
  8
0
 10
59.70957330044763
 20
225.51037695893709
 30
0.0
 11
60.733452132660091
 21
225.95336923418441
 31
0.0
  0
LINE
  5
6AED
  8
0
 10
60.733452132660091
 20
221.04663076581539
 30
0.0
 11
59.70957330044763
 21
221.48962304106271
 31
0.0
  0
LINE
  5
6AEE
  8
0
 10
60.239431752555852
 20
220.5103769589372
 30
0.0
 11
60.239431752555852
 21
216.48962304106271
 31
0.0
  0
LINE
  5
6AEF
  8
0
 10
60.239431752555852
 20
216.48962304106271
 30
0.0
 11
60.733452132660027
 21
216.04663076581539
 31
0.0
  0
LINE
  5
6AF0
  8
0
 10
60.733452132660027
 20
220.95336923418441
 30
0.0
 11
60.239431752555852
 21
220.5103769589372
 31
0.0
  0
LINE
  5
6AF1
  8
0
 10
60.733452132660027
 20
225.95336923418441
 30
0.0
 11
60.239431752555852
 21
225.51037695893709
 31
0.0
  0
LINE
  5
6AF2
  8
0
 10
60.239431752555852
 20
225.51037695893709
 30
0.0
 11
60.239431752555852
 21
221.48962304106271
 31
0.0
  0
LINE
  5
6AF3
  8
0
 10
60.239431752555852
 20
221.48962304106271
 30
0.0
 11
60.733452132660027
 21
221.04663076581539
 31
0.0
  0
LINE
  5
6AF4
  8
0
 10
60.239431752555852
 20
229.40000000000001
 30
0.0
 11
60.239431752555852
 21
226.48962304106271
 31
0.0
  0
LINE
  5
6AF5
  8
0
 10
60.239431752555852
 20
226.48962304106271
 30
0.0
 11
60.733452132660027
 21
226.04663076581539
 31
0.0
  0
LINE
  5
6AF6
  8
0
 10
60.733452132660091
 20
229.97
 30
0.0
 11
60.239431752555852
 21
229.39999999999989
 31
0.0
  0
LINE
  5
6AF7
  8
0
 10
60.733452132660091
 20
215.95336923418449
 30
0.0
 11
60.239431752555852
 21
215.51037695893709
 31
0.0
  0
LINE
  5
6AF8
  8
0
 10
60.239431752555852
 20
215.51037695893709
 30
0.0
 11
60.239431752555852
 21
212.59999999999991
 31
0.0
  0
LINE
  5
6AF9
  8
0
 10
60.239431752555852
 20
212.59999999999991
 30
0.0
 11
60.733452132660027
 21
212.02999999999989
 31
0.0
  0
LINE
  5
6AFA
  8
0
 10
55.90589901580028
 20
212.59999999999991
 30
0.0
 11
55.90589901580028
 21
215.51037695893709
 31
0.0
  0
LINE
  5
6AFB
  8
0
 10
55.90589901580028
 20
215.51037695893709
 30
0.0
 11
56.949845561726079
 21
215.95336923418449
 31
0.0
  0
LINE
  5
6AFC
  8
0
 10
56.949845561726079
 20
212.02999999999989
 30
0.0
 11
55.90589901580028
 21
212.59999999999991
 31
0.0
  0
LINE
  5
6AFD
  8
0
 10
56.949845561726079
 20
226.04663076581539
 30
0.0
 11
55.90589901580028
 21
226.48962304106271
 31
0.0
  0
LINE
  5
6AFE
  8
0
 10
55.90589901580028
 20
226.48962304106271
 30
0.0
 11
55.90589901580028
 21
229.40000000000001
 31
0.0
  0
LINE
  5
6AFF
  8
0
 10
55.90589901580023
 20
229.39999999999989
 30
0.0
 11
56.949845561726079
 21
229.97
 31
0.0
  0
LINE
  5
6B00
  8
0
 10
55.90589901580028
 20
221.48962304106271
 30
0.0
 11
55.90589901580028
 21
225.51037695893709
 31
0.0
  0
LINE
  5
6B01
  8
0
 10
55.90589901580028
 20
225.51037695893709
 30
0.0
 11
56.949845561726079
 21
225.95336923418441
 31
0.0
  0
LINE
  5
6B02
  8
0
 10
56.949845561726079
 20
221.04663076581539
 30
0.0
 11
55.90589901580028
 21
221.48962304106271
 31
0.0
  0
LINE
  5
6B03
  8
0
 10
56.329632687966289
 20
220.5103769589372
 30
0.0
 11
56.329632687966289
 21
216.48962304106271
 31
0.0
  0
LINE
  5
6B04
  8
0
 10
56.329632687966289
 20
216.48962304106271
 30
0.0
 11
56.949845561726079
 21
216.04663076581539
 31
0.0
  0
LINE
  5
6B05
  8
0
 10
56.949845561726079
 20
220.95336923418449
 30
0.0
 11
56.329632687966289
 21
220.5103769589372
 31
0.0
  0
LINE
  5
6B06
  8
0
 10
56.949845561726079
 20
225.95336923418441
 30
0.0
 11
56.329632687966289
 21
225.51037695893709
 31
0.0
  0
LINE
  5
6B07
  8
0
 10
56.329632687966289
 20
225.51037695893709
 30
0.0
 11
56.329632687966289
 21
221.48962304106271
 31
0.0
  0
LINE
  5
6B08
  8
0
 10
56.329632687966289
 20
221.48962304106271
 30
0.0
 11
56.949845561726079
 21
221.04663076581539
 31
0.0
  0
LINE
  5
6B09
  8
0
 10
56.329632687966289
 20
229.40000000000001
 30
0.0
 11
56.329632687966289
 21
226.48962304106271
 31
0.0
  0
LINE
  5
6B0A
  8
0
 10
56.329632687966289
 20
226.48962304106271
 30
0.0
 11
56.949845561726079
 21
226.04663076581539
 31
0.0
  0
LINE
  5
6B0B
  8
0
 10
56.949845561726079
 20
229.97
 30
0.0
 11
56.329632687966289
 21
229.39999999999989
 31
0.0
  0
LINE
  5
6B0C
  8
0
 10
56.949845561726079
 20
215.95336923418449
 30
0.0
 11
56.329632687966289
 21
215.51037695893709
 31
0.0
  0
LINE
  5
6B0D
  8
0
 10
56.329632687966289
 20
215.51037695893709
 30
0.0
 11
56.329632687966289
 21
212.59999999999991
 31
0.0
  0
LINE
  5
6B0E
  8
0
 10
56.329632687966289
 20
212.59999999999991
 30
0.0
 11
56.949845561726079
 21
212.02999999999989
 31
0.0
  0
LINE
  5
6B0F
  8
0
 10
52.999853470304352
 20
212.59999999999991
 30
0.0
 11
52.999853470304352
 21
215.51037695893709
 31
0.0
  0
LINE
  5
6B10
  8
0
 10
52.999853470304352
 20
215.51037695893709
 30
0.0
 11
54.042615988761668
 21
215.95336923418449
 31
0.0
  0
LINE
  5
6B11
  8
0
 10
54.042615988761668
 20
212.02999999999989
 30
0.0
 11
52.999853470304352
 21
212.59999999999991
 31
0.0
  0
LINE
  5
6B12
  8
0
 10
54.042615988761668
 20
226.04663076581539
 30
0.0
 11
52.999853470304352
 21
226.48962304106271
 31
0.0
  0
LINE
  5
6B13
  8
0
 10
52.999853470304352
 20
226.48962304106271
 30
0.0
 11
52.999853470304352
 21
229.40000000000001
 31
0.0
  0
LINE
  5
6B14
  8
0
 10
52.999853470304352
 20
229.39999999999989
 30
0.0
 11
54.042615988761668
 21
229.97
 31
0.0
  0
LINE
  5
6B15
  8
0
 10
52.999853470304352
 20
221.48962304106271
 30
0.0
 11
52.999853470304352
 21
225.51037695893709
 31
0.0
  0
LINE
  5
6B16
  8
0
 10
52.999853470304352
 20
225.51037695893709
 30
0.0
 11
54.042615988761668
 21
225.95336923418441
 31
0.0
  0
LINE
  5
6B17
  8
0
 10
54.042615988761668
 20
221.04663076581539
 30
0.0
 11
52.999853470304352
 21
221.48962304106271
 31
0.0
  0
LINE
  5
6B18
  8
0
 10
53.308836366909809
 20
220.5103769589372
 30
0.0
 11
53.308836366909809
 21
216.48962304106271
 31
0.0
  0
LINE
  5
6B19
  8
0
 10
53.308836366909809
 20
216.48962304106271
 30
0.0
 11
54.042615988761668
 21
216.04663076581539
 31
0.0
  0
LINE
  5
6B1A
  8
0
 10
54.042615988761668
 20
220.95336923418449
 30
0.0
 11
53.308836366909809
 21
220.5103769589372
 31
0.0
  0
LINE
  5
6B1B
  8
0
 10
54.042615988761668
 20
225.95336923418441
 30
0.0
 11
53.308836366909809
 21
225.51037695893709
 31
0.0
  0
LINE
  5
6B1C
  8
0
 10
53.308836366909809
 20
225.51037695893709
 30
0.0
 11
53.308836366909809
 21
221.48962304106271
 31
0.0
  0
LINE
  5
6B1D
  8
0
 10
53.308836366909809
 20
221.48962304106271
 30
0.0
 11
54.042615988761668
 21
221.04663076581539
 31
0.0
  0
LINE
  5
6B1E
  8
0
 10
53.308836366909809
 20
229.40000000000001
 30
0.0
 11
53.308836366909809
 21
226.48962304106271
 31
0.0
  0
LINE
  5
6B1F
  8
0
 10
53.308836366909809
 20
226.48962304106271
 30
0.0
 11
54.042615988761668
 21
226.04663076581539
 31
0.0
  0
LINE
  5
6B20
  8
0
 10
54.042615988761668
 20
229.97
 30
0.0
 11
53.308836366909809
 21
229.39999999999989
 31
0.0
  0
LINE
  5
6B21
  8
0
 10
54.042615988761668
 20
215.95336923418449
 30
0.0
 11
53.308836366909809
 21
215.51037695893709
 31
0.0
  0
LINE
  5
6B22
  8
0
 10
53.308836366909809
 20
215.51037695893709
 30
0.0
 11
53.308836366909809
 21
212.59999999999991
 31
0.0
  0
LINE
  5
6B23
  8
0
 10
53.308836366909809
 20
212.59999999999991
 30
0.0
 11
54.042615988761717
 21
212.02999999999989
 31
0.0
  0
LINE
  5
6B24
  8
0
 10
51.050595370922792
 20
212.59999999999991
 30
0.0
 11
51.050595370922792
 21
215.51037695893709
 31
0.0
  0
LINE
  5
6B25
  8
0
 10
51.050595370922792
 20
215.51037695893709
 30
0.0
 11
52.0709462241146
 21
215.95336923418449
 31
0.0
  0
LINE
  5
6B26
  8
0
 10
52.0709462241146
 20
212.02999999999989
 30
0.0
 11
51.050595370922849
 21
212.59999999999991
 31
0.0
  0
LINE
  5
6B27
  8
0
 10
52.0709462241146
 20
226.04663076581539
 30
0.0
 11
51.050595370922792
 21
226.48962304106271
 31
0.0
  0
LINE
  5
6B28
  8
0
 10
51.050595370922792
 20
226.48962304106271
 30
0.0
 11
51.050595370922792
 21
229.40000000000001
 31
0.0
  0
LINE
  5
6B29
  8
0
 10
51.050595370922792
 20
229.39999999999989
 30
0.0
 11
52.0709462241146
 21
229.97
 31
0.0
  0
LINE
  5
6B2A
  8
0
 10
51.050595370922792
 20
221.48962304106271
 30
0.0
 11
51.050595370922792
 21
225.51037695893709
 31
0.0
  0
LINE
  5
6B2B
  8
0
 10
51.050595370922792
 20
225.51037695893709
 30
0.0
 11
52.0709462241146
 21
225.95336923418441
 31
0.0
  0
LINE
  5
6B2C
  8
0
 10
52.0709462241146
 20
221.04663076581539
 30
0.0
 11
51.050595370922792
 21
221.48962304106271
 31
0.0
  0
LINE
  5
6B2D
  8
0
 10
51.238537491225941
 20
220.5103769589372
 30
0.0
 11
51.238537491225941
 21
216.48962304106271
 31
0.0
  0
LINE
  5
6B2E
  8
0
 10
51.238537491225941
 20
216.48962304106271
 30
0.0
 11
52.0709462241146
 21
216.04663076581539
 31
0.0
  0
LINE
  5
6B2F
  8
0
 10
52.0709462241146
 20
220.95336923418449
 30
0.0
 11
51.238537491225941
 21
220.5103769589372
 31
0.0
  0
LINE
  5
6B30
  8
0
 10
52.0709462241146
 20
225.95336923418441
 30
0.0
 11
51.238537491225941
 21
225.51037695893709
 31
0.0
  0
LINE
  5
6B31
  8
0
 10
51.238537491225941
 20
225.51037695893709
 30
0.0
 11
51.238537491225941
 21
221.48962304106271
 31
0.0
  0
LINE
  5
6B32
  8
0
 10
51.238537491225941
 20
221.48962304106271
 30
0.0
 11
52.0709462241146
 21
221.04663076581539
 31
0.0
  0
LINE
  5
6B33
  8
0
 10
51.238537491225941
 20
229.40000000000001
 30
0.0
 11
51.238537491225941
 21
226.48962304106271
 31
0.0
  0
LINE
  5
6B34
  8
0
 10
51.238537491225941
 20
226.48962304106271
 30
0.0
 11
52.0709462241146
 21
226.04663076581539
 31
0.0
  0
LINE
  5
6B35
  8
0
 10
52.0709462241146
 20
229.97
 30
0.0
 11
51.238537491225941
 21
229.39999999999989
 31
0.0
  0
LINE
  5
6B36
  8
0
 10
52.0709462241146
 20
215.95336923418449
 30
0.0
 11
51.238537491225941
 21
215.51037695893709
 31
0.0
  0
LINE
  5
6B37
  8
0
 10
51.238537491225941
 20
215.51037695893709
 30
0.0
 11
51.238537491225941
 21
212.59999999999991
 31
0.0
  0
LINE
  5
6B38
  8
0
 10
51.238537491225941
 20
212.59999999999991
 30
0.0
 11
52.0709462241146
 21
212.02999999999989
 31
0.0
  0
LINE
  5
6B39
  8
0
 10
50.097805991362861
 20
212.59999999999991
 30
0.0
 11
50.097805991362861
 21
215.51037695893709
 31
0.0
  0
LINE
  5
6B3A
  8
0
 10
50.097805991362861
 20
215.51037695893709
 30
0.0
 11
51.074973778367109
 21
215.95336923418449
 31
0.0
  0
LINE
  5
6B3B
  8
0
 10
51.074973778367109
 20
212.02999999999989
 30
0.0
 11
50.097805991362861
 21
212.59999999999991
 31
0.0
  0
LINE
  5
6B3C
  8
0
 10
51.074973778367109
 20
226.04663076581539
 30
0.0
 11
50.097805991362861
 21
226.48962304106271
 31
0.0
  0
LINE
  5
6B3D
  8
0
 10
50.097805991362861
 20
226.48962304106271
 30
0.0
 11
50.097805991362861
 21
229.40000000000001
 31
0.0
  0
LINE
  5
6B3E
  8
0
 10
50.097805991362861
 20
229.39999999999989
 30
0.0
 11
51.074973778367109
 21
229.97
 31
0.0
  0
LINE
  5
6B3F
  8
0
 10
50.097805991362861
 20
221.48962304106271
 30
0.0
 11
50.097805991362861
 21
225.51037695893709
 31
0.0
  0
LINE
  5
6B40
  8
0
 10
50.097805991362861
 20
225.51037695893709
 30
0.0
 11
51.074973778367109
 21
225.95336923418441
 31
0.0
  0
LINE
  5
6B41
  8
0
 10
51.074973778367109
 20
221.04663076581539
 30
0.0
 11
50.097805991362861
 21
221.48962304106271
 31
0.0
  0
LINE
  5
6B42
  8
0
 10
50.160881375774629
 20
220.5103769589372
 30
0.0
 11
50.160881375774629
 21
216.48962304106271
 31
0.0
  0
LINE
  5
6B43
  8
0
 10
50.160881375774629
 20
216.48962304106271
 30
0.0
 11
51.074973778367109
 21
216.04663076581539
 31
0.0
  0
LINE
  5
6B44
  8
0
 10
51.074973778367109
 20
220.95336923418449
 30
0.0
 11
50.160881375774629
 21
220.5103769589372
 31
0.0
  0
LINE
  5
6B45
  8
0
 10
51.074973778367109
 20
225.95336923418441
 30
0.0
 11
50.160881375774629
 21
225.51037695893709
 31
0.0
  0
LINE
  5
6B46
  8
0
 10
50.160881375774629
 20
225.51037695893709
 30
0.0
 11
50.160881375774629
 21
221.48962304106271
 31
0.0
  0
LINE
  5
6B47
  8
0
 10
50.160881375774629
 20
221.48962304106271
 30
0.0
 11
51.074973778367109
 21
221.04663076581539
 31
0.0
  0
LINE
  5
6B48
  8
0
 10
50.160881375774629
 20
229.40000000000001
 30
0.0
 11
50.160881375774629
 21
226.48962304106271
 31
0.0
  0
LINE
  5
6B49
  8
0
 10
50.160881375774629
 20
226.48962304106271
 30
0.0
 11
51.074973778367109
 21
226.04663076581539
 31
0.0
  0
LINE
  5
6B4A
  8
0
 10
51.074973778367109
 20
229.97
 30
0.0
 11
50.160881375774629
 21
229.39999999999989
 31
0.0
  0
LINE
  5
6B4B
  8
0
 10
51.074973778367109
 20
215.95336923418449
 30
0.0
 11
50.160881375774629
 21
215.51037695893709
 31
0.0
  0
LINE
  5
6B4C
  8
0
 10
50.160881375774629
 20
215.51037695893709
 30
0.0
 11
50.160881375774629
 21
212.59999999999991
 31
0.0
  0
LINE
  5
6B4D
  8
0
 10
50.160881375774629
 20
212.59999999999991
 30
0.0
 11
51.074973778367109
 21
212.02999999999989
 31
0.0
  0
LINE
  5
6B4E
  8
0
 10
117.5
 20
203.99049999999991
 30
0.0
 11
117.5
 21
208.00949999999989
 31
0.0
  0
LINE
  5
6B4F
  8
2
 10
105.0
 20
208.00949999999989
 30
0.0
 11
117.3946162984424
 21
208.00949999999989
 31
0.0
  0
LINE
  5
6B50
  8
2
 10
105.0
 20
203.99049999999991
 30
0.0
 11
117.3946162984424
 21
203.99049999999991
 31
0.0
  0
LINE
  5
6BF6
  8
1
 10
61.00000000000005
 20
343.99999999999989
 30
0.0
 11
61.00000000000005
 21
364.0
 31
0.0
  0
LINE
  5
6BF7
  8
1
 10
45.000000000000057
 20
353.99999999999989
 30
0.0
 11
155.0
 21
353.99999999999989
 31
0.0
  0
LINE
  5
6BF8
  8
1
 10
100.0
 20
298.99999999999989
 30
0.0
 11
100.0
 21
408.99999999999977
 31
0.0
  0
CIRCLE
  5
6BF9
  8
0
 10
100.0
 20
353.99999999999989
 30
0.0
 40
15.339745962155609
  0
CIRCLE
  5
6BFA
  8
0
 10
100.0
 20
353.99999999999989
 30
0.0
 40
24.0
  0
CIRCLE
  5
6BFB
  8
0
 10
100.0
 20
353.99999999999989
 30
0.0
 40
48.0
  0
CIRCLE
  5
6BFC
  8
0
 10
100.0
 20
353.99999999999989
 30
0.0
 40
49.0
  0
CIRCLE
  5
6BFE
  8
0
 10
61.00000000000005
 20
353.99999999999989
 30
0.0
 40
8.0000000000000266
  0
ARC
  5
6BFF
  8
0
 10
100.0000000000033
 20
354.0000000000004
 30
0.0
 40
50.000000000003297
 50
184.59750311734149
 51
191.76613324629179
  0
ARC
  5
6C00
  8
0
 10
99.999999999998977
 20
353.99999999999989
 30
0.0
 40
49.99999999999892
 50
176.4156849355245
 51
183.58431506447209
  0
ARC
  5
6C01
  8
0
 10
100.0000000000021
 20
354.0000000000004
 30
0.0
 40
50.000000000002167
 50
192.77932129916121
 51
199.94795142811051
  0
ARC
  5
6C02
  8
0
 10
99.999999999995964
 20
354.00000000000051
 30
0.0
 40
49.999999999995893
 50
168.23386675370509
 51
175.4024968826584
  0
ARC
  5
6C03
  8
0
 10
100.00000000000171
 20
354.00000000000063
 30
0.0
 40
50.000000000001812
 50
200.9611394809796
 51
208.12976960992981
  0
ARC
  5
6C04
  8
0
 10
100.0000000000024
 20
353.9999999999992
 30
0.0
 40
50.000000000002451
 50
160.0520485718894
 51
167.22067870083541
  0
ARC
  5
6C05
  8
0
 10
99.999999999999133
 20
353.9999999999992
 30
0.0
 40
49.99999999999892
 50
209.1429576627979
 51
216.31158779174501
  0
ARC
  5
6C06
  8
0
 10
100.0000000000029
 20
353.99999999999858
 30
0.0
 40
50.000000000003112
 50
151.87023039007011
 51
159.0388605190204
  0
ARC
  5
6C07
  8
0
 10
99.999999999998636
 20
353.99999999999869
 30
0.0
 40
49.999999999998117
 50
217.32477584461489
 51
224.49340597356681
  0
ARC
  5
6C08
  8
0
 10
100.0000000000047
 20
353.99999999999687
 30
0.0
 40
50.000000000005571
 50
143.68841220825499
 51
150.85704233719991
  0
ARC
  5
6C09
  8
0
 10
100.00000000000151
 20
354.00000000000159
 30
0.0
 40
50.000000000002302
 50
225.50659402643319
 51
232.6752241553811
  0
ARC
  5
6C0A
  8
0
 10
99.999999999999659
 20
354.00000000000023
 30
0.0
 40
49.999999999999503
 50
135.50659402643319
 51
142.675224155385
  0
ARC
  5
6C0B
  8
0
 10
100.0000000000024
 20
354.00000000000352
 30
0.0
 40
50.000000000004292
 50
233.68841220825479
 51
240.857042337199
  0
ARC
  5
6C0C
  8
0
 10
99.999999999998124
 20
354.0000000000021
 30
0.0
 40
49.99999999999708
 50
127.32477584461471
 51
134.49340597356681
  0
ARC
  5
6C0D
  8
0
 10
99.999999999997613
 20
353.99999999999437
 30
0.0
 40
49.999999999994031
 50
241.87023039007019
 51
249.0388605190202
  0
ARC
  5
6C0E
  8
0
 10
100.0000000000025
 20
353.99999999999631
 30
0.0
 40
50.000000000004363
 50
119.1429576627971
 51
126.3115877917452
  0
ARC
  5
6C0F
  8
0
 10
100.00000000000161
 20
354.00000000000551
 30
0.0
 40
50.000000000005763
 50
250.05204857188909
 51
257.22067870083862
  0
ARC
  5
6C10
  8
0
 10
99.999999999999659
 20
354.0000000000008
 30
0.0
 40
49.999999999998948
 50
110.9611394809798
 51
118.1297696099298
  0
ARC
  5
6C11
  8
0
 10
100.0000000000001
 20
354.00000000000091
 30
0.0
 40
50.00000000000103
 50
258.23386675370818
 51
265.40249688265521
  0
ARC
  5
6C12
  8
0
 10
99.999999999999943
 20
354.00000000000051
 30
0.0
 40
49.999999999999389
 50
102.7793212991614
 51
109.9479514281109
  0
ARC
  5
6C13
  8
0
 10
100.0
 20
353.9999999999971
 30
0.0
 40
49.999999999997122
 50
266.41568493552472
 51
273.58431506447539
  0
ARC
  5
6C14
  8
0
 10
99.999999999999886
 20
354.0000000000008
 30
0.0
 40
49.999999999999091
 50
94.597503117344857
 51
101.7661332462918
  0
ARC
  5
6C15
  8
0
 10
100.0000000000001
 20
353.99999999999858
 30
0.0
 40
49.999999999998678
 50
274.59750311734479
 51
281.76613324629182
  0
ARC
  5
6C16
  8
0
 10
100.0
 20
353.9999999999992
 30
0.0
 40
50.000000000000718
 50
86.415684935524624
 51
93.584315064475376
  0
ARC
  5
6C17
  8
0
 10
99.999999999999943
 20
354.0000000000004
 30
0.0
 40
50.000000000000462
 50
282.77932129916138
 51
289.94795142811091
  0
ARC
  5
6C18
  8
0
 10
100.0000000000001
 20
354.00000000000028
 30
0.0
 40
49.999999999999588
 50
78.233866753708185
 51
85.402496882655129
  0
ARC
  5
6C19
  8
0
 10
100.00000000000161
 20
353.99999999999631
 30
0.0
 40
49.999999999996099
 50
290.96113948097991
 51
298.12976960992978
  0
ARC
  5
6C1A
  8
0
 10
99.999999999999503
 20
353.99999999999812
 30
0.0
 40
50.000000000001869
 50
70.052048571889088
 51
77.220678700838604
  0
ARC
  5
6C1B
  8
0
 10
100.0000000000001
 20
353.9999999999996
 30
0.0
 40
49.999999999999702
 50
299.14295766279707
 51
306.31158779174518
  0
ARC
  5
6C1C
  8
0
 10
99.999999999998124
 20
353.99999999999568
 30
0.0
 40
50.000000000004611
 50
61.870230390070127
 51
69.038860519020147
  0
ARC
  5
6C1D
  8
0
 10
100.00000000000141
 20
353.99999999999841
 30
0.0
 40
49.999999999997961
 50
307.32477584461469
 51
314.49340597356678
  0
ARC
  5
6C1E
  8
0
 10
99.999999999999133
 20
353.99999999999858
 30
0.0
 40
50.00000000000162
 50
53.68841220825481
 51
60.85704233720292
  0
ARC
  5
6C1F
  8
0
 10
100.0
 20
354.0
 30
0.0
 40
50.000000000000071
 50
315.50659402643322
 51
322.67522415538502
  0
ARC
  5
6C20
  8
0
 10
100.0000000000008
 20
354.00000000000091
 30
0.0
 40
49.999999999998742
 50
45.506594026433177
 51
52.675224155385308
  0
ARC
  5
6C21
  8
0
 10
100.00000000000151
 20
353.99999999999898
 30
0.0
 40
49.999999999998288
 50
323.68841220825499
 51
330.85704233720202
  0
ARC
  5
6C22
  8
0
 10
99.999999999997783
 20
353.99999999999801
 30
0.0
 40
50.000000000003013
 50
37.32477584461494
 51
44.493405973566759
  0
ARC
  5
6C23
  8
0
 10
99.99999999999666
 20
354.00000000000142
 30
0.0
 40
50.000000000003681
 50
331.87023039007011
 51
339.03886051902037
  0
ARC
  5
6C24
  8
0
 10
99.999999999999318
 20
353.99999999999949
 30
0.0
 40
50.000000000000867
 50
29.142957662797961
 51
36.311587791744991
  0
ARC
  5
6C25
  8
0
 10
99.999999999997954
 20
354.00000000000063
 30
0.0
 40
50.000000000002181
 50
340.05204857188937
 51
347.22067870083538
  0
ARC
  5
6C26
  8
0
 10
99.999999999996135
 20
353.99999999999812
 30
0.0
 40
50.000000000004313
 50
20.961139480979622
 51
28.129769609929841
  0
ARC
  5
6C27
  8
0
 10
100.0000000000021
 20
353.9999999999996
 30
0.0
 40
49.999999999997897
 50
348.23386675370512
 51
355.40249688265851
  0
ARC
  5
6C28
  8
0
 10
100.0000000000001
 20
353.99999999999989
 30
0.0
 40
49.999999999999851
 50
12.779321299161239
 51
19.947951428110521
  0
ARC
  5
6C29
  8
0
 10
99.999999999999275
 20
353.99999999999977
 30
0.0
 40
50.000000000000782
 50
356.41568493552791
 51
3.584315064472118
  0
ARC
  5
6C2A
  8
0
 10
100.0000000000032
 20
354.0000000000004
 30
0.0
 40
49.999999999996739
 50
4.5975031173415362
 51
11.76613324629183
  0
LINE
  5
6C2B
  8
0
 10
50.160881375774693
 20
358.00777429010111
 30
0.0
 11
51.074973778367159
 21
357.49918693592241
 31
0.0
  0
LINE
  5
6C2C
  8
0
 10
51.074973778367159
 20
357.49918693592241
 30
0.0
 11
50.097805991362911
 21
357.12586518012853
 31
0.0
  0
LINE
  5
6C2D
  8
0
 10
51.238537491226111
 20
365.05982703325088
 30
0.0
 11
52.070946224114778
 21
364.4263274525735
 31
0.0
  0
LINE
  5
6C2E
  8
0
 10
52.070946224114778
 20
364.4263274525735
 30
0.0
 11
51.050595370922913
 21
364.19587104954149
 31
0.0
  0
LINE
  5
6C2F
  8
0
 10
53.308836366909979
 20
371.8867335919112
 30
0.0
 11
54.042615988761838
 21
371.14121800933577
 31
0.0
  0
LINE
  5
6C30
  8
0
 10
54.042615988761838
 20
371.14121800933577
 30
0.0
 11
52.999853470304508
 21
371.05831838684998
 31
0.0
  0
LINE
  5
6C31
  8
0
 10
56.329632687966473
 20
378.34951783572029
 30
0.0
 11
56.949845561726313
 21
377.50716279861882
 31
0.0
  0
LINE
  5
6C32
  8
0
 10
56.949845561726313
 20
377.50716279861882
 30
0.0
 11
55.905899015800451
 21
377.5735075539302
 31
0.0
  0
LINE
  5
6C33
  8
0
 10
60.239431752556072
 20
384.31661611460532
 30
0.0
 11
60.733452132660318
 21
383.39456954238159
 31
0.0
  0
LINE
  5
6C34
  8
0
 10
60.733452132660318
 20
383.39456954238159
 30
0.0
 11
59.709573300447801
 21
383.60880808759453
 31
0.0
  0
LINE
  5
6C35
  8
0
 10
64.958641326653151
 20
389.66655551529823
 30
0.0
 11
65.316412382800081
 21
388.6835876172002
 31
0.0
  0
LINE
  5
6C36
  8
0
 10
65.316412382800081
 20
388.6835876172002
 30
0.0
 11
64.333444484701999
 21
389.04135867334708
 31
0.0
  0
LINE
  5
6C37
  8
0
 10
70.391191912405759
 20
394.29042669955243
 30
0.0
 11
70.605430457618695
 21
393.26654786733991
 31
0.0
  0
LINE
  5
6C38
  8
0
 10
70.605430457618638
 20
393.26654786733991
 30
0.0
 11
69.68338388539496
 21
393.7605682474441
 31
0.0
  0
LINE
  5
6C39
  8
0
 10
76.426492446070085
 20
398.09410098419971
 30
0.0
 11
76.492837201381462
 21
397.05015443827381
 31
0.0
  0
LINE
  5
6C3A
  8
0
 10
76.492837201381462
 20
397.05015443827381
 30
0.0
 11
75.650482164279879
 21
397.67036731203359
 31
0.0
  0
LINE
  5
6C3B
  8
0
 10
82.941681613150308
 20
401.0001465296956
 30
0.0
 11
82.858781990664454
 21
399.95738401123822
 31
0.0
  0
LINE
  5
6C3C
  8
0
 10
82.858781990664454
 20
399.95738401123822
 30
0.0
 11
82.113266408089046
 21
400.69116363309001
 31
0.0
  0
LINE
  5
6C3D
  8
0
 10
89.804128950458775
 20
402.94940462907698
 30
0.0
 11
89.573672547426725
 21
401.92905377588522
 31
0.0
  0
LINE
  5
6C3E
  8
0
 10
89.573672547426725
 20
401.92905377588522
 30
0.0
 11
88.940172966749344
 21
402.76146250877389
 31
0.0
  0
LINE
  5
6C3F
  8
0
 10
96.874134819871529
 20
403.90219400863703
 30
0.0
 11
96.500813064077775
 21
402.92502622163289
 31
0.0
  0
LINE
  5
6C40
  8
0
 10
96.500813064077775
 20
402.92502622163289
 30
0.0
 11
95.992225709899117
 21
403.83911862422519
 31
0.0
  0
LINE
  5
6C41
  8
0
 10
104.0077742901011
 20
403.83911862422519
 30
0.0
 11
103.4991869359224
 21
402.92502622163272
 31
0.0
  0
LINE
  5
6C42
  8
0
 10
103.4991869359224
 20
402.92502622163272
 30
0.0
 11
103.1258651801286
 21
403.90219400863703
 31
0.0
  0
LINE
  5
6C43
  8
0
 10
111.059827033251
 20
402.76146250877377
 30
0.0
 11
110.4263274525735
 21
401.92905377588528
 31
0.0
  0
LINE
  5
6C44
  8
0
 10
110.4263274525735
 20
401.92905377588528
 30
0.0
 11
110.19587104954149
 21
402.94940462907698
 31
0.0
  0
LINE
  5
6C45
  8
0
 10
117.8867335919112
 20
400.69116363309001
 30
0.0
 11
117.1412180093358
 21
399.95738401123822
 31
0.0
  0
LINE
  5
6C46
  8
0
 10
117.1412180093358
 20
399.95738401123822
 30
0.0
 11
117.0583183868499
 21
401.00014652969543
 31
0.0
  0
LINE
  5
6C47
  8
0
 10
124.34951783572041
 20
397.67036731203359
 30
0.0
 11
123.50716279861889
 21
397.05015443827381
 31
0.0
  0
LINE
  5
6C48
  8
0
 10
123.50716279861889
 20
397.05015443827381
 30
0.0
 11
123.5735075539302
 21
398.0941009841996
 31
0.0
  0
LINE
  5
6C49
  8
0
 10
130.31661611460521
 20
393.76056824744398
 30
0.0
 11
129.39456954238159
 21
393.26654786733968
 31
0.0
  0
LINE
  5
6C4A
  8
0
 10
129.39456954238159
 20
393.26654786733968
 30
0.0
 11
129.60880808759461
 21
394.2904266995522
 31
0.0
  0
LINE
  5
6C4B
  8
0
 10
135.6665555152982
 20
389.04135867334691
 30
0.0
 11
134.6835876172002
 21
388.68358761719998
 31
0.0
  0
LINE
  5
6C4C
  8
0
 10
134.6835876172002
 20
388.68358761719998
 30
0.0
 11
135.0413586733471
 21
389.666555515298
 31
0.0
  0
LINE
  5
6C4D
  8
0
 10
140.29042669955231
 20
383.6088080875943
 30
0.0
 11
139.26654786733991
 21
383.39456954238142
 31
0.0
  0
LINE
  5
6C4E
  8
0
 10
139.26654786733991
 20
383.39456954238142
 30
0.0
 11
139.7605682474441
 21
384.31661611460498
 31
0.0
  0
LINE
  5
6C4F
  8
0
 10
144.09410098419971
 20
377.57350755393003
 30
0.0
 11
143.05015443827389
 21
377.50716279861871
 31
0.0
  0
LINE
  5
6C50
  8
0
 10
143.05015443827389
 20
377.50716279861871
 30
0.0
 11
143.6703673120337
 21
378.34951783572018
 31
0.0
  0
LINE
  5
6C51
  8
0
 10
147.0001465296956
 20
371.05831838684981
 30
0.0
 11
145.9573840112383
 21
371.1412180093356
 31
0.0
  0
LINE
  5
6C52
  8
0
 10
145.9573840112383
 20
371.1412180093356
 30
0.0
 11
146.69116363309021
 21
371.88673359191102
 31
0.0
  0
LINE
  5
6C53
  8
0
 10
148.94940462907709
 20
364.19587104954132
 30
0.0
 11
147.92905377588539
 21
364.42632745257328
 31
0.0
  0
LINE
  5
6C54
  8
0
 10
147.92905377588539
 20
364.42632745257328
 30
0.0
 11
148.761462508774
 21
365.05982703325071
 31
0.0
  0
LINE
  5
6C55
  8
0
 10
149.9021940086372
 20
357.1258651801283
 30
0.0
 11
148.92502622163289
 21
357.49918693592218
 31
0.0
  0
LINE
  5
6C56
  8
0
 10
148.92502622163289
 20
357.49918693592218
 30
0.0
 11
149.83911862422531
 21
358.00777429010088
 31
0.0
  0
LINE
  5
6C57
  8
0
 10
149.83911862422531
 20
349.99222570989878
 30
0.0
 11
148.92502622163289
 21
350.50081306407748
 31
0.0
  0
LINE
  5
6C58
  8
0
 10
148.92502622163289
 20
350.50081306407748
 30
0.0
 11
149.90219400863711
 21
350.8741348198713
 31
0.0
  0
LINE
  5
6C59
  8
0
 10
148.76146250877389
 20
342.94017296674889
 30
0.0
 11
147.92905377588539
 21
343.57367254742633
 31
0.0
  0
LINE
  5
6C5A
  8
0
 10
147.92905377588539
 20
343.57367254742633
 30
0.0
 11
148.94940462907709
 21
343.80412895045828
 31
0.0
  0
LINE
  5
6C5B
  8
0
 10
146.69116363309001
 20
336.11326640808858
 30
0.0
 11
145.9573840112383
 21
336.85878199066411
 31
0.0
  0
LINE
  5
6C5C
  8
0
 10
145.9573840112383
 20
336.85878199066411
 30
0.0
 11
147.0001465296956
 21
336.94168161314991
 31
0.0
  0
LINE
  5
6C5D
  8
0
 10
143.67036731203359
 20
329.65048216427948
 30
0.0
 11
143.05015443827381
 21
330.49283720138112
 31
0.0
  0
LINE
  5
6C5E
  8
0
 10
143.05015443827381
 20
330.49283720138112
 30
0.0
 11
144.0941009841996
 21
330.42649244606969
 31
0.0
  0
LINE
  5
6C5F
  8
0
 10
139.76056824744401
 20
323.68338388539462
 30
0.0
 11
139.2665478673398
 21
324.6054304576183
 31
0.0
  0
LINE
  5
6C60
  8
0
 10
139.2665478673398
 20
324.6054304576183
 30
0.0
 11
140.2904266995522
 21
324.3911919124053
 31
0.0
  0
LINE
  5
6C61
  8
0
 10
135.04135867334699
 20
318.3334444847016
 30
0.0
 11
134.68358761720009
 21
319.31641238279968
 31
0.0
  0
LINE
  5
6C62
  8
0
 10
134.68358761720009
 20
319.31641238279968
 30
0.0
 11
135.6665555152982
 21
318.95864132665281
 31
0.0
  0
LINE
  5
6C63
  8
0
 10
129.60880808759441
 20
313.70957330044752
 30
0.0
 11
129.3945695423815
 21
314.73345213265998
 31
0.0
  0
LINE
  5
6C64
  8
0
 10
129.3945695423815
 20
314.73345213265998
 30
0.0
 11
130.31661611460521
 21
314.23943175255567
 31
0.0
  0
LINE
  5
6C65
  8
0
 10
123.5735075539301
 20
309.90589901580017
 30
0.0
 11
123.50716279861869
 21
310.94984556172602
 31
0.0
  0
LINE
  5
6C66
  8
0
 10
123.50716279861869
 20
310.94984556172602
 30
0.0
 11
124.34951783572031
 21
310.32963268796618
 31
0.0
  0
LINE
  5
6C67
  8
0
 10
117.05831838684981
 20
306.99985347030417
 30
0.0
 11
117.1412180093356
 21
308.04261598876161
 31
0.0
  0
LINE
  5
6C68
  8
0
 10
117.1412180093356
 20
308.04261598876161
 30
0.0
 11
117.8867335919111
 21
307.30883636690982
 31
0.0
  0
LINE
  5
6C69
  8
0
 10
110.1958710495414
 20
305.05059537092268
 30
0.0
 11
110.4263274525734
 21
306.07094622411449
 31
0.0
  0
LINE
  5
6C6A
  8
0
 10
110.4263274525734
 20
306.07094622411449
 30
0.0
 11
111.0598270332509
 21
305.23853749122588
 31
0.0
  0
LINE
  5
6C6B
  8
0
 10
103.1258651801284
 20
304.09780599136269
 30
0.0
 11
103.4991869359223
 21
305.07497377836688
 31
0.0
  0
LINE
  5
6C6C
  8
0
 10
103.4991869359223
 20
305.07497377836688
 30
0.0
 11
104.007774290101
 21
304.16088137577452
 31
0.0
  0
LINE
  5
6C6D
  8
0
 10
95.992225709898833
 20
304.16088137577458
 30
0.0
 11
96.50081306407759
 21
305.074973778367
 31
0.0
  0
LINE
  5
6C6E
  8
0
 10
96.50081306407759
 20
305.07497377836688
 30
0.0
 11
96.874134819871486
 21
304.09780599136269
 31
0.0
  0
LINE
  5
6C6F
  8
0
 10
88.940172966749003
 20
305.23853749122588
 30
0.0
 11
89.573672547426384
 21
306.07094622411449
 31
0.0
  0
LINE
  5
6C70
  8
0
 10
89.573672547426384
 20
306.07094622411449
 30
0.0
 11
89.804128950458392
 21
305.05059537092268
 31
0.0
  0
LINE
  5
6C71
  8
0
 10
82.113266408088805
 20
307.30883636690982
 30
0.0
 11
82.858781990664113
 21
308.04261598876172
 31
0.0
  0
LINE
  5
6C72
  8
0
 10
82.858781990664113
 20
308.04261598876172
 30
0.0
 11
82.941681613150024
 21
306.9998534703044
 31
0.0
  0
LINE
  5
6C73
  8
0
 10
75.650482164279595
 20
310.3296326879663
 30
0.0
 11
76.492837201381178
 21
310.94984556172608
 31
0.0
  0
LINE
  5
6C74
  8
0
 10
76.492837201381178
 20
310.94984556172608
 30
0.0
 11
76.426492446069744
 21
309.90589901580029
 31
0.0
  0
LINE
  5
6C75
  8
0
 10
69.683383885394676
 20
314.2394317525559
 30
0.0
 11
70.605430457618411
 21
314.73345213266009
 31
0.0
  0
LINE
  5
6C76
  8
0
 10
70.605430457618411
 20
314.7334521326602
 30
0.0
 11
70.391191912405404
 21
313.70957330044769
 31
0.0
  0
LINE
  5
6C77
  8
0
 10
64.333444484701715
 20
318.95864132665292
 30
0.0
 11
65.316412382799797
 21
319.3164123827998
 31
0.0
  0
LINE
  5
6C78
  8
0
 10
65.316412382799797
 20
319.3164123827998
 30
0.0
 11
64.958641326652867
 21
318.33344448470177
 31
0.0
  0
LINE
  5
6C79
  8
0
 10
59.70957330044763
 20
324.39119191240547
 30
0.0
 11
60.733452132660148
 21
324.60543045761852
 31
0.0
  0
LINE
  5
6C7A
  8
0
 10
60.733452132660148
 20
324.60543045761852
 30
0.0
 11
60.239431752555902
 21
323.68338388539479
 31
0.0
  0
LINE
  5
6C7B
  8
0
 10
55.90589901580028
 20
330.4264924460698
 30
0.0
 11
56.949845561726129
 21
330.49283720138118
 31
0.0
  0
LINE
  5
6C7C
  8
0
 10
56.949845561726129
 20
330.49283720138118
 30
0.0
 11
56.329632687966352
 21
329.65048216427971
 31
0.0
  0
LINE
  5
6C7D
  8
0
 10
52.999853470304402
 20
336.94168161315008
 30
0.0
 11
54.042615988761717
 21
336.85878199066428
 31
0.0
  0
LINE
  5
6C7E
  8
0
 10
54.042615988761717
 20
336.85878199066428
 30
0.0
 11
53.308836366909873
 21
336.1132664080888
 31
0.0
  0
LINE
  5
6C7F
  8
0
 10
51.050595370922849
 20
343.80412895045862
 30
0.0
 11
52.070946224114657
 21
343.5736725474265
 31
0.0
  0
LINE
  5
6C80
  8
0
 10
52.070946224114657
 20
343.5736725474265
 30
0.0
 11
51.238537491225991
 21
342.94017296674912
 31
0.0
  0
LINE
  5
6C81
  8
0
 10
50.097805991362911
 20
350.87413481987147
 30
0.0
 11
51.074973778367159
 21
350.5008130640777
 31
0.0
  0
LINE
  5
6C82
  8
0
 10
51.074973778367159
 20
350.5008130640777
 30
0.0
 11
50.160881375774693
 21
349.99222570989889
 31
0.0
  0
LINE
  5
6CCB
  8
2
 10
95.0
 20
221.99999999999989
 30
0.0
 11
100.0
 21
224.88675134594811
 31
0.0
  0
LINE
  5
6CCC
  8
2
 10
105.0
 20
222.0
 30
0.0
 11
100.0
 21
224.88675134594791
 31
0.0
  0
LINE
  5
6CCD
  8
2
 10
92.0
 20
230.99999999999989
 30
0.0
 11
92.0
 21
200.2999999999999
 31
0.0
  0
LINE
  5
6CCE
  8
3
 10
117.3946162984424
 20
208.00949999999989
 30
0.0
 11
117.5
 21
208.00949999999989
 31
0.0
  0
LINE
  5
6CCF
  8
3
 10
117.3946162984424
 20
203.99049999999991
 30
0.0
 11
117.5
 21
203.99049999999991
 31
0.0
  0
LINE
  5
6CD0
  8
2
 10
108.0
 20
203.4999999999998
 30
0.0
 11
108.0
 21
200.2999999999999
 31
0.0
  0
CIRCLE
  5
6D28
  8
2
 10
100.0
 20
353.99999999999989
 30
0.0
 40
4.9999999999999432
  0
CIRCLE
  5
6D29
  8
2
 10
100.0
 20
353.99999999999989
 30
0.0
 40
8.0
  0
CIRCLE
  5
6D2B
  8
2
 10
100.0
 20
353.99999999999989
 30
0.0
 40
17.5
  0
LINE
  5
6D2C
  8
2
 10
117.27813504453781
 20
356.77777777777771
 30
0.0
 11
107.5022630330643
 21
356.77777777777771
 31
0.0
  0
LINE
  5
6D2D
  8
2
 10
107.50226303306439
 20
351.22222222222217
 30
0.0
 11
117.27813504453781
 21
351.22222222222217
 31
0.0
  0
LINE
  5
6D2E
  8
2
 10
117.5
 20
356.0095
 30
0.0
 11
117.0095
 21
356.49999999999989
 31
0.0
  0
LINE
  5
6D2F
  8
2
 10
117.0095
 20
351.5
 30
0.0
 11
117.5
 21
351.99049999999988
 31
0.0
  0
LINE
  5
6D30
  8
2
 10
105.4905
 20
356.49999999999989
 30
0.0
 11
105.0
 21
356.0095
 31
0.0
  0
LINE
  5
6D31
  8
2
 10
105.0
 20
351.9905
 30
0.0
 11
105.4905
 21
351.49999999999989
 31
0.0
  0
LINE
  5
6D32
  8
2
 10
117.0095
 20
356.49999999999989
 30
0.0
 11
105.4905000000001
 21
356.49999999999989
 31
0.0
  0
LINE
  5
6D33
  8
2
 10
105.4905000000001
 20
351.5
 30
0.0
 11
117.0095
 21
351.5
 31
0.0
  0
LINE
  5
6D34
  8
2
 10
105.4905
 20
356.49999999999989
 30
0.0
 11
105.4905000000001
 21
351.49999999999989
 31
0.0
  0
LINE
  5
6D35
  8
2
 10
117.0095
 20
351.5
 30
0.0
 11
117.0095
 21
356.49999999999989
 31
0.0
  0
LINE
  5
6D36
  8
2
 10
117.5
 20
355.44337567297401
 30
0.0
 11
113.3333333333333
 21
355.44337567297401
 31
0.0
  0
LINE
  5
6D37
  8
2
 10
117.5
 20
354.72168783648698
 30
0.0
 11
113.3333333333333
 21
354.72168783648698
 31
0.0
  0
LINE
  5
6D38
  8
2
 10
117.5
 20
352.55662432702587
 30
0.0
 11
113.3333333333333
 21
352.55662432702587
 31
0.0
  0
LINE
  5
6D39
  8
2
 10
117.5
 20
353.27831216351291
 30
0.0
 11
113.3333333333333
 21
353.27831216351291
 31
0.0
  0
LINE
  5
6D3A
  8
2
 10
113.3333333333333
 20
355.44337567297401
 30
0.0
 11
113.3333333333333
 21
352.55662432702587
 31
0.0
  0
LINE
  5
6D3E
  8
2
 10
117.5
 20
351.9905
 30
0.0
 11
117.5
 21
356.0095
 31
0.0
  0
LINE
  5
6D3F
  8
2
 10
105.0
 20
356.0095
 30
0.0
 11
117.5
 21
356.0095
 31
0.0
  0
LINE
  5
6D40
  8
2
 10
105.0
 20
351.9905
 30
0.0
 11
117.5
 21
351.9905
 31
0.0
  0
LINE
  5
6D43
  8
2
 10
104.9999999999999
 20
356.0095
 30
0.0
 11
105.0
 21
351.9905
 31
0.0
  0
LINE
  5
6D48
  8
1
 10
45.0
 20
99.999999999999886
 30
0.0
 11
155.0
 21
99.999999999999844
 31
0.0
  0
LINE
  5
6D49
  8
1
 10
100.0
 20
44.999999999999879
 30
0.0
 11
100.0
 21
154.99999999999989
 31
0.0
  0
CIRCLE
  5
6D4C
  8
0
 10
100.0
 20
99.999999999999886
 30
0.0
 40
48.0
  0
CIRCLE
  5
6D4D
  8
0
 10
100.0
 20
99.999999999999886
 30
0.0
 40
49.0
  0
ARC
  5
6D4F
  8
0
 10
100.0000000000033
 20
100.0000000000003
 30
0.0
 40
50.000000000003297
 50
184.59750311734149
 51
191.76613324629179
  0
ARC
  5
6D50
  8
0
 10
99.999999999998934
 20
99.999999999999886
 30
0.0
 40
49.99999999999892
 50
176.4156849355245
 51
183.58431506447209
  0
ARC
  5
6D51
  8
0
 10
100.0000000000021
 20
100.0000000000004
 30
0.0
 40
50.000000000002167
 50
192.77932129916121
 51
199.94795142811051
  0
ARC
  5
6D52
  8
0
 10
99.999999999995907
 20
100.0000000000005
 30
0.0
 40
49.999999999995893
 50
168.23386675370509
 51
175.4024968826584
  0
ARC
  5
6D53
  8
0
 10
100.00000000000171
 20
100.0000000000007
 30
0.0
 40
50.000000000001812
 50
200.9611394809796
 51
208.12976960992981
  0
ARC
  5
6D54
  8
0
 10
100.0000000000023
 20
99.999999999999204
 30
0.0
 40
50.000000000002451
 50
160.0520485718894
 51
167.22067870083541
  0
ARC
  5
6D55
  8
0
 10
99.999999999999091
 20
99.999999999999318
 30
0.0
 40
49.99999999999892
 50
209.1429576627979
 51
216.31158779174501
  0
ARC
  5
6D56
  8
0
 10
100.0000000000028
 20
99.999999999998636
 30
0.0
 40
50.000000000003112
 50
151.87023039007011
 51
159.03886051901989
  0
ARC
  5
6D57
  8
0
 10
99.999999999998565
 20
99.999999999998749
 30
0.0
 40
49.999999999998117
 50
217.32477584461489
 51
224.49340597356681
  0
ARC
  5
6D58
  8
0
 10
100.0000000000046
 20
99.999999999996945
 30
0.0
 40
50.000000000005571
 50
143.68841220825499
 51
150.85704233719991
  0
ARC
  5
6D59
  8
0
 10
100.00000000000151
 20
100.00000000000171
 30
0.0
 40
50.000000000002302
 50
225.50659402643319
 51
232.6752241553811
  0
ARC
  5
6D5A
  8
0
 10
99.999999999999602
 20
100.0000000000002
 30
0.0
 40
49.999999999999503
 50
135.50659402643319
 51
142.675224155385
  0
ARC
  5
6D5B
  8
0
 10
100.0000000000024
 20
100.0000000000035
 30
0.0
 40
50.000000000004292
 50
233.68841220825479
 51
240.857042337199
  0
ARC
  5
6D5C
  8
0
 10
99.999999999998082
 20
100.0000000000021
 30
0.0
 40
49.99999999999708
 50
127.32477584461471
 51
134.49340597356681
  0
ARC
  5
6D5D
  8
0
 10
99.999999999997556
 20
99.999999999994444
 30
0.0
 40
49.999999999994031
 50
241.87023039007019
 51
249.0388605190202
  0
ARC
  5
6D5E
  8
0
 10
100.0000000000024
 20
99.999999999996248
 30
0.0
 40
50.000000000004363
 50
119.1429576627971
 51
126.3115877917452
  0
ARC
  5
6D5F
  8
0
 10
100.00000000000161
 20
100.0000000000054
 30
0.0
 40
50.000000000005763
 50
250.05204857188909
 51
257.22067870083862
  0
ARC
  5
6D60
  8
0
 10
99.999999999999602
 20
100.0000000000009
 30
0.0
 40
49.999999999998948
 50
110.9611394809798
 51
118.1297696099298
  0
ARC
  5
6D61
  8
0
 10
100.0000000000001
 20
100.0000000000009
 30
0.0
 40
50.00000000000103
 50
258.23386675370818
 51
265.40249688265521
  0
ARC
  5
6D62
  8
0
 10
99.999999999999886
 20
100.0000000000005
 30
0.0
 40
49.999999999999389
 50
102.7793212991614
 51
109.9479514281109
  0
ARC
  5
6D63
  8
0
 10
100.0
 20
99.999999999997044
 30
0.0
 40
49.999999999997122
 50
266.41568493552472
 51
273.58431506447539
  0
ARC
  5
6D64
  8
0
 10
99.999999999999844
 20
100.0000000000008
 30
0.0
 40
49.999999999999091
 50
94.597503117344857
 51
101.7661332462918
  0
ARC
  5
6D65
  8
0
 10
100.0000000000001
 20
99.999999999998636
 30
0.0
 40
49.999999999998678
 50
274.59750311734479
 51
281.76613324629182
  0
ARC
  5
6D66
  8
0
 10
100.0
 20
99.999999999999204
 30
0.0
 40
50.000000000000718
 50
86.415684935524624
 51
93.584315064475376
  0
ARC
  5
6D67
  8
0
 10
99.999999999999886
 20
100.0000000000003
 30
0.0
 40
50.000000000000462
 50
282.77932129916138
 51
289.94795142811091
  0
ARC
  5
6D68
  8
0
 10
100.0000000000001
 20
100.0000000000003
 30
0.0
 40
49.999999999999588
 50
78.233866753708185
 51
85.402496882655129
  0
ARC
  5
6D69
  8
0
 10
100.00000000000151
 20
99.999999999996376
 30
0.0
 40
49.999999999996099
 50
290.96113948097991
 51
298.12976960992978
  0
ARC
  5
6D6A
  8
0
 10
99.999999999999432
 20
99.999999999998181
 30
0.0
 40
50.000000000001869
 50
70.052048571889088
 51
77.220678700838604
  0
ARC
  5
6D6B
  8
0
 10
100.0000000000001
 20
99.999999999999659
 30
0.0
 40
49.999999999999702
 50
299.14295766279707
 51
306.31158779174518
  0
ARC
  5
6D6C
  8
0
 10
99.999999999998082
 20
99.99999999999568
 30
0.0
 40
50.000000000004611
 50
61.870230390070127
 51
69.038860519020147
  0
ARC
  5
6D6D
  8
0
 10
100.00000000000129
 20
99.999999999998408
 30
0.0
 40
49.999999999997961
 50
307.32477584461469
 51
314.49340597356678
  0
ARC
  5
6D6E
  8
0
 10
99.999999999999091
 20
99.999999999998636
 30
0.0
 40
50.00000000000162
 50
53.68841220825481
 51
60.85704233720292
  0
ARC
  5
6D6F
  8
0
 10
99.999999999999943
 20
100.0
 30
0.0
 40
50.000000000000071
 50
315.50659402643322
 51
322.67522415538502
  0
ARC
  5
6D70
  8
0
 10
100.0000000000008
 20
100.0000000000009
 30
0.0
 40
49.999999999998742
 50
45.506594026433177
 51
52.675224155385308
  0
ARC
  5
6D71
  8
0
 10
100.00000000000141
 20
99.999999999998977
 30
0.0
 40
49.999999999998288
 50
323.68841220825499
 51
330.85704233720202
  0
ARC
  5
6D72
  8
0
 10
99.999999999997726
 20
99.999999999997954
 30
0.0
 40
50.000000000003013
 50
37.32477584461494
 51
44.493405973566759
  0
ARC
  5
6D73
  8
0
 10
99.999999999996575
 20
100.00000000000129
 30
0.0
 40
50.000000000003681
 50
331.87023039007011
 51
339.03886051902037
  0
ARC
  5
6D74
  8
0
 10
99.999999999999275
 20
99.999999999999545
 30
0.0
 40
50.000000000000867
 50
29.142957662797961
 51
36.311587791744991
  0
ARC
  5
6D75
  8
0
 10
99.999999999997897
 20
100.0000000000005
 30
0.0
 40
50.000000000002181
 50
340.05204857188937
 51
347.22067870083538
  0
ARC
  5
6D76
  8
0
 10
99.999999999996092
 20
99.999999999998082
 30
0.0
 40
50.000000000004313
 50
20.961139480979622
 51
28.129769609929841
  0
ARC
  5
6D77
  8
0
 10
100.0000000000021
 20
99.999999999999545
 30
0.0
 40
49.999999999997897
 50
348.23386675370512
 51
355.40249688265851
  0
ARC
  5
6D78
  8
0
 10
100.0000000000001
 20
99.999999999999886
 30
0.0
 40
49.999999999999851
 50
12.779321299161239
 51
19.947951428110521
  0
ARC
  5
6D79
  8
0
 10
99.999999999999204
 20
99.999999999999886
 30
0.0
 40
50.000000000000782
 50
356.41568493552791
 51
3.584315064472118
  0
ARC
  5
6D7A
  8
0
 10
100.0000000000031
 20
100.0000000000004
 30
0.0
 40
49.999999999996739
 50
4.5975031173415362
 51
11.76613324629183
  0
LINE
  5
6D7B
  8
0
 10
50.160881375774629
 20
104.0077742901012
 30
0.0
 11
51.074973778367109
 21
103.4991869359224
 31
0.0
  0
LINE
  5
6D7C
  8
0
 10
51.074973778367109
 20
103.4991869359224
 30
0.0
 11
50.097805991362861
 21
103.1258651801286
 31
0.0
  0
LINE
  5
6D7D
  8
0
 10
51.238537491226062
 20
111.0598270332509
 30
0.0
 11
52.070946224114721
 21
110.4263274525735
 31
0.0
  0
LINE
  5
6D7E
  8
0
 10
52.070946224114721
 20
110.4263274525735
 30
0.0
 11
51.050595370922849
 21
110.19587104954149
 31
0.0
  0
LINE
  5
6D7F
  8
0
 10
53.308836366909929
 20
117.8867335919112
 30
0.0
 11
54.042615988761781
 21
117.1412180093358
 31
0.0
  0
LINE
  5
6D80
  8
0
 10
54.042615988761781
 20
117.1412180093358
 30
0.0
 11
52.999853470304458
 21
117.05831838685
 31
0.0
  0
LINE
  5
6D81
  8
0
 10
56.329632687966409
 20
124.34951783572031
 30
0.0
 11
56.949845561726249
 21
123.50716279861889
 31
0.0
  0
LINE
  5
6D82
  8
0
 10
56.949845561726249
 20
123.50716279861889
 30
0.0
 11
55.905899015800401
 21
123.5735075539302
 31
0.0
  0
LINE
  5
6D83
  8
0
 10
60.239431752556023
 20
130.31661611460521
 30
0.0
 11
60.733452132660261
 21
129.39456954238159
 31
0.0
  0
LINE
  5
6D84
  8
0
 10
60.733452132660261
 20
129.39456954238159
 30
0.0
 11
59.709573300447737
 21
129.6088080875945
 31
0.0
  0
LINE
  5
6D85
  8
0
 10
64.958641326653094
 20
135.6665555152982
 30
0.0
 11
65.316412382800024
 21
134.68358761720009
 31
0.0
  0
LINE
  5
6D86
  8
0
 10
65.316412382800024
 20
134.68358761720009
 30
0.0
 11
64.333444484701943
 21
135.0413586733471
 31
0.0
  0
LINE
  5
6D87
  8
0
 10
70.391191912405702
 20
140.2904266995524
 30
0.0
 11
70.605430457618638
 21
139.26654786733991
 31
0.0
  0
LINE
  5
6D88
  8
0
 10
70.605430457618581
 20
139.26654786733991
 30
0.0
 11
69.683383885394903
 21
139.7605682474441
 31
0.0
  0
LINE
  5
6D89
  8
0
 10
76.426492446070029
 20
144.09410098419971
 30
0.0
 11
76.492837201381406
 21
143.05015443827381
 31
0.0
  0
LINE
  5
6D8A
  8
0
 10
76.492837201381406
 20
143.05015443827381
 30
0.0
 11
75.650482164279822
 21
143.6703673120337
 31
0.0
  0
LINE
  5
6D8B
  8
0
 10
82.941681613150266
 20
147.0001465296956
 30
0.0
 11
82.858781990664397
 21
145.95738401123819
 31
0.0
  0
LINE
  5
6D8C
  8
0
 10
82.858781990664397
 20
145.95738401123819
 30
0.0
 11
82.113266408088975
 21
146.6911636330901
 31
0.0
  0
LINE
  5
6D8D
  8
0
 10
89.804128950458733
 20
148.94940462907709
 30
0.0
 11
89.573672547426668
 21
147.92905377588519
 31
0.0
  0
LINE
  5
6D8E
  8
0
 10
89.573672547426668
 20
147.92905377588519
 30
0.0
 11
88.940172966749287
 21
148.761462508774
 31
0.0
  0
LINE
  5
6D8F
  8
0
 10
96.874134819871486
 20
149.902194008637
 30
0.0
 11
96.500813064077704
 21
148.925026221633
 31
0.0
  0
LINE
  5
6D90
  8
0
 10
96.500813064077704
 20
148.925026221633
 30
0.0
 11
95.992225709899074
 21
149.83911862422531
 31
0.0
  0
LINE
  5
6D91
  8
0
 10
104.0077742901011
 20
149.83911862422531
 30
0.0
 11
103.4991869359223
 21
148.92502622163281
 31
0.0
  0
LINE
  5
6D92
  8
0
 10
103.4991869359223
 20
148.92502622163281
 30
0.0
 11
103.1258651801285
 21
149.902194008637
 31
0.0
  0
LINE
  5
6D93
  8
0
 10
111.0598270332509
 20
148.76146250877389
 30
0.0
 11
110.4263274525735
 21
147.92905377588531
 31
0.0
  0
LINE
  5
6D94
  8
0
 10
110.4263274525735
 20
147.92905377588531
 30
0.0
 11
110.19587104954149
 21
148.94940462907709
 31
0.0
  0
LINE
  5
6D95
  8
0
 10
117.8867335919111
 20
146.69116363309001
 30
0.0
 11
117.1412180093357
 21
145.95738401123819
 31
0.0
  0
LINE
  5
6D96
  8
0
 10
117.1412180093357
 20
145.95738401123819
 30
0.0
 11
117.0583183868499
 21
147.00014652969551
 31
0.0
  0
LINE
  5
6D97
  8
0
 10
124.34951783572031
 20
143.67036731203359
 30
0.0
 11
123.50716279861879
 21
143.05015443827381
 31
0.0
  0
LINE
  5
6D98
  8
0
 10
123.50716279861879
 20
143.05015443827381
 30
0.0
 11
123.5735075539302
 21
144.0941009841996
 31
0.0
  0
LINE
  5
6D99
  8
0
 10
130.31661611460521
 20
139.76056824744401
 30
0.0
 11
129.39456954238159
 21
139.2665478673398
 31
0.0
  0
LINE
  5
6D9A
  8
0
 10
129.39456954238159
 20
139.2665478673398
 30
0.0
 11
129.6088080875945
 21
140.2904266995522
 31
0.0
  0
LINE
  5
6D9B
  8
0
 10
135.6665555152982
 20
135.04135867334691
 30
0.0
 11
134.68358761720009
 21
134.6835876172
 31
0.0
  0
LINE
  5
6D9C
  8
0
 10
134.68358761720009
 20
134.6835876172
 30
0.0
 11
135.04135867334699
 21
135.66655551529811
 31
0.0
  0
LINE
  5
6D9D
  8
0
 10
140.29042669955231
 20
129.60880808759441
 30
0.0
 11
139.2665478673398
 21
129.39456954238139
 31
0.0
  0
LINE
  5
6D9E
  8
0
 10
139.2665478673398
 20
129.39456954238139
 30
0.0
 11
139.7605682474441
 21
130.3166161146051
 31
0.0
  0
LINE
  5
6D9F
  8
0
 10
144.0941009841996
 20
123.5735075539301
 30
0.0
 11
143.05015443827381
 21
123.50716279861859
 31
0.0
  0
LINE
  5
6DA0
  8
0
 10
143.05015443827381
 20
123.50716279861859
 30
0.0
 11
143.67036731203359
 21
124.34951783572021
 31
0.0
  0
LINE
  5
6DA1
  8
0
 10
147.0001465296956
 20
117.05831838684981
 30
0.0
 11
145.9573840112383
 21
117.1412180093356
 31
0.0
  0
LINE
  5
6DA2
  8
0
 10
145.9573840112383
 20
117.1412180093356
 30
0.0
 11
146.6911636330901
 21
117.886733591911
 31
0.0
  0
LINE
  5
6DA3
  8
0
 10
148.94940462907709
 20
110.1958710495413
 30
0.0
 11
147.92905377588539
 21
110.4263274525733
 31
0.0
  0
LINE
  5
6DA4
  8
0
 10
147.92905377588539
 20
110.4263274525733
 30
0.0
 11
148.761462508774
 21
111.0598270332508
 31
0.0
  0
LINE
  5
6DA5
  8
0
 10
149.90219400863711
 20
103.1258651801283
 30
0.0
 11
148.92502622163289
 21
103.4991869359222
 31
0.0
  0
LINE
  5
6DA6
  8
0
 10
148.92502622163289
 20
103.4991869359222
 30
0.0
 11
149.83911862422531
 21
104.007774290101
 31
0.0
  0
LINE
  5
6DA7
  8
0
 10
149.83911862422531
 20
95.992225709898776
 30
0.0
 11
148.92502622163289
 21
96.500813064077533
 31
0.0
  0
LINE
  5
6DA8
  8
0
 10
148.92502622163289
 20
96.500813064077533
 30
0.0
 11
149.90219400863711
 21
96.874134819871415
 31
0.0
  0
LINE
  5
6DA9
  8
0
 10
148.76146250877389
 20
88.940172966748946
 30
0.0
 11
147.92905377588531
 21
89.573672547426327
 31
0.0
  0
LINE
  5
6DAA
  8
0
 10
147.92905377588531
 20
89.573672547426327
 30
0.0
 11
148.94940462907709
 21
89.804128950458335
 31
0.0
  0
LINE
  5
6DAB
  8
0
 10
146.69116363309001
 20
82.113266408088748
 30
0.0
 11
145.9573840112383
 21
82.858781990664056
 31
0.0
  0
LINE
  5
6DAC
  8
0
 10
145.9573840112383
 20
82.858781990664056
 30
0.0
 11
147.0001465296956
 21
82.941681613149967
 31
0.0
  0
LINE
  5
6DAD
  8
0
 10
143.67036731203359
 20
75.650482164279524
 30
0.0
 11
143.05015443827381
 21
76.492837201381121
 31
0.0
  0
LINE
  5
6DAE
  8
0
 10
143.05015443827381
 20
76.492837201381121
 30
0.0
 11
144.0941009841996
 21
76.426492446069673
 31
0.0
  0
LINE
  5
6DAF
  8
0
 10
139.76056824744401
 20
69.683383885394619
 30
0.0
 11
139.2665478673398
 21
70.605430457618354
 31
0.0
  0
LINE
  5
6DB0
  8
0
 10
139.2665478673398
 20
70.605430457618354
 30
0.0
 11
140.2904266995522
 21
70.391191912405361
 31
0.0
  0
LINE
  5
6DB1
  8
0
 10
135.04135867334691
 20
64.333444484701772
 30
0.0
 11
134.68358761720009
 21
65.31641238279974
 31
0.0
  0
LINE
  5
6DB2
  8
0
 10
134.68358761720009
 20
65.31641238279974
 30
0.0
 11
135.666555515298
 21
64.95864132665281
 31
0.0
  0
LINE
  5
6DB3
  8
0
 10
129.6088080875943
 20
59.70957330044758
 30
0.0
 11
129.3945695423815
 21
60.733452132659977
 31
0.0
  0
LINE
  5
6DB4
  8
0
 10
129.3945695423815
 20
60.733452132659977
 30
0.0
 11
130.3166161146051
 21
60.239431752555781
 31
0.0
  0
LINE
  5
6DB5
  8
0
 10
123.5735075539301
 20
55.90589901580028
 30
0.0
 11
123.50716279861869
 21
56.949845561726079
 31
0.0
  0
LINE
  5
6DB6
  8
0
 10
123.50716279861869
 20
56.949845561726079
 30
0.0
 11
124.34951783572021
 21
56.329632687966182
 31
0.0
  0
LINE
  5
6DB7
  8
0
 10
117.05831838684981
 20
52.999853470304281
 30
0.0
 11
117.1412180093356
 21
54.042615988761547
 31
0.0
  0
LINE
  5
6DB8
  8
0
 10
117.1412180093356
 20
54.042615988761547
 30
0.0
 11
117.8867335919111
 21
53.308836366909759
 31
0.0
  0
LINE
  5
6DB9
  8
0
 10
110.1958710495414
 20
51.050595370922792
 30
0.0
 11
110.4263274525734
 21
52.07094622411455
 31
0.0
  0
LINE
  5
6DBA
  8
0
 10
110.4263274525734
 20
52.07094622411455
 30
0.0
 11
111.0598270332508
 21
51.238537491225877
 31
0.0
  0
LINE
  5
6DBB
  8
0
 10
103.1258651801284
 20
50.09780599136274
 30
0.0
 11
103.4991869359222
 21
51.074973778367053
 31
0.0
  0
LINE
  5
6DBC
  8
0
 10
103.4991869359222
 20
51.074973778367053
 30
0.0
 11
104.007774290101
 21
50.160881375774579
 31
0.0
  0
LINE
  5
6DBD
  8
0
 10
95.992225709898776
 20
50.160881375774579
 30
0.0
 11
96.500813064077533
 21
51.074973778367053
 31
0.0
  0
LINE
  5
6DBE
  8
0
 10
96.500813064077533
 20
51.074973778367053
 30
0.0
 11
96.874134819871415
 21
50.09780599136274
 31
0.0
  0
LINE
  5
6DBF
  8
0
 10
88.940172966749003
 20
51.238537491225991
 30
0.0
 11
89.573672547426384
 21
52.07094622411455
 31
0.0
  0
LINE
  5
6DC0
  8
0
 10
89.573672547426384
 20
52.07094622411455
 30
0.0
 11
89.804128950458392
 21
51.050595370922792
 31
0.0
  0
LINE
  5
6DC1
  8
0
 10
82.113266408088748
 20
53.308836366909873
 30
0.0
 11
82.858781990664113
 21
54.042615988761668
 31
0.0
  0
LINE
  5
6DC2
  8
0
 10
82.858781990664113
 20
54.042615988761668
 30
0.0
 11
82.941681613149967
 21
52.999853470304402
 31
0.0
  0
LINE
  5
6DC3
  8
0
 10
75.650482164279595
 20
56.329632687966289
 30
0.0
 11
76.492837201381121
 21
56.949845561726079
 31
0.0
  0
LINE
  5
6DC4
  8
0
 10
76.492837201381121
 20
56.949845561726079
 30
0.0
 11
76.426492446069744
 21
55.90589901580028
 31
0.0
  0
LINE
  5
6DC5
  8
0
 10
69.683383885394676
 20
60.239431752555902
 30
0.0
 11
70.605430457618354
 21
60.733452132660091
 31
0.0
  0
LINE
  5
6DC6
  8
0
 10
70.605430457618354
 20
60.733452132660197
 30
0.0
 11
70.391191912405404
 21
59.70957330044768
 31
0.0
  0
LINE
  5
6DC7
  8
0
 10
64.333444484701715
 20
64.958641326652923
 30
0.0
 11
65.316412382799797
 21
65.316412382799854
 31
0.0
  0
LINE
  5
6DC8
  8
0
 10
65.316412382799797
 20
65.316412382799854
 30
0.0
 11
64.958641326652867
 21
64.333444484701886
 31
0.0
  0
LINE
  5
6DC9
  8
0
 10
59.70957330044758
 20
70.391191912405574
 30
0.0
 11
60.733452132660091
 21
70.605430457618453
 31
0.0
  0
LINE
  5
6DCA
  8
0
 10
60.733452132660091
 20
70.605430457618453
 30
0.0
 11
60.239431752555852
 21
69.683383885394846
 31
0.0
  0
LINE
  5
6DCB
  8
0
 10
55.90589901580023
 20
76.426492446069915
 30
0.0
 11
56.949845561726079
 21
76.492837201381235
 31
0.0
  0
LINE
  5
6DCC
  8
0
 10
56.949845561726079
 20
76.492837201381235
 30
0.0
 11
56.329632687966289
 21
75.650482164279765
 31
0.0
  0
LINE
  5
6DCD
  8
0
 10
52.999853470304352
 20
82.941681613150081
 30
0.0
 11
54.042615988761668
 21
82.858781990664284
 31
0.0
  0
LINE
  5
6DCE
  8
0
 10
54.042615988761668
 20
82.858781990664284
 30
0.0
 11
53.308836366909809
 21
82.113266408088862
 31
0.0
  0
LINE
  5
6DCF
  8
0
 10
51.050595370922792
 20
89.804128950458576
 30
0.0
 11
52.0709462241146
 21
89.573672547426554
 31
0.0
  0
LINE
  5
6DD0
  8
0
 10
52.0709462241146
 20
89.573672547426554
 30
0.0
 11
51.238537491225941
 21
88.940172966749174
 31
0.0
  0
LINE
  5
6DD1
  8
0
 10
50.097805991362861
 20
96.874134819871529
 30
0.0
 11
51.074973778367109
 21
96.500813064077775
 31
0.0
  0
LINE
  5
6DD2
  8
0
 10
51.074973778367109
 20
96.500813064077775
 30
0.0
 11
50.160881375774629
 21
95.992225709898989
 31
0.0
  0
CIRCLE
  5
6DD3
  8
0
 10
99.999999999999943
 20
99.999999999999886
 30
0.0
 40
4.9999999999999432
  0
CIRCLE
  5
6DD4
  8
0
 10
100.0
 20
99.999999999999886
 30
0.0
 40
8.0
  0
CIRCLE
  5
6DD5
  8
0
 10
100.0
 20
99.999999999999886
 30
0.0
 40
17.5
  0
LINE
  5
6DD6
  8
2
 10
117.27813504453771
 20
102.7777777777777
 30
0.0
 11
107.5022630330643
 21
102.7777777777777
 31
0.0
  0
LINE
  5
6DD7
  8
2
 10
107.5022630330643
 20
97.222222222222172
 30
0.0
 11
117.27813504453771
 21
97.222222222222172
 31
0.0
  0
LINE
  5
6DD8
  8
2
 10
117.3685435641505
 20
102.1409564358493
 30
0.0
 11
117.0094999999999
 21
102.5
 31
0.0
  0
LINE
  5
6DD9
  8
2
 10
117.0094999999999
 20
97.5
 30
0.0
 11
117.3685435641505
 21
97.859043564150625
 31
0.0
  0
LINE
  5
6DDA
  8
2
 10
105.4905
 20
102.5
 30
0.0
 11
104.9999999999999
 21
102.0095
 31
0.0
  0
LINE
  5
6DDB
  8
2
 10
104.9999999999999
 20
97.990500000000011
 30
0.0
 11
105.4905
 21
97.499999999999886
 31
0.0
  0
LINE
  5
6DDC
  8
2
 10
117.0094999999999
 20
102.5
 30
0.0
 11
105.4905
 21
102.5
 31
0.0
  0
LINE
  5
6DDD
  8
2
 10
105.4905000000001
 20
97.5
 30
0.0
 11
117.0094999999999
 21
97.5
 31
0.0
  0
LINE
  5
6DDE
  8
2
 10
105.4905
 20
102.5
 30
0.0
 11
105.4905
 21
97.499999999999886
 31
0.0
  0
LINE
  5
6DDF
  8
2
 10
117.0094999999999
 20
97.5
 30
0.0
 11
117.0094999999999
 21
102.5
 31
0.0
  0
LINE
  5
6DE0
  8
2
 10
117.4999999999999
 20
101.4433756729741
 30
0.0
 11
113.3333333333332
 21
101.4433756729741
 31
0.0
  0
LINE
  5
6DE1
  8
2
 10
117.4999999999999
 20
100.72168783648701
 30
0.0
 11
113.3333333333332
 21
100.72168783648701
 31
0.0
  0
LINE
  5
6DE2
  8
2
 10
117.4999999999999
 20
98.556624327025943
 30
0.0
 11
113.3333333333332
 21
98.556624327025943
 31
0.0
  0
LINE
  5
6DE3
  8
2
 10
117.4999999999999
 20
99.278312163512965
 30
0.0
 11
113.3333333333332
 21
99.278312163512965
 31
0.0
  0
LINE
  5
6DE4
  8
2
 10
113.3333333333332
 20
101.4433756729741
 30
0.0
 11
113.3333333333332
 21
98.556624327025943
 31
0.0
  0
LINE
  5
6DE6
  8
2
 10
104.9999999999999
 20
102.0095
 30
0.0
 11
117.384243145734
 21
102.0095
 31
0.0
  0
LINE
  5
6DE7
  8
2
 10
104.9999999999999
 20
97.990500000000011
 30
0.0
 11
117.384243145734
 21
97.990500000000011
 31
0.0
  0
LINE
  5
6DE8
  8
2
 10
104.9999999999999
 20
102.0095
 30
0.0
 11
104.9999999999999
 21
97.990500000000011
 31
0.0
  0
LINE
  5
6DE9
  8
0
 10
117.4999999999999
 20
102.0095
 30
0.0
 11
117.3685435641505
 21
102.1409564358493
 31
0.0
  0
LINE
  5
6DEA
  8
0
 10
117.3685435641505
 20
97.859043564150525
 30
0.0
 11
117.4999999999999
 21
97.990500000000011
 31
0.0
  0
LINE
  5
6DEB
  8
0
 10
117.4999999999999
 20
97.990500000000011
 30
0.0
 11
117.4999999999999
 21
102.0095
 31
0.0
  0
LINE
  5
6DEC
  8
3
 10
117.384243145734
 20
102.0095
 30
0.0
 11
117.4999999999999
 21
102.0095
 31
0.0
  0
LINE
  5
6DED
  8
3
 10
117.384243145734
 20
97.990500000000011
 30
0.0
 11
117.4999999999999
 21
97.990500000000011
 31
0.0
  0
TEXT
  5
6EBA
  8
0
 62
     3
 10
0.0
 20
0.0
 30
0.0
 40
10.0
  1
GH100N-YE
  7
STANDARD1
  0
ENDSEC
  0
EOF
