  0
SECTION
  2
HEADER
  9
$ACADVER
  1
AC1009
  9
$INSBASE
 10
0.0
 20
0.0
 30
0.0
  9
$EXTMIN
 10
0.0
 20
-1.4802182810368341
 30
0.0
  9
$EXTMAX
 10
208.4768215042230111
 20
201.2046893957559064
 30
0.0
  9
$LIMMIN
 10
0.0
 20
0.0
  9
$LIMMAX
 10
187.5
 20
135.0
  9
$ORTHOMODE
 70
     0
  9
$REGENMODE
 70
     1
  9
$FILLMODE
 70
     1
  9
$QTEXTMODE
 70
     0
  9
$MIRRTEXT
 70
     0
  9
$DRAGMODE
 70
     2
  9
$LTSCALE
 40
5.0
  9
$OSMODE
 70
    37
  9
$ATTMODE
 70
     1
  9
$TEXTSIZE
 40
4.0
  9
$TRACEWID
 40
0.05
  9
$TEXTSTYLE
  7
STANDARD
  9
$CLAYER
  8
0
  9
$CELTYPE
  6
BYLAYER
  9
$CECOLOR
 62
   256
  9
$DIMSCALE
 40
0.5
  9
$DIMASZ
 40
3.0
  9
$DIMEXO
 40
2.0
  9
$DIMDLI
 40
0.38
  9
$DIMRND
 40
0.0
  9
$DIMDLE
 40
0.0
  9
$DIMEXE
 40
2.0
  9
$DIMTP
 40
0.0
  9
$DIMTM
 40
0.0
  9
$DIMTXT
 40
3.0
  9
$DIMCEN
 40
0.0
  9
$DIMTSZ
 40
0.0
  9
$DIMTOL
 70
     0
  9
$DIMLIM
 70
     0
  9
$DIMTIH
 70
     0
  9
$DIMTOH
 70
     0
  9
$DIMSE1
 70
     0
  9
$DIMSE2
 70
     0
  9
$DIMTAD
 70
     1
  9
$DIMZIN
 70
     0
  9
$DIMBLK
  1

  9
$DIMASO
 70
     0
  9
$DIMSHO
 70
     0
  9
$DIMPOST
  1

  9
$DIMAPOST
  1

  9
$DIMALT
 70
     0
  9
$DIMALTD
 70
     2
  9
$DIMALTF
 40
25.3999999999999986
  9
$DIMLFAC
 40
1.0
  9
$DIMTOFL
 70
     0
  9
$DIMTVP
 40
1.6000000000000001
  9
$DIMTIX
 70
     1
  9
$DIMSOXD
 70
     0
  9
$DIMSAH
 70
     0
  9
$DIMBLK1
  1

  9
$DIMBLK2
  1

  9
$DIMSTYLE
  2
STANDARD
  9
$DIMCLRD
 70
     0
  9
$DIMCLRE
 70
     0
  9
$DIMCLRT
 70
     0
  9
$DIMTFAC
 40
1.0
  9
$DIMGAP
 40
0.09
  9
$LUNITS
 70
     2
  9
$LUPREC
 70
     1
  9
$SKETCHINC
 40
0.1
  9
$FILLETRAD
 40
1.0
  9
$AUNITS
 70
     0
  9
$AUPREC
 70
     0
  9
$MENU
  1
E:\r13\win\SUPPORT\ACAD
  9
$ELEVATION
 40
0.0
  9
$PELEVATION
 40
0.0
  9
$THICKNESS
 40
0.0
  9
$LIMCHECK
 70
     0
  9
$BLIPMODE
 70
     0
  9
$CHAMFERA
 40
0.0
  9
$CHAMFERB
 40
0.0
  9
$SKPOLY
 70
     0
  9
$TDCREATE
 40
2449840.6143865738995373
  9
$TDUPDATE
 40
2460516.6897800927981734
  9
$TDINDWG
 40
0.4488998495
  9
$TDUSRTIMER
 40
0.4488998495
  9
$USRTIMER
 70
     1
  9
$ANGBASE
 50
0.0
  9
$ANGDIR
 70
     0
  9
$PDMODE
 70
     0
  9
$PDSIZE
 40
0.0
  9
$PLINEWID
 40
0.0
  9
$COORDS
 70
     1
  9
$SPLFRAME
 70
     0
  9
$SPLINETYPE
 70
     6
  9
$SPLINESEGS
 70
     8
  9
$ATTDIA
 70
     1
  9
$ATTREQ
 70
     1
  9
$HANDLING
 70
     1
  9
$HANDSEED
  5
3574
  9
$SURFTAB1
 70
     6
  9
$SURFTAB2
 70
     6
  9
$SURFTYPE
 70
     6
  9
$SURFU
 70
     6
  9
$SURFV
 70
     6
  9
$UCSNAME
  2

  9
$UCSORG
 10
0.0
 20
0.0
 30
0.0
  9
$UCSXDIR
 10
1.0
 20
0.0
 30
0.0
  9
$UCSYDIR
 10
0.0
 20
1.0
 30
0.0
  9
$PUCSNAME
  2

  9
$PUCSORG
 10
0.0
 20
0.0
 30
0.0
  9
$PUCSXDIR
 10
1.0
 20
0.0
 30
0.0
  9
$PUCSYDIR
 10
0.0
 20
1.0
 30
0.0
  9
$USERI1
 70
     0
  9
$USERI2
 70
     1
  9
$USERI3
 70
     1
  9
$USERI4
 70
     0
  9
$USERI5
 70
     0
  9
$USERR1
 40
0.0
  9
$USERR2
 40
0.0
  9
$USERR3
 40
0.0
  9
$USERR4
 40
0.0
  9
$USERR5
 40
0.0
  9
$WORLDVIEW
 70
     1
  9
$SHADEDGE
 70
     3
  9
$SHADEDIF
 70
    70
  9
$TILEMODE
 70
     1
  9
$MAXACTVP
 70
    16
  9
$PLIMCHECK
 70
     0
  9
$PEXTMIN
 10
1.0000000000000000E+20
 20
1.0000000000000000E+20
 30
1.0000000000000000E+20
  9
$PEXTMAX
 10
-1.0000000000000000E+20
 20
-1.0000000000000000E+20
 30
-1.0000000000000000E+20
  9
$PLIMMIN
 10
0.0
 20
0.0
  9
$PLIMMAX
 10
12.0
 20
9.0
  9
$UNITMODE
 70
     0
  9
$VISRETAIN
 70
     0
  9
$PLINEGEN
 70
     0
  9
$PSLTSCALE
 70
     0
  0
ENDSEC
  0
SECTION
  2
TABLES
  0
TABLE
  2
VPORT
 70
     1
  0
VPORT
  2
*ACTIVE
 70
     0
 10
0.0
 20
0.0
 11
1.0
 21
1.0
 12
270.108840779602815
 22
115.0
 13
0.0
 23
0.0
 14
5.0
 24
5.0
 15
5.0
 25
5.0
 16
0.0
 26
0.0
 36
1.0
 17
0.0
 27
0.0
 37
0.0
 40
230.126788964405506
 41
2.3485221674876842
 42
50.0
 43
0.0
 44
0.0
 50
0.0
 51
0.0
 71
     0
 72
   100
 73
     1
 74
     0
 75
     0
 76
     0
 77
     0
 78
     0
  0
ENDTAB
  0
TABLE
  2
LTYPE
 70
     2
  0
LTYPE
  2
CONTINUOUS
 70
     0
  3
Solid Line
 72
    65
 73
     0
 40
0.0
  0
LTYPE
  2
CENTER
 70
     0
  3
____ _ ____ _ ____ _ ____ _ ____ _ ____ _ ____
 72
    65
 73
     4
 40
2.0
 49
1.25
 49
-0.25
 49
0.25
 49
-0.25
  0
ENDTAB
  0
TABLE
  2
LAYER
 70
     3
  0
LAYER
  2
0
 70
     0
 62
     7
  6
CONTINUOUS
  0
LAYER
  2
1
 70
     0
 62
     1
  6
CENTER
  0
LAYER
  2
3
 70
     0
 62
     3
  6
CONTINUOUS
  0
ENDTAB
  0
TABLE
  2
STYLE
 70
     2
  0
STYLE
  2
STANDARD
 70
     0
 40
0.0
 41
1.0
 50
0.0
 71
     0
 42
4.0
  3
TXT
  4
BIGFONT
  0
STYLE
  2
STANDARD1
 70
     0
 40
0.0
 41
1.0
 50
0.0
 71
     0
 42
3.0
  3
txt
  4

  0
ENDTAB
  0
TABLE
  2
VIEW
 70
     1
  0
VIEW
  2
ALL
 70
     0
 40
179.6615229999999883
 10
141.9039180000000044
 20
89.8307609999999954
 41
0.0
 11
0.0
 21
0.0
 31
1.0
 12
0.0
 22
0.0
 32
0.0
 42
0.0
 43
0.0
 44
0.0
 50
0.0
 71
     0
  0
ENDTAB
  0
TABLE
  2
UCS
 70
     0
  0
ENDTAB
  0
TABLE
  2
APPID
 70
     7
  0
APPID
  2
ACAD
 70
     0
  0
APPID
  2
DCO15
 70
     0
  0
APPID
  2
ACAD_MLEADERVER
 70
     0
  0
APPID
  2
ACAD_NAV_VCDISPLAY
 70
     0
  0
APPID
  2
ACAD_EXEMPT_FROM_CAD_STANDARDS
 70
     0
  0
APPID
  2
ACAD_DSTYLE_DIMJAG
 70
     0
  0
APPID
  2
ACAD_DSTYLE_DIMTALN
 70
     0
  0
ENDTAB
  0
TABLE
  2
DIMSTYLE
 70
     1
  0
DIMSTYLE
  2
STANDARD
 70
     0
  3

  4

  5

  6

  7

 40
1.0
 41
0.18
 42
0.0625
 43
0.38
 44
0.18
 45
0.0
 46
0.0
 47
0.0
 48
0.0
140
0.18
141
0.09
142
0.0
143
25.3999999999999986
144
1.0
145
0.0
146
1.0
147
0.09
 71
     0
 72
     0
 73
     1
 74
     1
 75
     0
 76
     0
 77
     0
 78
     0
170
     0
171
     2
172
     0
173
     0
174
     0
175
     0
176
     0
177
     0
178
     0
  0
ENDTAB
  0
ENDSEC
  0
SECTION
  2
BLOCKS
  0
BLOCK
  8
0
  2
$MODEL_SPACE
 70
     0
 10
0.0
 20
0.0
 30
0.0
  3
$MODEL_SPACE
  1

  0
ENDBLK
  5
1BD
  8
0
  0
BLOCK
 67
     1
  8
0
  2
$PAPER_SPACE
 70
     0
 10
0.0
 20
0.0
 30
0.0
  3
$PAPER_SPACE
  1

  0
ENDBLK
  5
1BB
 67
     1
  8
0
  0
ENDSEC
  0
SECTION
  2
ENTITIES
  0
TEXT
  5
1928
  8
0
 62
     3
 10
0.0
 20
0.0
 30
0.0
 40
5.0
  1
GDX20L-8N-SUS
  7
STANDARD1
  0
LINE
  5
22A7
  8
1
 10
96.3405219216934512
 20
201.2046893957559064
 30
0.0
 11
96.3405219216934654
 21
175.2046893961959029
 31
0.0
  0
LINE
  5
22A8
  8
1
 10
149.3405219216934086
 20
188.2046893957727036
 30
0.0
 11
83.3405219220660456
 21
188.2046893957727036
 31
0.0
  0
ARC
  5
2B29
  8
0
 10
89.840521921692897
 20
146.2226526130947093
 30
0.0
 40
0.9999999999993406
 50
90.0
 51
179.9999733758428135
  0
LINE
  5
2B2A
  8
0
 10
88.8405219216935791
 20
146.2226530777739981
 30
0.0
 11
88.8405219216935791
 21
142.3853983546727875
 31
0.0
  0
LINE
  5
2B2B
  8
0
 10
100.3405219216972029
 20
87.7226526130490356
 30
0.0
 11
100.2405219216782939
 21
87.997400355039531
 31
0.0
  0
LINE
  5
2B2C
  8
0
 10
92.4405219217088359
 20
87.997400355039531
 30
0.0
 11
92.3405219216899269
 21
87.7226526130490356
 31
0.0
  0
LINE
  5
2B2D
  8
0
 10
100.3405219216935933
 20
78.522652613094067
 30
0.0
 11
100.3405219216935933
 21
87.7226526130490356
 31
0.0
  0
LINE
  5
2B2E
  8
0
 10
92.3405219216935649
 20
87.7226526130490356
 30
0.0
 11
92.3405219216935649
 21
78.522652613094067
 31
0.0
  0
LINE
  5
2B2F
  8
0
 10
92.340521921701864
 20
78.522652613094067
 30
0.0
 11
93.3285722710804464
 21
76.8112992075449483
 31
0.0
  0
LINE
  5
2B30
  8
0
 10
99.3524715723067118
 20
76.8112992075449483
 30
0.0
 11
100.3405219216851947
 21
78.522652613094067
 31
0.0
  0
LINE
  5
2B31
  8
0
 10
100.2405219216934995
 20
87.997400355039531
 30
0.0
 11
100.2405219216934995
 21
88.2226526130940556
 31
0.0
  0
LINE
  5
2B32
  8
0
 10
92.440521921693616
 20
88.2226526130940556
 30
0.0
 11
92.440521921693616
 21
87.997400355039531
 31
0.0
  0
ARC
  5
2B33
  8
0
 10
96.3405219216964639
 20
84.2226526130737625
 30
0.0
 40
7.9999999999738991
 50
247.8833368673548989
 51
292.1166631326274228
  0
LINE
  5
2B34
  8
0
 10
139.3405219216934938
 20
147.2226526130939988
 30
0.0
 11
89.840521921692897
 21
147.2226526130939988
 31
0.0
  0
LINE
  5
2B35
  8
0
 10
106.3405219216935933
 20
129.2226526130939988
 30
0.0
 11
139.3405219216934938
 21
129.2226526130939988
 31
0.0
  0
LINE
  5
2B36
  8
0
 10
146.3405219216936075
 20
136.2226526130945103
 30
0.0
 11
146.3405219216936075
 21
140.2226526130939988
 31
0.0
  0
ARC
  5
2B37
  8
0
 10
139.3405219216940907
 20
140.2226526130945956
 30
0.0
 40
6.9999999999994591
 50
359.9999999999959073
 51
90.0000000000032543
  0
ARC
  5
2B38
  8
0
 10
139.3405219216940907
 20
136.2226526130934019
 30
0.0
 40
6.9999999999994307
 50
269.9999999999968168
 51
0.0000000000085493
  0
LINE
  5
2B39
  8
0
 10
106.3405219216935933
 20
89.756152613094045
 30
0.0
 11
106.3405219216935933
 21
129.2226526130939988
 31
0.0
  0
LINE
  5
2B3A
  8
0
 10
86.3405219216935791
 20
141.2328916339677107
 30
0.0
 11
86.3405219216935791
 21
89.756152613094045
 31
0.0
  0
LINE
  5
2B3B
  8
0
 10
86.3405219216935791
 20
89.756152613094045
 30
0.0
 11
87.8740219216935685
 21
88.2226526130940556
 31
0.0
  0
LINE
  5
2B3C
  8
0
 10
104.8070219216935044
 20
88.2226526130940556
 30
0.0
 11
106.3405219216935933
 21
89.756152613094045
 31
0.0
  0
ARC
  5
2B3F
  8
0
 10
102.8494719598453031
 20
146.5114683922382994
 30
0.0
 40
0.7112405343596558
 50
336.0416388550656279
 51
90.7210054062361451
  0
ARC
  5
2B40
  8
0
 10
110.6795683978684934
 20
144.1790016132842993
 30
0.0
 40
7.4653105509667892
 50
164.112283071523791
 51
179.664981369490107
  0
LINE
  5
2B41
  8
0
 10
103.2143854641273037
 20
132.6901049753701045
 30
0.0
 11
103.2143854641274032
 21
144.2226523653461925
 31
0.0
  0
ARC
  5
2B42
  8
0
 10
120.3409349675431059
 20
138.2226526130939988
 30
0.0
 40
5.2449976330411392
 50
90.0045120676118842
 51
269.9954879323880732
  0
LINE
  5
2B43
  8
0
 10
92.3405219216840436
 20
87.7226526130490356
 30
0.0
 11
100.3405219217031004
 21
87.7226526130490356
 31
0.0
  0
LINE
  5
2B44
  8
0
 10
92.4405219216998546
 20
87.997400355039531
 30
0.0
 11
100.2405219216872041
 21
87.997400355039531
 31
0.0
  0
LINE
  5
2B45
  8
0
 10
92.3405219217456334
 20
78.522652613094067
 30
0.0
 11
100.3405219216414963
 21
78.522652613094067
 31
0.0
  0
LINE
  5
2B47
  8
0
 10
93.3285722710804464
 20
76.8112992075449483
 30
0.0
 11
99.3524715723066834
 21
76.8112992075449199
 31
0.0
  0
ARC
  5
2B4C
  8
0
 10
134.3201417011513001
 20
136.1287974807931107
 30
0.0
 40
6.0203833565060778
 50
326.5011707409108226
 51
359.9415194971650749
  0
LINE
  5
2B4D
  8
0
 10
140.3405219216934938
 20
140.3226526130939931
 30
0.0
 11
140.3405219216934938
 21
136.1226526130940044
 31
0.0
  0
ARC
  5
2B4E
  8
0
 10
134.3201417011511865
 20
140.3165077453948868
 30
0.0
 40
6.0203833565061959
 50
0.0584805028372702
 51
33.4988292590895114
  0
LINE
  5
2B4F
  8
0
 10
123.0405219216935961
 20
143.6392774034490003
 30
0.0
 11
139.3405219216934938
 21
143.6392774034488014
 31
0.0
  0
LINE
  5
2B50
  8
0
 10
122.9405219216936018
 20
137.7226526130939988
 30
0.0
 11
123.0405219216935961
 21
143.6392774034490003
 31
0.0
  0
LINE
  5
2B51
  8
0
 10
123.0405219216935961
 20
132.8060278227391109
 30
0.0
 11
122.9405219216936018
 21
137.7226526130939988
 31
0.0
  0
LINE
  5
2B52
  8
0
 10
139.3405219216934938
 20
132.8060278227391962
 30
0.0
 11
123.0405219216935961
 21
132.8060278227391109
 31
0.0
  0
LINE
  5
2B53
  8
0
 10
120.3405219216934938
 20
143.4676502298713956
 30
0.0
 11
120.3405219216934938
 21
132.9776549963166872
 31
0.0
  0
LINE
  5
2B5D
  8
0
 10
88.3405219566668336
 20
142.7226526130939988
 30
0.0
 11
86.9997510789825839
 21
142.7226526222312941
 31
0.0
  0
LINE
  5
2B5E
  8
0
 10
105.5390861755079044
 20
131.1220745464341917
 30
0.0
 11
88.3405219527298584
 21
142.7226525921597897
 31
0.0
  0
ARC
  5
2B5F
  8
0
 10
120.0336645366939052
 20
136.1195045428673041
 30
0.0
 40
15.3318983955559496
 50
199.0231313265580013
 51
206.6693913072373903
  0
ARC
  5
2B60
  8
0
 10
72.0493495491673173
 20
148.3985601920695956
 30
0.0
 40
15.9915738013931197
 50
333.3787767373755173
 51
339.210775602473916
  0
LINE
  5
2B61
  8
0
 10
86.3405219216935791
 20
89.756152613094045
 30
0.0
 11
106.3405219216934938
 21
89.756152613094045
 31
0.0
  0
LINE
  5
2B63
  8
0
 10
87.8740219216935685
 20
88.2226526130940556
 30
0.0
 11
104.8070219216935044
 21
88.2226526130939988
 31
0.0
  0
LINE
  5
2B64
  8
0
 10
103.4994325831502948
 20
146.2226530777739981
 30
0.0
 11
88.8405219216935791
 21
146.2226530777739981
 31
0.0
  0
LINE
  5
2B6D
  8
0
 10
103.2143854641272043
 20
191.2046893957727036
 30
0.0
 11
143.3405219216934086
 21
191.2046893957727036
 31
0.0
  0
LINE
  5
2B6F
  8
0
 10
143.3405219216934086
 20
185.2046893957727036
 30
0.0
 11
103.2143854641272043
 21
185.2046893957727036
 31
0.0
  0
ARC
  5
2B70
  8
0
 10
100.0603883203441029
 20
186.1703411402098993
 30
0.0
 40
3.44495516953116
 50
356.6431262115569893
 51
36.1946045370178879
  0
ARC
  5
2B71
  8
0
 10
100.0604606891363062
 20
190.2390161862265074
 30
0.0
 40
3.4448840910732992
 50
323.8049727866192029
 51
3.3573073052374252
  0
ARC
  5
2B72
  8
0
 10
96.3405219216934654
 20
188.2046893957727036
 30
0.0
 40
7.4999999999999973
 50
17.3460648884463211
 51
342.6539380337297871
  0
ARC
  5
2B74
  8
0
 10
143.3405219216934086
 20
188.2046893957727036
 30
0.0
 40
3.0
 50
270.0
 51
90.0
  0
LINE
  5
2B76
  8
0
 10
86.9997510755587484
 20
191.7754036100440942
 30
0.0
 11
88.340521894047555
 21
191.7754036226066887
 31
0.0
  0
POLYLINE
  5
2B77
  8
0
 10
88.9661172581903088
 20
191.3060046268045653
 30
0.0
 66
     1
 70
     8
  0
VERTEX
  8
0
  5
3060
 10
88.9661
 20
191.306
 30
0.00000
  70
    32
  0
VERTEX
  8
0
  5
3061
 10
88.9616
 20
191.310
 30
0.00000
  70
    32
  0
VERTEX
  8
0
  5
3062
 10
88.9570
 20
191.314
 30
0.00000
  70
    32
  0
VERTEX
  8
0
  5
3063
 10
88.9525
 20
191.318
 30
0.00000
  70
    32
  0
VERTEX
  8
0
  5
3064
 10
88.9479
 20
191.321
 30
0.00000
  70
    32
  0
VERTEX
  8
0
  5
3065
 10
88.9434
 20
191.325
 30
0.00000
  70
    32
  0
VERTEX
  8
0
  5
3066
 10
88.9388
 20
191.329
 30
0.00000
  70
    32
  0
VERTEX
  8
0
  5
3067
 10
88.9342
 20
191.333
 30
0.00000
  70
    32
  0
VERTEX
  8
0
  5
3068
 10
88.9296
 20
191.337
 30
0.00000
  70
    32
  0
VERTEX
  8
0
  5
3069
 10
88.9251
 20
191.341
 30
0.00000
  70
    32
  0
VERTEX
  8
0
  5
306A
 10
88.9205
 20
191.345
 30
0.00000
  70
    32
  0
VERTEX
  8
0
  5
306B
 10
88.9159
 20
191.348
 30
0.00000
  70
    32
  0
VERTEX
  8
0
  5
306C
 10
88.9113
 20
191.352
 30
0.00000
  70
    32
  0
VERTEX
  8
0
  5
306D
 10
88.9067
 20
191.356
 30
0.00000
  70
    32
  0
VERTEX
  8
0
  5
306E
 10
88.9020
 20
191.360
 30
0.00000
  70
    32
  0
VERTEX
  8
0
  5
306F
 10
88.8974
 20
191.364
 30
0.00000
  70
    32
  0
VERTEX
  8
0
  5
3070
 10
88.8928
 20
191.368
 30
0.00000
  70
    32
  0
VERTEX
  8
0
  5
3071
 10
88.8882
 20
191.371
 30
0.00000
  70
    32
  0
VERTEX
  8
0
  5
3072
 10
88.8835
 20
191.375
 30
0.00000
  70
    32
  0
VERTEX
  8
0
  5
3073
 10
88.8789
 20
191.379
 30
0.00000
  70
    32
  0
VERTEX
  8
0
  5
3074
 10
88.8742
 20
191.383
 30
0.00000
  70
    32
  0
VERTEX
  8
0
  5
3075
 10
88.8696
 20
191.387
 30
0.00000
  70
    32
  0
VERTEX
  8
0
  5
3076
 10
88.8649
 20
191.390
 30
0.00000
  70
    32
  0
VERTEX
  8
0
  5
3077
 10
88.8603
 20
191.394
 30
0.00000
  70
    32
  0
VERTEX
  8
0
  5
3078
 10
88.8556
 20
191.398
 30
0.00000
  70
    32
  0
VERTEX
  8
0
  5
3079
 10
88.8509
 20
191.402
 30
0.00000
  70
    32
  0
VERTEX
  8
0
  5
307A
 10
88.8462
 20
191.406
 30
0.00000
  70
    32
  0
VERTEX
  8
0
  5
307B
 10
88.8416
 20
191.409
 30
0.00000
  70
    32
  0
VERTEX
  8
0
  5
307C
 10
88.8369
 20
191.413
 30
0.00000
  70
    32
  0
VERTEX
  8
0
  5
307D
 10
88.8322
 20
191.417
 30
0.00000
  70
    32
  0
VERTEX
  8
0
  5
307E
 10
88.8275
 20
191.421
 30
0.00000
  70
    32
  0
VERTEX
  8
0
  5
307F
 10
88.8228
 20
191.425
 30
0.00000
  70
    32
  0
VERTEX
  8
0
  5
3080
 10
88.8180
 20
191.428
 30
0.00000
  70
    32
  0
VERTEX
  8
0
  5
3081
 10
88.8133
 20
191.432
 30
0.00000
  70
    32
  0
VERTEX
  8
0
  5
3082
 10
88.8086
 20
191.436
 30
0.00000
  70
    32
  0
VERTEX
  8
0
  5
3083
 10
88.8039
 20
191.440
 30
0.00000
  70
    32
  0
VERTEX
  8
0
  5
3084
 10
88.7991
 20
191.443
 30
0.00000
  70
    32
  0
VERTEX
  8
0
  5
3085
 10
88.7944
 20
191.447
 30
0.00000
  70
    32
  0
VERTEX
  8
0
  5
3086
 10
88.7896
 20
191.451
 30
0.00000
  70
    32
  0
VERTEX
  8
0
  5
3087
 10
88.7849
 20
191.455
 30
0.00000
  70
    32
  0
VERTEX
  8
0
  5
3088
 10
88.7801
 20
191.458
 30
0.00000
  70
    32
  0
VERTEX
  8
0
  5
3089
 10
88.7754
 20
191.462
 30
0.00000
  70
    32
  0
VERTEX
  8
0
  5
308A
 10
88.7706
 20
191.466
 30
0.00000
  70
    32
  0
VERTEX
  8
0
  5
308B
 10
88.7658
 20
191.470
 30
0.00000
  70
    32
  0
VERTEX
  8
0
  5
308C
 10
88.7610
 20
191.473
 30
0.00000
  70
    32
  0
VERTEX
  8
0
  5
308D
 10
88.7563
 20
191.477
 30
0.00000
  70
    32
  0
VERTEX
  8
0
  5
308E
 10
88.7515
 20
191.481
 30
0.00000
  70
    32
  0
VERTEX
  8
0
  5
308F
 10
88.7467
 20
191.485
 30
0.00000
  70
    32
  0
VERTEX
  8
0
  5
3090
 10
88.7419
 20
191.488
 30
0.00000
  70
    32
  0
VERTEX
  8
0
  5
3091
 10
88.7371
 20
191.492
 30
0.00000
  70
    32
  0
VERTEX
  8
0
  5
3092
 10
88.7323
 20
191.496
 30
0.00000
  70
    32
  0
VERTEX
  8
0
  5
3093
 10
88.7274
 20
191.499
 30
0.00000
  70
    32
  0
VERTEX
  8
0
  5
3094
 10
88.7226
 20
191.503
 30
0.00000
  70
    32
  0
VERTEX
  8
0
  5
3095
 10
88.7178
 20
191.507
 30
0.00000
  70
    32
  0
VERTEX
  8
0
  5
3096
 10
88.7129
 20
191.511
 30
0.00000
  70
    32
  0
VERTEX
  8
0
  5
3097
 10
88.7081
 20
191.514
 30
0.00000
  70
    32
  0
VERTEX
  8
0
  5
3098
 10
88.7033
 20
191.518
 30
0.00000
  70
    32
  0
VERTEX
  8
0
  5
3099
 10
88.6984
 20
191.522
 30
0.00000
  70
    32
  0
VERTEX
  8
0
  5
309A
 10
88.6936
 20
191.525
 30
0.00000
  70
    32
  0
VERTEX
  8
0
  5
309B
 10
88.6887
 20
191.529
 30
0.00000
  70
    32
  0
VERTEX
  8
0
  5
309C
 10
88.6838
 20
191.533
 30
0.00000
  70
    32
  0
VERTEX
  8
0
  5
309D
 10
88.6790
 20
191.536
 30
0.00000
  70
    32
  0
VERTEX
  8
0
  5
309E
 10
88.6741
 20
191.540
 30
0.00000
  70
    32
  0
VERTEX
  8
0
  5
309F
 10
88.6692
 20
191.544
 30
0.00000
  70
    32
  0
VERTEX
  8
0
  5
30A0
 10
88.6643
 20
191.547
 30
0.00000
  70
    32
  0
VERTEX
  8
0
  5
30A1
 10
88.6594
 20
191.551
 30
0.00000
  70
    32
  0
VERTEX
  8
0
  5
30A2
 10
88.6545
 20
191.555
 30
0.00000
  70
    32
  0
VERTEX
  8
0
  5
30A3
 10
88.6496
 20
191.558
 30
0.00000
  70
    32
  0
VERTEX
  8
0
  5
30A4
 10
88.6447
 20
191.562
 30
0.00000
  70
    32
  0
VERTEX
  8
0
  5
30A5
 10
88.6398
 20
191.566
 30
0.00000
  70
    32
  0
VERTEX
  8
0
  5
30A6
 10
88.6349
 20
191.569
 30
0.00000
  70
    32
  0
VERTEX
  8
0
  5
30A7
 10
88.6299
 20
191.573
 30
0.00000
  70
    32
  0
VERTEX
  8
0
  5
30A8
 10
88.6250
 20
191.577
 30
0.00000
  70
    32
  0
VERTEX
  8
0
  5
30A9
 10
88.6201
 20
191.580
 30
0.00000
  70
    32
  0
VERTEX
  8
0
  5
30AA
 10
88.6151
 20
191.584
 30
0.00000
  70
    32
  0
VERTEX
  8
0
  5
30AB
 10
88.6102
 20
191.588
 30
0.00000
  70
    32
  0
VERTEX
  8
0
  5
30AC
 10
88.6052
 20
191.591
 30
0.00000
  70
    32
  0
VERTEX
  8
0
  5
30AD
 10
88.6003
 20
191.595
 30
0.00000
  70
    32
  0
VERTEX
  8
0
  5
30AE
 10
88.5953
 20
191.598
 30
0.00000
  70
    32
  0
VERTEX
  8
0
  5
30AF
 10
88.5903
 20
191.602
 30
0.00000
  70
    32
  0
VERTEX
  8
0
  5
30B0
 10
88.5854
 20
191.606
 30
0.00000
  70
    32
  0
VERTEX
  8
0
  5
30B1
 10
88.5804
 20
191.609
 30
0.00000
  70
    32
  0
VERTEX
  8
0
  5
30B2
 10
88.5754
 20
191.613
 30
0.00000
  70
    32
  0
VERTEX
  8
0
  5
30B3
 10
88.5704
 20
191.617
 30
0.00000
  70
    32
  0
VERTEX
  8
0
  5
30B4
 10
88.5654
 20
191.620
 30
0.00000
  70
    32
  0
VERTEX
  8
0
  5
30B5
 10
88.5604
 20
191.624
 30
0.00000
  70
    32
  0
VERTEX
  8
0
  5
30B6
 10
88.5554
 20
191.627
 30
0.00000
  70
    32
  0
VERTEX
  8
0
  5
30B7
 10
88.5504
 20
191.631
 30
0.00000
  70
    32
  0
VERTEX
  8
0
  5
30B8
 10
88.5454
 20
191.634
 30
0.00000
  70
    32
  0
VERTEX
  8
0
  5
30B9
 10
88.5404
 20
191.638
 30
0.00000
  70
    32
  0
VERTEX
  8
0
  5
30BA
 10
88.5354
 20
191.642
 30
0.00000
  70
    32
  0
VERTEX
  8
0
  5
30BB
 10
88.5303
 20
191.645
 30
0.00000
  70
    32
  0
VERTEX
  8
0
  5
30BC
 10
88.5253
 20
191.649
 30
0.00000
  70
    32
  0
VERTEX
  8
0
  5
30BD
 10
88.5202
 20
191.652
 30
0.00000
  70
    32
  0
VERTEX
  8
0
  5
30BE
 10
88.5152
 20
191.656
 30
0.00000
  70
    32
  0
VERTEX
  8
0
  5
30BF
 10
88.5101
 20
191.660
 30
0.00000
  70
    32
  0
VERTEX
  8
0
  5
30C0
 10
88.5051
 20
191.663
 30
0.00000
  70
    32
  0
VERTEX
  8
0
  5
30C1
 10
88.5000
 20
191.667
 30
0.00000
  70
    32
  0
VERTEX
  8
0
  5
30C2
 10
88.4950
 20
191.670
 30
0.00000
  70
    32
  0
VERTEX
  8
0
  5
30C3
 10
88.4899
 20
191.674
 30
0.00000
  70
    32
  0
VERTEX
  8
0
  5
30C4
 10
88.4848
 20
191.677
 30
0.00000
  70
    32
  0
VERTEX
  8
0
  5
30C5
 10
88.4797
 20
191.681
 30
0.00000
  70
    32
  0
VERTEX
  8
0
  5
30C6
 10
88.4746
 20
191.684
 30
0.00000
  70
    32
  0
VERTEX
  8
0
  5
30C7
 10
88.4695
 20
191.688
 30
0.00000
  70
    32
  0
VERTEX
  8
0
  5
30C8
 10
88.4644
 20
191.692
 30
0.00000
  70
    32
  0
VERTEX
  8
0
  5
30C9
 10
88.4593
 20
191.695
 30
0.00000
  70
    32
  0
VERTEX
  8
0
  5
30CA
 10
88.4542
 20
191.699
 30
0.00000
  70
    32
  0
VERTEX
  8
0
  5
30CB
 10
88.4491
 20
191.702
 30
0.00000
  70
    32
  0
VERTEX
  8
0
  5
30CC
 10
88.4440
 20
191.706
 30
0.00000
  70
    32
  0
VERTEX
  8
0
  5
30CD
 10
88.4389
 20
191.709
 30
0.00000
  70
    32
  0
VERTEX
  8
0
  5
30CE
 10
88.4337
 20
191.713
 30
0.00000
  70
    32
  0
VERTEX
  8
0
  5
30CF
 10
88.4286
 20
191.716
 30
0.00000
  70
    32
  0
VERTEX
  8
0
  5
30D0
 10
88.4235
 20
191.720
 30
0.00000
  70
    32
  0
VERTEX
  8
0
  5
30D1
 10
88.4183
 20
191.723
 30
0.00000
  70
    32
  0
VERTEX
  8
0
  5
30D2
 10
88.4132
 20
191.727
 30
0.00000
  70
    32
  0
VERTEX
  8
0
  5
30D3
 10
88.4080
 20
191.730
 30
0.00000
  70
    32
  0
VERTEX
  8
0
  5
30D4
 10
88.4028
 20
191.734
 30
0.00000
  70
    32
  0
VERTEX
  8
0
  5
30D5
 10
88.3977
 20
191.737
 30
0.00000
  70
    32
  0
VERTEX
  8
0
  5
30D6
 10
88.3925
 20
191.741
 30
0.00000
  70
    32
  0
VERTEX
  8
0
  5
30D7
 10
88.3873
 20
191.744
 30
0.00000
  70
    32
  0
VERTEX
  8
0
  5
30D8
 10
88.3822
 20
191.748
 30
0.00000
  70
    32
  0
VERTEX
  8
0
  5
30D9
 10
88.3770
 20
191.751
 30
0.00000
  70
    32
  0
VERTEX
  8
0
  5
30DA
 10
88.3718
 20
191.755
 30
0.00000
  70
    32
  0
VERTEX
  8
0
  5
30DB
 10
88.3666
 20
191.758
 30
0.00000
  70
    32
  0
VERTEX
  8
0
  5
30DC
 10
88.3614
 20
191.762
 30
0.00000
  70
    32
  0
VERTEX
  8
0
  5
30DD
 10
88.3562
 20
191.765
 30
0.00000
  70
    32
  0
VERTEX
  8
0
  5
30DE
 10
88.3510
 20
191.768
 30
0.00000
  70
    32
  0
VERTEX
  8
0
  5
30DF
 10
88.3457
 20
191.772
 30
0.00000
  70
    32
  0
VERTEX
  8
0
  5
30E0
 10
88.3405
 20
191.775
 30
0.00000
  70
    32
  0
SEQEND
  8
0
  5
30E1
  0
POLYLINE
  5
2B79
  8
0
 10
88.340521937761693
 20
184.6339751921247796
 30
0.0
 66
     1
 70
     8
  0
VERTEX
  8
0
  5
30E2
 10
88.3405
 20
184.634
 30
0.00000
  70
    32
  0
VERTEX
  8
0
  5
30E3
 10
88.3457
 20
184.637
 30
0.00000
  70
    32
  0
VERTEX
  8
0
  5
30E4
 10
88.3510
 20
184.641
 30
0.00000
  70
    32
  0
VERTEX
  8
0
  5
30E5
 10
88.3562
 20
184.644
 30
0.00000
  70
    32
  0
VERTEX
  8
0
  5
30E6
 10
88.3614
 20
184.648
 30
0.00000
  70
    32
  0
VERTEX
  8
0
  5
30E7
 10
88.3666
 20
184.651
 30
0.00000
  70
    32
  0
VERTEX
  8
0
  5
30E8
 10
88.3718
 20
184.655
 30
0.00000
  70
    32
  0
VERTEX
  8
0
  5
30E9
 10
88.3770
 20
184.658
 30
0.00000
  70
    32
  0
VERTEX
  8
0
  5
30EA
 10
88.3822
 20
184.662
 30
0.00000
  70
    32
  0
VERTEX
  8
0
  5
30EB
 10
88.3873
 20
184.665
 30
0.00000
  70
    32
  0
VERTEX
  8
0
  5
30EC
 10
88.3925
 20
184.669
 30
0.00000
  70
    32
  0
VERTEX
  8
0
  5
30ED
 10
88.3977
 20
184.672
 30
0.00000
  70
    32
  0
VERTEX
  8
0
  5
30EE
 10
88.4028
 20
184.676
 30
0.00000
  70
    32
  0
VERTEX
  8
0
  5
30EF
 10
88.4080
 20
184.679
 30
0.00000
  70
    32
  0
VERTEX
  8
0
  5
30F0
 10
88.4132
 20
184.683
 30
0.00000
  70
    32
  0
VERTEX
  8
0
  5
30F1
 10
88.4183
 20
184.686
 30
0.00000
  70
    32
  0
VERTEX
  8
0
  5
30F2
 10
88.4235
 20
184.690
 30
0.00000
  70
    32
  0
VERTEX
  8
0
  5
30F3
 10
88.4286
 20
184.693
 30
0.00000
  70
    32
  0
VERTEX
  8
0
  5
30F4
 10
88.4337
 20
184.697
 30
0.00000
  70
    32
  0
VERTEX
  8
0
  5
30F5
 10
88.4389
 20
184.700
 30
0.00000
  70
    32
  0
VERTEX
  8
0
  5
30F6
 10
88.4440
 20
184.704
 30
0.00000
  70
    32
  0
VERTEX
  8
0
  5
30F7
 10
88.4491
 20
184.707
 30
0.00000
  70
    32
  0
VERTEX
  8
0
  5
30F8
 10
88.4542
 20
184.711
 30
0.00000
  70
    32
  0
VERTEX
  8
0
  5
30F9
 10
88.4593
 20
184.714
 30
0.00000
  70
    32
  0
VERTEX
  8
0
  5
30FA
 10
88.4644
 20
184.718
 30
0.00000
  70
    32
  0
VERTEX
  8
0
  5
30FB
 10
88.4695
 20
184.721
 30
0.00000
  70
    32
  0
VERTEX
  8
0
  5
30FC
 10
88.4746
 20
184.725
 30
0.00000
  70
    32
  0
VERTEX
  8
0
  5
30FD
 10
88.4797
 20
184.728
 30
0.00000
  70
    32
  0
VERTEX
  8
0
  5
30FE
 10
88.4848
 20
184.732
 30
0.00000
  70
    32
  0
VERTEX
  8
0
  5
30FF
 10
88.4899
 20
184.736
 30
0.00000
  70
    32
  0
VERTEX
  8
0
  5
3100
 10
88.4950
 20
184.739
 30
0.00000
  70
    32
  0
VERTEX
  8
0
  5
3101
 10
88.5000
 20
184.743
 30
0.00000
  70
    32
  0
VERTEX
  8
0
  5
3102
 10
88.5051
 20
184.746
 30
0.00000
  70
    32
  0
VERTEX
  8
0
  5
3103
 10
88.5101
 20
184.750
 30
0.00000
  70
    32
  0
VERTEX
  8
0
  5
3104
 10
88.5152
 20
184.753
 30
0.00000
  70
    32
  0
VERTEX
  8
0
  5
3105
 10
88.5202
 20
184.757
 30
0.00000
  70
    32
  0
VERTEX
  8
0
  5
3106
 10
88.5253
 20
184.761
 30
0.00000
  70
    32
  0
VERTEX
  8
0
  5
3107
 10
88.5303
 20
184.764
 30
0.00000
  70
    32
  0
VERTEX
  8
0
  5
3108
 10
88.5354
 20
184.768
 30
0.00000
  70
    32
  0
VERTEX
  8
0
  5
3109
 10
88.5404
 20
184.771
 30
0.00000
  70
    32
  0
VERTEX
  8
0
  5
310A
 10
88.5454
 20
184.775
 30
0.00000
  70
    32
  0
VERTEX
  8
0
  5
310B
 10
88.5504
 20
184.778
 30
0.00000
  70
    32
  0
VERTEX
  8
0
  5
310C
 10
88.5554
 20
184.782
 30
0.00000
  70
    32
  0
VERTEX
  8
0
  5
310D
 10
88.5604
 20
184.786
 30
0.00000
  70
    32
  0
VERTEX
  8
0
  5
310E
 10
88.5654
 20
184.789
 30
0.00000
  70
    32
  0
VERTEX
  8
0
  5
310F
 10
88.5704
 20
184.793
 30
0.00000
  70
    32
  0
VERTEX
  8
0
  5
3110
 10
88.5754
 20
184.796
 30
0.00000
  70
    32
  0
VERTEX
  8
0
  5
3111
 10
88.5804
 20
184.800
 30
0.00000
  70
    32
  0
VERTEX
  8
0
  5
3112
 10
88.5854
 20
184.804
 30
0.00000
  70
    32
  0
VERTEX
  8
0
  5
3113
 10
88.5903
 20
184.807
 30
0.00000
  70
    32
  0
VERTEX
  8
0
  5
3114
 10
88.5953
 20
184.811
 30
0.00000
  70
    32
  0
VERTEX
  8
0
  5
3115
 10
88.6003
 20
184.815
 30
0.00000
  70
    32
  0
VERTEX
  8
0
  5
3116
 10
88.6052
 20
184.818
 30
0.00000
  70
    32
  0
VERTEX
  8
0
  5
3117
 10
88.6102
 20
184.822
 30
0.00000
  70
    32
  0
VERTEX
  8
0
  5
3118
 10
88.6151
 20
184.825
 30
0.00000
  70
    32
  0
VERTEX
  8
0
  5
3119
 10
88.6201
 20
184.829
 30
0.00000
  70
    32
  0
VERTEX
  8
0
  5
311A
 10
88.6250
 20
184.833
 30
0.00000
  70
    32
  0
VERTEX
  8
0
  5
311B
 10
88.6299
 20
184.836
 30
0.00000
  70
    32
  0
VERTEX
  8
0
  5
311C
 10
88.6349
 20
184.840
 30
0.00000
  70
    32
  0
VERTEX
  8
0
  5
311D
 10
88.6398
 20
184.844
 30
0.00000
  70
    32
  0
VERTEX
  8
0
  5
311E
 10
88.6447
 20
184.847
 30
0.00000
  70
    32
  0
VERTEX
  8
0
  5
311F
 10
88.6496
 20
184.851
 30
0.00000
  70
    32
  0
VERTEX
  8
0
  5
3120
 10
88.6545
 20
184.855
 30
0.00000
  70
    32
  0
VERTEX
  8
0
  5
3121
 10
88.6594
 20
184.858
 30
0.00000
  70
    32
  0
VERTEX
  8
0
  5
3122
 10
88.6643
 20
184.862
 30
0.00000
  70
    32
  0
VERTEX
  8
0
  5
3123
 10
88.6692
 20
184.866
 30
0.00000
  70
    32
  0
VERTEX
  8
0
  5
3124
 10
88.6741
 20
184.869
 30
0.00000
  70
    32
  0
VERTEX
  8
0
  5
3125
 10
88.6790
 20
184.873
 30
0.00000
  70
    32
  0
VERTEX
  8
0
  5
3126
 10
88.6838
 20
184.877
 30
0.00000
  70
    32
  0
VERTEX
  8
0
  5
3127
 10
88.6887
 20
184.880
 30
0.00000
  70
    32
  0
VERTEX
  8
0
  5
3128
 10
88.6936
 20
184.884
 30
0.00000
  70
    32
  0
VERTEX
  8
0
  5
3129
 10
88.6984
 20
184.888
 30
0.00000
  70
    32
  0
VERTEX
  8
0
  5
312A
 10
88.7033
 20
184.891
 30
0.00000
  70
    32
  0
VERTEX
  8
0
  5
312B
 10
88.7081
 20
184.895
 30
0.00000
  70
    32
  0
VERTEX
  8
0
  5
312C
 10
88.7129
 20
184.899
 30
0.00000
  70
    32
  0
VERTEX
  8
0
  5
312D
 10
88.7178
 20
184.903
 30
0.00000
  70
    32
  0
VERTEX
  8
0
  5
312E
 10
88.7226
 20
184.906
 30
0.00000
  70
    32
  0
VERTEX
  8
0
  5
312F
 10
88.7274
 20
184.910
 30
0.00000
  70
    32
  0
VERTEX
  8
0
  5
3130
 10
88.7323
 20
184.914
 30
0.00000
  70
    32
  0
VERTEX
  8
0
  5
3131
 10
88.7371
 20
184.917
 30
0.00000
  70
    32
  0
VERTEX
  8
0
  5
3132
 10
88.7419
 20
184.921
 30
0.00000
  70
    32
  0
VERTEX
  8
0
  5
3133
 10
88.7467
 20
184.925
 30
0.00000
  70
    32
  0
VERTEX
  8
0
  5
3134
 10
88.7515
 20
184.929
 30
0.00000
  70
    32
  0
VERTEX
  8
0
  5
3135
 10
88.7563
 20
184.932
 30
0.00000
  70
    32
  0
VERTEX
  8
0
  5
3136
 10
88.7610
 20
184.936
 30
0.00000
  70
    32
  0
VERTEX
  8
0
  5
3137
 10
88.7658
 20
184.940
 30
0.00000
  70
    32
  0
VERTEX
  8
0
  5
3138
 10
88.7706
 20
184.944
 30
0.00000
  70
    32
  0
VERTEX
  8
0
  5
3139
 10
88.7754
 20
184.947
 30
0.00000
  70
    32
  0
VERTEX
  8
0
  5
313A
 10
88.7801
 20
184.951
 30
0.00000
  70
    32
  0
VERTEX
  8
0
  5
313B
 10
88.7849
 20
184.955
 30
0.00000
  70
    32
  0
VERTEX
  8
0
  5
313C
 10
88.7896
 20
184.959
 30
0.00000
  70
    32
  0
VERTEX
  8
0
  5
313D
 10
88.7944
 20
184.962
 30
0.00000
  70
    32
  0
VERTEX
  8
0
  5
313E
 10
88.7991
 20
184.966
 30
0.00000
  70
    32
  0
VERTEX
  8
0
  5
313F
 10
88.8039
 20
184.970
 30
0.00000
  70
    32
  0
VERTEX
  8
0
  5
3140
 10
88.8086
 20
184.974
 30
0.00000
  70
    32
  0
VERTEX
  8
0
  5
3141
 10
88.8133
 20
184.977
 30
0.00000
  70
    32
  0
VERTEX
  8
0
  5
3142
 10
88.8180
 20
184.981
 30
0.00000
  70
    32
  0
VERTEX
  8
0
  5
3143
 10
88.8228
 20
184.985
 30
0.00000
  70
    32
  0
VERTEX
  8
0
  5
3144
 10
88.8275
 20
184.989
 30
0.00000
  70
    32
  0
VERTEX
  8
0
  5
3145
 10
88.8322
 20
184.992
 30
0.00000
  70
    32
  0
VERTEX
  8
0
  5
3146
 10
88.8369
 20
184.996
 30
0.00000
  70
    32
  0
VERTEX
  8
0
  5
3147
 10
88.8416
 20
185.000
 30
0.00000
  70
    32
  0
VERTEX
  8
0
  5
3148
 10
88.8462
 20
185.004
 30
0.00000
  70
    32
  0
VERTEX
  8
0
  5
3149
 10
88.8509
 20
185.008
 30
0.00000
  70
    32
  0
VERTEX
  8
0
  5
314A
 10
88.8556
 20
185.011
 30
0.00000
  70
    32
  0
VERTEX
  8
0
  5
314B
 10
88.8603
 20
185.015
 30
0.00000
  70
    32
  0
VERTEX
  8
0
  5
314C
 10
88.8649
 20
185.019
 30
0.00000
  70
    32
  0
VERTEX
  8
0
  5
314D
 10
88.8696
 20
185.023
 30
0.00000
  70
    32
  0
VERTEX
  8
0
  5
314E
 10
88.8742
 20
185.027
 30
0.00000
  70
    32
  0
VERTEX
  8
0
  5
314F
 10
88.8789
 20
185.030
 30
0.00000
  70
    32
  0
VERTEX
  8
0
  5
3150
 10
88.8835
 20
185.034
 30
0.00000
  70
    32
  0
VERTEX
  8
0
  5
3151
 10
88.8882
 20
185.038
 30
0.00000
  70
    32
  0
VERTEX
  8
0
  5
3152
 10
88.8928
 20
185.042
 30
0.00000
  70
    32
  0
VERTEX
  8
0
  5
3153
 10
88.8974
 20
185.046
 30
0.00000
  70
    32
  0
VERTEX
  8
0
  5
3154
 10
88.9020
 20
185.049
 30
0.00000
  70
    32
  0
VERTEX
  8
0
  5
3155
 10
88.9067
 20
185.053
 30
0.00000
  70
    32
  0
VERTEX
  8
0
  5
3156
 10
88.9113
 20
185.057
 30
0.00000
  70
    32
  0
VERTEX
  8
0
  5
3157
 10
88.9159
 20
185.061
 30
0.00000
  70
    32
  0
VERTEX
  8
0
  5
3158
 10
88.9205
 20
185.065
 30
0.00000
  70
    32
  0
VERTEX
  8
0
  5
3159
 10
88.9251
 20
185.069
 30
0.00000
  70
    32
  0
VERTEX
  8
0
  5
315A
 10
88.9296
 20
185.073
 30
0.00000
  70
    32
  0
VERTEX
  8
0
  5
315B
 10
88.9342
 20
185.076
 30
0.00000
  70
    32
  0
VERTEX
  8
0
  5
315C
 10
88.9388
 20
185.080
 30
0.00000
  70
    32
  0
VERTEX
  8
0
  5
315D
 10
88.9434
 20
185.084
 30
0.00000
  70
    32
  0
VERTEX
  8
0
  5
315E
 10
88.9479
 20
185.088
 30
0.00000
  70
    32
  0
VERTEX
  8
0
  5
315F
 10
88.9525
 20
185.092
 30
0.00000
  70
    32
  0
VERTEX
  8
0
  5
3160
 10
88.9570
 20
185.096
 30
0.00000
  70
    32
  0
VERTEX
  8
0
  5
3161
 10
88.9616
 20
185.100
 30
0.00000
  70
    32
  0
VERTEX
  8
0
  5
3162
 10
88.9661
 20
185.103
 30
0.00000
  70
    32
  0
SEQEND
  8
0
  5
3163
  0
LINE
  5
2B7A
  8
0
 10
88.3405219431201942
 20
184.6339751884372049
 30
0.0
 11
86.9997510789824844
 21
184.6339751725450071
 31
0.0
  0
LINE
  5
2B7C
  8
0
 10
88.3405219566667057
 20
182.2046893491416881
 30
0.0
 11
88.3405219431201942
 21
184.6339751884372049
 31
0.0
  0
POLYLINE
  5
2B7F
  8
0
 10
102.6966416618141977
 20
183.3467328433690398
 30
0.0
 66
     1
 70
     8
  0
VERTEX
  8
0
  5
3164
 10
102.697
 20
183.347
 30
0.00000
  70
    32
  0
VERTEX
  8
0
  5
3165
 10
102.721
 20
183.351
 30
0.00000
  70
    32
  0
VERTEX
  8
0
  5
3166
 10
102.745
 20
183.355
 30
0.00000
  70
    32
  0
VERTEX
  8
0
  5
3167
 10
102.769
 20
183.359
 30
0.00000
  70
    32
  0
VERTEX
  8
0
  5
3168
 10
102.793
 20
183.363
 30
0.00000
  70
    32
  0
VERTEX
  8
0
  5
3169
 10
102.817
 20
183.367
 30
0.00000
  70
    32
  0
VERTEX
  8
0
  5
316A
 10
102.841
 20
183.372
 30
0.00000
  70
    32
  0
VERTEX
  8
0
  5
316B
 10
102.865
 20
183.376
 30
0.00000
  70
    32
  0
VERTEX
  8
0
  5
316C
 10
102.890
 20
183.380
 30
0.00000
  70
    32
  0
VERTEX
  8
0
  5
316D
 10
102.914
 20
183.385
 30
0.00000
  70
    32
  0
VERTEX
  8
0
  5
316E
 10
102.938
 20
183.389
 30
0.00000
  70
    32
  0
VERTEX
  8
0
  5
316F
 10
102.962
 20
183.394
 30
0.00000
  70
    32
  0
VERTEX
  8
0
  5
3170
 10
102.985
 20
183.398
 30
0.00000
  70
    32
  0
VERTEX
  8
0
  5
3171
 10
103.009
 20
183.403
 30
0.00000
  70
    32
  0
VERTEX
  8
0
  5
3172
 10
103.033
 20
183.408
 30
0.00000
  70
    32
  0
VERTEX
  8
0
  5
3173
 10
103.057
 20
183.412
 30
0.00000
  70
    32
  0
VERTEX
  8
0
  5
3174
 10
103.081
 20
183.417
 30
0.00000
  70
    32
  0
VERTEX
  8
0
  5
3175
 10
103.105
 20
183.422
 30
0.00000
  70
    32
  0
VERTEX
  8
0
  5
3176
 10
103.129
 20
183.427
 30
0.00000
  70
    32
  0
VERTEX
  8
0
  5
3177
 10
103.152
 20
183.432
 30
0.00000
  70
    32
  0
VERTEX
  8
0
  5
3178
 10
103.176
 20
183.437
 30
0.00000
  70
    32
  0
VERTEX
  8
0
  5
3179
 10
103.200
 20
183.442
 30
0.00000
  70
    32
  0
VERTEX
  8
0
  5
317A
 10
103.224
 20
183.447
 30
0.00000
  70
    32
  0
VERTEX
  8
0
  5
317B
 10
103.247
 20
183.453
 30
0.00000
  70
    32
  0
VERTEX
  8
0
  5
317C
 10
103.271
 20
183.458
 30
0.00000
  70
    32
  0
VERTEX
  8
0
  5
317D
 10
103.295
 20
183.463
 30
0.00000
  70
    32
  0
VERTEX
  8
0
  5
317E
 10
103.318
 20
183.468
 30
0.00000
  70
    32
  0
VERTEX
  8
0
  5
317F
 10
103.342
 20
183.474
 30
0.00000
  70
    32
  0
VERTEX
  8
0
  5
3180
 10
103.365
 20
183.479
 30
0.00000
  70
    32
  0
VERTEX
  8
0
  5
3181
 10
103.389
 20
183.485
 30
0.00000
  70
    32
  0
VERTEX
  8
0
  5
3182
 10
103.412
 20
183.490
 30
0.00000
  70
    32
  0
VERTEX
  8
0
  5
3183
 10
103.436
 20
183.496
 30
0.00000
  70
    32
  0
VERTEX
  8
0
  5
3184
 10
103.459
 20
183.502
 30
0.00000
  70
    32
  0
VERTEX
  8
0
  5
3185
 10
103.483
 20
183.507
 30
0.00000
  70
    32
  0
VERTEX
  8
0
  5
3186
 10
103.506
 20
183.513
 30
0.00000
  70
    32
  0
VERTEX
  8
0
  5
3187
 10
103.529
 20
183.519
 30
0.00000
  70
    32
  0
VERTEX
  8
0
  5
3188
 10
103.553
 20
183.525
 30
0.00000
  70
    32
  0
VERTEX
  8
0
  5
3189
 10
103.576
 20
183.531
 30
0.00000
  70
    32
  0
VERTEX
  8
0
  5
318A
 10
103.599
 20
183.537
 30
0.00000
  70
    32
  0
VERTEX
  8
0
  5
318B
 10
103.622
 20
183.543
 30
0.00000
  70
    32
  0
VERTEX
  8
0
  5
318C
 10
103.646
 20
183.549
 30
0.00000
  70
    32
  0
VERTEX
  8
0
  5
318D
 10
103.669
 20
183.555
 30
0.00000
  70
    32
  0
VERTEX
  8
0
  5
318E
 10
103.692
 20
183.561
 30
0.00000
  70
    32
  0
VERTEX
  8
0
  5
318F
 10
103.715
 20
183.568
 30
0.00000
  70
    32
  0
VERTEX
  8
0
  5
3190
 10
103.738
 20
183.574
 30
0.00000
  70
    32
  0
VERTEX
  8
0
  5
3191
 10
103.761
 20
183.580
 30
0.00000
  70
    32
  0
VERTEX
  8
0
  5
3192
 10
103.784
 20
183.587
 30
0.00000
  70
    32
  0
VERTEX
  8
0
  5
3193
 10
103.807
 20
183.593
 30
0.00000
  70
    32
  0
VERTEX
  8
0
  5
3194
 10
103.830
 20
183.600
 30
0.00000
  70
    32
  0
VERTEX
  8
0
  5
3195
 10
103.853
 20
183.606
 30
0.00000
  70
    32
  0
VERTEX
  8
0
  5
3196
 10
103.876
 20
183.613
 30
0.00000
  70
    32
  0
VERTEX
  8
0
  5
3197
 10
103.899
 20
183.620
 30
0.00000
  70
    32
  0
VERTEX
  8
0
  5
3198
 10
103.922
 20
183.626
 30
0.00000
  70
    32
  0
VERTEX
  8
0
  5
3199
 10
103.944
 20
183.633
 30
0.00000
  70
    32
  0
VERTEX
  8
0
  5
319A
 10
103.967
 20
183.640
 30
0.00000
  70
    32
  0
VERTEX
  8
0
  5
319B
 10
103.990
 20
183.647
 30
0.00000
  70
    32
  0
VERTEX
  8
0
  5
319C
 10
104.013
 20
183.654
 30
0.00000
  70
    32
  0
VERTEX
  8
0
  5
319D
 10
104.035
 20
183.661
 30
0.00000
  70
    32
  0
VERTEX
  8
0
  5
319E
 10
104.058
 20
183.668
 30
0.00000
  70
    32
  0
VERTEX
  8
0
  5
319F
 10
104.080
 20
183.675
 30
0.00000
  70
    32
  0
VERTEX
  8
0
  5
31A0
 10
104.103
 20
183.682
 30
0.00000
  70
    32
  0
VERTEX
  8
0
  5
31A1
 10
104.125
 20
183.689
 30
0.00000
  70
    32
  0
VERTEX
  8
0
  5
31A2
 10
104.148
 20
183.696
 30
0.00000
  70
    32
  0
VERTEX
  8
0
  5
31A3
 10
104.170
 20
183.704
 30
0.00000
  70
    32
  0
VERTEX
  8
0
  5
31A4
 10
104.193
 20
183.711
 30
0.00000
  70
    32
  0
VERTEX
  8
0
  5
31A5
 10
104.215
 20
183.718
 30
0.00000
  70
    32
  0
VERTEX
  8
0
  5
31A6
 10
104.237
 20
183.726
 30
0.00000
  70
    32
  0
VERTEX
  8
0
  5
31A7
 10
104.260
 20
183.733
 30
0.00000
  70
    32
  0
VERTEX
  8
0
  5
31A8
 10
104.282
 20
183.741
 30
0.00000
  70
    32
  0
VERTEX
  8
0
  5
31A9
 10
104.304
 20
183.748
 30
0.00000
  70
    32
  0
VERTEX
  8
0
  5
31AA
 10
104.326
 20
183.756
 30
0.00000
  70
    32
  0
VERTEX
  8
0
  5
31AB
 10
104.348
 20
183.764
 30
0.00000
  70
    32
  0
VERTEX
  8
0
  5
31AC
 10
104.371
 20
183.772
 30
0.00000
  70
    32
  0
VERTEX
  8
0
  5
31AD
 10
104.393
 20
183.779
 30
0.00000
  70
    32
  0
VERTEX
  8
0
  5
31AE
 10
104.415
 20
183.787
 30
0.00000
  70
    32
  0
VERTEX
  8
0
  5
31AF
 10
104.437
 20
183.795
 30
0.00000
  70
    32
  0
VERTEX
  8
0
  5
31B0
 10
104.459
 20
183.803
 30
0.00000
  70
    32
  0
VERTEX
  8
0
  5
31B1
 10
104.480
 20
183.811
 30
0.00000
  70
    32
  0
VERTEX
  8
0
  5
31B2
 10
104.502
 20
183.819
 30
0.00000
  70
    32
  0
VERTEX
  8
0
  5
31B3
 10
104.524
 20
183.827
 30
0.00000
  70
    32
  0
VERTEX
  8
0
  5
31B4
 10
104.546
 20
183.835
 30
0.00000
  70
    32
  0
VERTEX
  8
0
  5
31B5
 10
104.568
 20
183.843
 30
0.00000
  70
    32
  0
VERTEX
  8
0
  5
31B6
 10
104.589
 20
183.852
 30
0.00000
  70
    32
  0
VERTEX
  8
0
  5
31B7
 10
104.611
 20
183.860
 30
0.00000
  70
    32
  0
VERTEX
  8
0
  5
31B8
 10
104.633
 20
183.868
 30
0.00000
  70
    32
  0
VERTEX
  8
0
  5
31B9
 10
104.654
 20
183.877
 30
0.00000
  70
    32
  0
VERTEX
  8
0
  5
31BA
 10
104.676
 20
183.885
 30
0.00000
  70
    32
  0
VERTEX
  8
0
  5
31BB
 10
104.697
 20
183.894
 30
0.00000
  70
    32
  0
VERTEX
  8
0
  5
31BC
 10
104.719
 20
183.902
 30
0.00000
  70
    32
  0
VERTEX
  8
0
  5
31BD
 10
104.740
 20
183.911
 30
0.00000
  70
    32
  0
VERTEX
  8
0
  5
31BE
 10
104.761
 20
183.919
 30
0.00000
  70
    32
  0
VERTEX
  8
0
  5
31BF
 10
104.783
 20
183.928
 30
0.00000
  70
    32
  0
VERTEX
  8
0
  5
31C0
 10
104.804
 20
183.937
 30
0.00000
  70
    32
  0
VERTEX
  8
0
  5
31C1
 10
104.825
 20
183.946
 30
0.00000
  70
    32
  0
VERTEX
  8
0
  5
31C2
 10
104.846
 20
183.954
 30
0.00000
  70
    32
  0
VERTEX
  8
0
  5
31C3
 10
104.868
 20
183.963
 30
0.00000
  70
    32
  0
VERTEX
  8
0
  5
31C4
 10
104.889
 20
183.972
 30
0.00000
  70
    32
  0
VERTEX
  8
0
  5
31C5
 10
104.910
 20
183.981
 30
0.00000
  70
    32
  0
VERTEX
  8
0
  5
31C6
 10
104.931
 20
183.990
 30
0.00000
  70
    32
  0
VERTEX
  8
0
  5
31C7
 10
104.952
 20
183.999
 30
0.00000
  70
    32
  0
VERTEX
  8
0
  5
31C8
 10
104.973
 20
184.008
 30
0.00000
  70
    32
  0
VERTEX
  8
0
  5
31C9
 10
104.993
 20
184.017
 30
0.00000
  70
    32
  0
VERTEX
  8
0
  5
31CA
 10
105.014
 20
184.027
 30
0.00000
  70
    32
  0
VERTEX
  8
0
  5
31CB
 10
105.035
 20
184.036
 30
0.00000
  70
    32
  0
VERTEX
  8
0
  5
31CC
 10
105.056
 20
184.045
 30
0.00000
  70
    32
  0
VERTEX
  8
0
  5
31CD
 10
105.077
 20
184.055
 30
0.00000
  70
    32
  0
VERTEX
  8
0
  5
31CE
 10
105.097
 20
184.064
 30
0.00000
  70
    32
  0
VERTEX
  8
0
  5
31CF
 10
105.118
 20
184.073
 30
0.00000
  70
    32
  0
VERTEX
  8
0
  5
31D0
 10
105.138
 20
184.083
 30
0.00000
  70
    32
  0
VERTEX
  8
0
  5
31D1
 10
105.159
 20
184.092
 30
0.00000
  70
    32
  0
VERTEX
  8
0
  5
31D2
 10
105.179
 20
184.102
 30
0.00000
  70
    32
  0
VERTEX
  8
0
  5
31D3
 10
105.200
 20
184.112
 30
0.00000
  70
    32
  0
VERTEX
  8
0
  5
31D4
 10
105.220
 20
184.121
 30
0.00000
  70
    32
  0
VERTEX
  8
0
  5
31D5
 10
105.240
 20
184.131
 30
0.00000
  70
    32
  0
VERTEX
  8
0
  5
31D6
 10
105.261
 20
184.141
 30
0.00000
  70
    32
  0
VERTEX
  8
0
  5
31D7
 10
105.281
 20
184.151
 30
0.00000
  70
    32
  0
VERTEX
  8
0
  5
31D8
 10
105.301
 20
184.160
 30
0.00000
  70
    32
  0
VERTEX
  8
0
  5
31D9
 10
105.321
 20
184.170
 30
0.00000
  70
    32
  0
VERTEX
  8
0
  5
31DA
 10
105.341
 20
184.180
 30
0.00000
  70
    32
  0
VERTEX
  8
0
  5
31DB
 10
105.361
 20
184.190
 30
0.00000
  70
    32
  0
VERTEX
  8
0
  5
31DC
 10
105.381
 20
184.200
 30
0.00000
  70
    32
  0
VERTEX
  8
0
  5
31DD
 10
105.401
 20
184.210
 30
0.00000
  70
    32
  0
VERTEX
  8
0
  5
31DE
 10
105.421
 20
184.220
 30
0.00000
  70
    32
  0
VERTEX
  8
0
  5
31DF
 10
105.441
 20
184.231
 30
0.00000
  70
    32
  0
VERTEX
  8
0
  5
31E0
 10
105.461
 20
184.241
 30
0.00000
  70
    32
  0
VERTEX
  8
0
  5
31E1
 10
105.480
 20
184.251
 30
0.00000
  70
    32
  0
VERTEX
  8
0
  5
31E2
 10
105.500
 20
184.261
 30
0.00000
  70
    32
  0
VERTEX
  8
0
  5
31E3
 10
105.520
 20
184.272
 30
0.00000
  70
    32
  0
VERTEX
  8
0
  5
31E4
 10
105.539
 20
184.282
 30
0.00000
  70
    32
  0
SEQEND
  8
0
  5
31E5
  0
POLYLINE
  5
2B81
  8
0
 10
105.5390861300759298
 20
192.1272416060788544
 30
0.0
 66
     1
 70
     8
  0
VERTEX
  8
0
  5
31E6
 10
105.539
 20
192.127
 30
0.00000
  70
    32
  0
VERTEX
  8
0
  5
31E7
 10
105.520
 20
192.138
 30
0.00000
  70
    32
  0
VERTEX
  8
0
  5
31E8
 10
105.500
 20
192.148
 30
0.00000
  70
    32
  0
VERTEX
  8
0
  5
31E9
 10
105.480
 20
192.158
 30
0.00000
  70
    32
  0
VERTEX
  8
0
  5
31EA
 10
105.461
 20
192.169
 30
0.00000
  70
    32
  0
VERTEX
  8
0
  5
31EB
 10
105.441
 20
192.179
 30
0.00000
  70
    32
  0
VERTEX
  8
0
  5
31EC
 10
105.421
 20
192.189
 30
0.00000
  70
    32
  0
VERTEX
  8
0
  5
31ED
 10
105.401
 20
192.199
 30
0.00000
  70
    32
  0
VERTEX
  8
0
  5
31EE
 10
105.381
 20
192.209
 30
0.00000
  70
    32
  0
VERTEX
  8
0
  5
31EF
 10
105.361
 20
192.219
 30
0.00000
  70
    32
  0
VERTEX
  8
0
  5
31F0
 10
105.341
 20
192.229
 30
0.00000
  70
    32
  0
VERTEX
  8
0
  5
31F1
 10
105.321
 20
192.239
 30
0.00000
  70
    32
  0
VERTEX
  8
0
  5
31F2
 10
105.301
 20
192.249
 30
0.00000
  70
    32
  0
VERTEX
  8
0
  5
31F3
 10
105.281
 20
192.259
 30
0.00000
  70
    32
  0
VERTEX
  8
0
  5
31F4
 10
105.261
 20
192.269
 30
0.00000
  70
    32
  0
VERTEX
  8
0
  5
31F5
 10
105.240
 20
192.278
 30
0.00000
  70
    32
  0
VERTEX
  8
0
  5
31F6
 10
105.220
 20
192.288
 30
0.00000
  70
    32
  0
VERTEX
  8
0
  5
31F7
 10
105.200
 20
192.298
 30
0.00000
  70
    32
  0
VERTEX
  8
0
  5
31F8
 10
105.179
 20
192.307
 30
0.00000
  70
    32
  0
VERTEX
  8
0
  5
31F9
 10
105.159
 20
192.317
 30
0.00000
  70
    32
  0
VERTEX
  8
0
  5
31FA
 10
105.138
 20
192.327
 30
0.00000
  70
    32
  0
VERTEX
  8
0
  5
31FB
 10
105.118
 20
192.336
 30
0.00000
  70
    32
  0
VERTEX
  8
0
  5
31FC
 10
105.097
 20
192.345
 30
0.00000
  70
    32
  0
VERTEX
  8
0
  5
31FD
 10
105.077
 20
192.355
 30
0.00000
  70
    32
  0
VERTEX
  8
0
  5
31FE
 10
105.056
 20
192.364
 30
0.00000
  70
    32
  0
VERTEX
  8
0
  5
31FF
 10
105.035
 20
192.373
 30
0.00000
  70
    32
  0
VERTEX
  8
0
  5
3200
 10
105.014
 20
192.383
 30
0.00000
  70
    32
  0
VERTEX
  8
0
  5
3201
 10
104.993
 20
192.392
 30
0.00000
  70
    32
  0
VERTEX
  8
0
  5
3202
 10
104.973
 20
192.401
 30
0.00000
  70
    32
  0
VERTEX
  8
0
  5
3203
 10
104.952
 20
192.410
 30
0.00000
  70
    32
  0
VERTEX
  8
0
  5
3204
 10
104.931
 20
192.419
 30
0.00000
  70
    32
  0
VERTEX
  8
0
  5
3205
 10
104.910
 20
192.428
 30
0.00000
  70
    32
  0
VERTEX
  8
0
  5
3206
 10
104.889
 20
192.437
 30
0.00000
  70
    32
  0
VERTEX
  8
0
  5
3207
 10
104.868
 20
192.446
 30
0.00000
  70
    32
  0
VERTEX
  8
0
  5
3208
 10
104.846
 20
192.455
 30
0.00000
  70
    32
  0
VERTEX
  8
0
  5
3209
 10
104.825
 20
192.464
 30
0.00000
  70
    32
  0
VERTEX
  8
0
  5
320A
 10
104.804
 20
192.473
 30
0.00000
  70
    32
  0
VERTEX
  8
0
  5
320B
 10
104.783
 20
192.481
 30
0.00000
  70
    32
  0
VERTEX
  8
0
  5
320C
 10
104.761
 20
192.490
 30
0.00000
  70
    32
  0
VERTEX
  8
0
  5
320D
 10
104.740
 20
192.499
 30
0.00000
  70
    32
  0
VERTEX
  8
0
  5
320E
 10
104.719
 20
192.507
 30
0.00000
  70
    32
  0
VERTEX
  8
0
  5
320F
 10
104.697
 20
192.516
 30
0.00000
  70
    32
  0
VERTEX
  8
0
  5
3210
 10
104.676
 20
192.524
 30
0.00000
  70
    32
  0
VERTEX
  8
0
  5
3211
 10
104.654
 20
192.533
 30
0.00000
  70
    32
  0
VERTEX
  8
0
  5
3212
 10
104.633
 20
192.541
 30
0.00000
  70
    32
  0
VERTEX
  8
0
  5
3213
 10
104.611
 20
192.549
 30
0.00000
  70
    32
  0
VERTEX
  8
0
  5
3214
 10
104.589
 20
192.558
 30
0.00000
  70
    32
  0
VERTEX
  8
0
  5
3215
 10
104.568
 20
192.566
 30
0.00000
  70
    32
  0
VERTEX
  8
0
  5
3216
 10
104.546
 20
192.574
 30
0.00000
  70
    32
  0
VERTEX
  8
0
  5
3217
 10
104.524
 20
192.582
 30
0.00000
  70
    32
  0
VERTEX
  8
0
  5
3218
 10
104.502
 20
192.590
 30
0.00000
  70
    32
  0
VERTEX
  8
0
  5
3219
 10
104.480
 20
192.598
 30
0.00000
  70
    32
  0
VERTEX
  8
0
  5
321A
 10
104.459
 20
192.606
 30
0.00000
  70
    32
  0
VERTEX
  8
0
  5
321B
 10
104.437
 20
192.614
 30
0.00000
  70
    32
  0
VERTEX
  8
0
  5
321C
 10
104.415
 20
192.622
 30
0.00000
  70
    32
  0
VERTEX
  8
0
  5
321D
 10
104.393
 20
192.630
 30
0.00000
  70
    32
  0
VERTEX
  8
0
  5
321E
 10
104.371
 20
192.638
 30
0.00000
  70
    32
  0
VERTEX
  8
0
  5
321F
 10
104.348
 20
192.646
 30
0.00000
  70
    32
  0
VERTEX
  8
0
  5
3220
 10
104.326
 20
192.653
 30
0.00000
  70
    32
  0
VERTEX
  8
0
  5
3221
 10
104.304
 20
192.661
 30
0.00000
  70
    32
  0
VERTEX
  8
0
  5
3222
 10
104.282
 20
192.669
 30
0.00000
  70
    32
  0
VERTEX
  8
0
  5
3223
 10
104.260
 20
192.676
 30
0.00000
  70
    32
  0
VERTEX
  8
0
  5
3224
 10
104.237
 20
192.684
 30
0.00000
  70
    32
  0
VERTEX
  8
0
  5
3225
 10
104.215
 20
192.691
 30
0.00000
  70
    32
  0
VERTEX
  8
0
  5
3226
 10
104.193
 20
192.698
 30
0.00000
  70
    32
  0
VERTEX
  8
0
  5
3227
 10
104.170
 20
192.706
 30
0.00000
  70
    32
  0
VERTEX
  8
0
  5
3228
 10
104.148
 20
192.713
 30
0.00000
  70
    32
  0
VERTEX
  8
0
  5
3229
 10
104.125
 20
192.720
 30
0.00000
  70
    32
  0
VERTEX
  8
0
  5
322A
 10
104.103
 20
192.727
 30
0.00000
  70
    32
  0
VERTEX
  8
0
  5
322B
 10
104.080
 20
192.735
 30
0.00000
  70
    32
  0
VERTEX
  8
0
  5
322C
 10
104.058
 20
192.742
 30
0.00000
  70
    32
  0
VERTEX
  8
0
  5
322D
 10
104.035
 20
192.749
 30
0.00000
  70
    32
  0
VERTEX
  8
0
  5
322E
 10
104.013
 20
192.756
 30
0.00000
  70
    32
  0
VERTEX
  8
0
  5
322F
 10
103.990
 20
192.763
 30
0.00000
  70
    32
  0
VERTEX
  8
0
  5
3230
 10
103.967
 20
192.769
 30
0.00000
  70
    32
  0
VERTEX
  8
0
  5
3231
 10
103.944
 20
192.776
 30
0.00000
  70
    32
  0
VERTEX
  8
0
  5
3232
 10
103.922
 20
192.783
 30
0.00000
  70
    32
  0
VERTEX
  8
0
  5
3233
 10
103.899
 20
192.790
 30
0.00000
  70
    32
  0
VERTEX
  8
0
  5
3234
 10
103.876
 20
192.796
 30
0.00000
  70
    32
  0
VERTEX
  8
0
  5
3235
 10
103.853
 20
192.803
 30
0.00000
  70
    32
  0
VERTEX
  8
0
  5
3236
 10
103.830
 20
192.810
 30
0.00000
  70
    32
  0
VERTEX
  8
0
  5
3237
 10
103.807
 20
192.816
 30
0.00000
  70
    32
  0
VERTEX
  8
0
  5
3238
 10
103.784
 20
192.823
 30
0.00000
  70
    32
  0
VERTEX
  8
0
  5
3239
 10
103.761
 20
192.829
 30
0.00000
  70
    32
  0
VERTEX
  8
0
  5
323A
 10
103.738
 20
192.835
 30
0.00000
  70
    32
  0
VERTEX
  8
0
  5
323B
 10
103.715
 20
192.842
 30
0.00000
  70
    32
  0
VERTEX
  8
0
  5
323C
 10
103.692
 20
192.848
 30
0.00000
  70
    32
  0
VERTEX
  8
0
  5
323D
 10
103.669
 20
192.854
 30
0.00000
  70
    32
  0
VERTEX
  8
0
  5
323E
 10
103.646
 20
192.860
 30
0.00000
  70
    32
  0
VERTEX
  8
0
  5
323F
 10
103.622
 20
192.866
 30
0.00000
  70
    32
  0
VERTEX
  8
0
  5
3240
 10
103.599
 20
192.872
 30
0.00000
  70
    32
  0
VERTEX
  8
0
  5
3241
 10
103.576
 20
192.878
 30
0.00000
  70
    32
  0
VERTEX
  8
0
  5
3242
 10
103.553
 20
192.884
 30
0.00000
  70
    32
  0
VERTEX
  8
0
  5
3243
 10
103.529
 20
192.890
 30
0.00000
  70
    32
  0
VERTEX
  8
0
  5
3244
 10
103.506
 20
192.896
 30
0.00000
  70
    32
  0
VERTEX
  8
0
  5
3245
 10
103.483
 20
192.902
 30
0.00000
  70
    32
  0
VERTEX
  8
0
  5
3246
 10
103.459
 20
192.908
 30
0.00000
  70
    32
  0
VERTEX
  8
0
  5
3247
 10
103.436
 20
192.913
 30
0.00000
  70
    32
  0
VERTEX
  8
0
  5
3248
 10
103.412
 20
192.919
 30
0.00000
  70
    32
  0
VERTEX
  8
0
  5
3249
 10
103.389
 20
192.925
 30
0.00000
  70
    32
  0
VERTEX
  8
0
  5
324A
 10
103.365
 20
192.930
 30
0.00000
  70
    32
  0
VERTEX
  8
0
  5
324B
 10
103.342
 20
192.936
 30
0.00000
  70
    32
  0
VERTEX
  8
0
  5
324C
 10
103.318
 20
192.941
 30
0.00000
  70
    32
  0
VERTEX
  8
0
  5
324D
 10
103.295
 20
192.946
 30
0.00000
  70
    32
  0
VERTEX
  8
0
  5
324E
 10
103.271
 20
192.952
 30
0.00000
  70
    32
  0
VERTEX
  8
0
  5
324F
 10
103.247
 20
192.957
 30
0.00000
  70
    32
  0
VERTEX
  8
0
  5
3250
 10
103.224
 20
192.962
 30
0.00000
  70
    32
  0
VERTEX
  8
0
  5
3251
 10
103.200
 20
192.967
 30
0.00000
  70
    32
  0
VERTEX
  8
0
  5
3252
 10
103.176
 20
192.972
 30
0.00000
  70
    32
  0
VERTEX
  8
0
  5
3253
 10
103.152
 20
192.977
 30
0.00000
  70
    32
  0
VERTEX
  8
0
  5
3254
 10
103.129
 20
192.982
 30
0.00000
  70
    32
  0
VERTEX
  8
0
  5
3255
 10
103.105
 20
192.987
 30
0.00000
  70
    32
  0
VERTEX
  8
0
  5
3256
 10
103.081
 20
192.992
 30
0.00000
  70
    32
  0
VERTEX
  8
0
  5
3257
 10
103.057
 20
192.997
 30
0.00000
  70
    32
  0
VERTEX
  8
0
  5
3258
 10
103.033
 20
193.002
 30
0.00000
  70
    32
  0
VERTEX
  8
0
  5
3259
 10
103.009
 20
193.006
 30
0.00000
  70
    32
  0
VERTEX
  8
0
  5
325A
 10
102.985
 20
193.011
 30
0.00000
  70
    32
  0
VERTEX
  8
0
  5
325B
 10
102.962
 20
193.016
 30
0.00000
  70
    32
  0
VERTEX
  8
0
  5
325C
 10
102.938
 20
193.020
 30
0.00000
  70
    32
  0
VERTEX
  8
0
  5
325D
 10
102.914
 20
193.025
 30
0.00000
  70
    32
  0
VERTEX
  8
0
  5
325E
 10
102.890
 20
193.029
 30
0.00000
  70
    32
  0
VERTEX
  8
0
  5
325F
 10
102.865
 20
193.033
 30
0.00000
  70
    32
  0
VERTEX
  8
0
  5
3260
 10
102.841
 20
193.038
 30
0.00000
  70
    32
  0
VERTEX
  8
0
  5
3261
 10
102.817
 20
193.042
 30
0.00000
  70
    32
  0
VERTEX
  8
0
  5
3262
 10
102.793
 20
193.046
 30
0.00000
  70
    32
  0
VERTEX
  8
0
  5
3263
 10
102.769
 20
193.050
 30
0.00000
  70
    32
  0
VERTEX
  8
0
  5
3264
 10
102.745
 20
193.055
 30
0.00000
  70
    32
  0
VERTEX
  8
0
  5
3265
 10
102.721
 20
193.059
 30
0.00000
  70
    32
  0
VERTEX
  8
0
  5
3266
 10
102.697
 20
193.063
 30
0.00000
  70
    32
  0
SEQEND
  8
0
  5
3267
  0
ARC
  5
2B82
  8
0
 10
96.3405219264280674
 20
188.2046894071137046
 30
0.0
 40
8.0000000041121897
 50
37.3905329475240293
 51
322.6094669924099207
  0
LINE
  5
2B83
  8
0
 10
88.340521894047555
 20
191.7754036226066887
 30
0.0
 11
88.340521894047555
 21
194.2046893589115086
 31
0.0
  0
ARC
  5
2B84
  8
0
 10
96.3405219218460189
 20
188.2046893959758904
 30
0.0
 40
9.9999999997799751
 50
23.0948988929556798
 51
336.9051013391945162
  0
ARC
  5
2B86
  8
0
 10
97.0370606310767414
 20
188.6225139024271868
 30
0.0
 40
7.1934435497694373
 50
21.0364848442412899
 51
38.1153795856001381
  0
ARC
  5
2B87
  8
0
 10
96.6104043690531711
 20
188.0285953700661139
 30
0.0
 40
7.6786796447966514
 50
322.4305709241979798
 51
338.4225052921721044
  0
POLYLINE
  5
2B88
  8
0
 66
     1
 10
0.0
 20
0.0
 30
0.0
 70
   128
  0
VERTEX
  5
3058
  8
0
 10
105.5390861345000957
 20
192.1272416322563004
 30
0.0
  0
VERTEX
  5
3059
  8
0
 10
105.7621895589082044
 20
191.556133701420606
 30
0.0
  0
VERTEX
  5
305A
  8
0
 10
105.8731145156447013
 20
191.2046893957727036
 30
0.0
  0
SEQEND
  5
305B
  8
0
  0
POLYLINE
  5
2B89
  8
0
 66
     1
 10
0.0
 20
0.0
 30
0.0
 70
   128
  0
VERTEX
  5
305C
  8
0
 10
105.8744767976796055
 20
185.2046893957727036
 30
0.0
  0
VERTEX
  5
305D
  8
0
 10
105.7835707826233005
 20
184.9139709012654009
 30
0.0
  0
VERTEX
  5
305E
  8
0
 10
105.5390861747035984
 20
184.2821372057765927
 30
0.0
  0
SEQEND
  5
305F
  8
0
  0
ARC
  5
2B8A
  8
0
 10
29.6650038379842904
 20
146.2226526130947093
 30
0.0
 40
0.9999999999993548
 50
0.0000266241571915
 51
90.0
  0
ARC
  5
2B8B
  8
0
 10
16.6650038379828587
 20
146.2226526130947093
 30
0.0
 40
0.999999999999362
 50
90.0
 51
179.9999733758411935
  0
LINE
  5
2B8C
  8
0
 10
30.6650038379835514
 20
141.788038960254795
 30
0.0
 11
30.6650038379835514
 21
146.2226530777739129
 31
0.0
  0
LINE
  5
2B8D
  8
0
 10
15.6650038379835497
 20
146.2226530777739981
 30
0.0
 11
15.6650038379835497
 21
141.788038960254795
 31
0.0
  0
LINE
  5
2B8E
  8
0
 10
27.1650038379870189
 20
87.722652613048993
 30
0.0
 11
27.0650038379680602
 21
87.9974003550394741
 31
0.0
  0
LINE
  5
2B8F
  8
0
 10
19.2650038379986306
 20
87.9974003550394883
 30
0.0
 11
19.1650038379797394
 21
87.7226526130490356
 31
0.0
  0
LINE
  5
2B90
  8
0
 10
27.1650038379833205
 20
78.5226526130940101
 30
0.0
 11
27.1650038379833809
 21
87.722652613048993
 31
0.0
  0
LINE
  5
2B91
  8
0
 10
19.1650038379833809
 20
87.7226526130490356
 30
0.0
 11
19.1650038379833205
 21
78.5226526130940385
 31
0.0
  0
LINE
  5
2B92
  8
0
 10
19.1650038379916694
 20
78.5226526130940385
 30
0.0
 11
20.1530541873701914
 21
76.8112992075449483
 31
0.0
  0
LINE
  5
2B93
  8
0
 10
26.1769534885964497
 20
76.8112992075449199
 30
0.0
 11
27.1650038379750214
 21
78.5226526130940101
 31
0.0
  0
LINE
  5
2B94
  8
0
 10
27.0650038379833511
 20
87.9974003550394741
 30
0.0
 11
27.0650038379833511
 21
88.222652613094013
 31
0.0
  0
LINE
  5
2B95
  8
0
 10
19.2650038379833397
 20
88.2226526130940556
 30
0.0
 11
19.2650038379833397
 21
87.9974003550394883
 31
0.0
  0
ARC
  5
2B96
  8
0
 10
23.1650038379833809
 20
84.2226526130737341
 30
0.0
 40
7.99999999997336
 50
247.8833368673655002
 51
292.1166631326345282
  0
LINE
  5
2B97
  8
0
 10
33.1650038379833774
 20
89.7561526130940024
 30
0.0
 11
33.1650038379835479
 21
137.3265844783545049
 31
0.0
  0
LINE
  5
2B98
  8
0
 10
13.1650038379835497
 20
137.3265844783545049
 30
0.0
 11
13.1650038379833791
 21
89.756152613094045
 31
0.0
  0
LINE
  5
2B99
  8
0
 10
13.1650038379833791
 20
89.756152613094045
 30
0.0
 11
14.6985038379833792
 21
88.2226526130940556
 31
0.0
  0
LINE
  5
2B9A
  8
0
 10
31.6315038379833702
 20
88.2226526130939988
 30
0.0
 11
33.1650038379833774
 21
89.7561526130940024
 31
0.0
  0
LINE
  5
2B9B
  8
0
 10
29.665003878792799
 20
147.2226526130939988
 30
0.0
 11
16.6650037971743998
 21
147.2226526130939988
 31
0.0
  0
LINE
  5
2B9C
  8
0
 10
19.1650038379738312
 20
87.7226526130490356
 30
0.0
 11
27.1650038379929306
 21
87.722652613048993
 31
0.0
  0
LINE
  5
2B9D
  8
0
 10
19.2650038379897097
 20
87.9974003550571524
 30
0.0
 11
27.0650038379770486
 21
87.9974003550218526
 31
0.0
  0
LINE
  5
2B9E
  8
0
 10
19.1650038380353891
 20
78.522652612918705
 30
0.0
 11
27.1650038379312484
 21
78.5226526132693436
 31
0.0
  0
LINE
  5
2B9F
  8
0
 10
20.1530541873701914
 20
76.8112992075449483
 30
0.0
 11
26.1769534885964497
 21
76.8112992075449199
 31
0.0
  0
LINE
  5
2BA0
  8
0
 10
29.1650038846145883
 20
142.7226526130939988
 30
0.0
 11
26.7357180612112408
 21
142.7226526222312089
 31
0.0
  0
POLYLINE
  5
2BA1
  8
0
 10
33.1650038379835337
 20
137.326584478354448
 30
0.0
 66
     1
 70
     8
  0
VERTEX
  8
0
  5
3268
 10
33.1650
 20
137.327
 30
0.00000
  70
    32
  0
VERTEX
  8
0
  5
3269
 10
33.1647
 20
137.375
 30
0.00000
  70
    32
  0
VERTEX
  8
0
  5
326A
 10
33.1640
 20
137.424
 30
0.00000
  70
    32
  0
VERTEX
  8
0
  5
326B
 10
33.1626
 20
137.473
 30
0.00000
  70
    32
  0
VERTEX
  8
0
  5
326C
 10
33.1608
 20
137.522
 30
0.00000
  70
    32
  0
VERTEX
  8
0
  5
326D
 10
33.1584
 20
137.571
 30
0.00000
  70
    32
  0
VERTEX
  8
0
  5
326E
 10
33.1556
 20
137.620
 30
0.00000
  70
    32
  0
VERTEX
  8
0
  5
326F
 10
33.1521
 20
137.668
 30
0.00000
  70
    32
  0
VERTEX
  8
0
  5
3270
 10
33.1482
 20
137.717
 30
0.00000
  70
    32
  0
VERTEX
  8
0
  5
3271
 10
33.1438
 20
137.766
 30
0.00000
  70
    32
  0
VERTEX
  8
0
  5
3272
 10
33.1388
 20
137.815
 30
0.00000
  70
    32
  0
VERTEX
  8
0
  5
3273
 10
33.1333
 20
137.864
 30
0.00000
  70
    32
  0
VERTEX
  8
0
  5
3274
 10
33.1272
 20
137.912
 30
0.00000
  70
    32
  0
VERTEX
  8
0
  5
3275
 10
33.1207
 20
137.961
 30
0.00000
  70
    32
  0
VERTEX
  8
0
  5
3276
 10
33.1136
 20
138.010
 30
0.00000
  70
    32
  0
VERTEX
  8
0
  5
3277
 10
33.1060
 20
138.058
 30
0.00000
  70
    32
  0
VERTEX
  8
0
  5
3278
 10
33.0979
 20
138.107
 30
0.00000
  70
    32
  0
VERTEX
  8
0
  5
3279
 10
33.0893
 20
138.155
 30
0.00000
  70
    32
  0
VERTEX
  8
0
  5
327A
 10
33.0801
 20
138.204
 30
0.00000
  70
    32
  0
VERTEX
  8
0
  5
327B
 10
33.0704
 20
138.252
 30
0.00000
  70
    32
  0
VERTEX
  8
0
  5
327C
 10
33.0602
 20
138.300
 30
0.00000
  70
    32
  0
VERTEX
  8
0
  5
327D
 10
33.0495
 20
138.349
 30
0.00000
  70
    32
  0
VERTEX
  8
0
  5
327E
 10
33.0383
 20
138.397
 30
0.00000
  70
    32
  0
VERTEX
  8
0
  5
327F
 10
33.0265
 20
138.445
 30
0.00000
  70
    32
  0
VERTEX
  8
0
  5
3280
 10
33.0142
 20
138.493
 30
0.00000
  70
    32
  0
VERTEX
  8
0
  5
3281
 10
33.0014
 20
138.542
 30
0.00000
  70
    32
  0
VERTEX
  8
0
  5
3282
 10
32.9881
 20
138.590
 30
0.00000
  70
    32
  0
VERTEX
  8
0
  5
3283
 10
32.9743
 20
138.638
 30
0.00000
  70
    32
  0
VERTEX
  8
0
  5
3284
 10
32.9600
 20
138.685
 30
0.00000
  70
    32
  0
VERTEX
  8
0
  5
3285
 10
32.9451
 20
138.733
 30
0.00000
  70
    32
  0
VERTEX
  8
0
  5
3286
 10
32.9298
 20
138.781
 30
0.00000
  70
    32
  0
VERTEX
  8
0
  5
3287
 10
32.9139
 20
138.829
 30
0.00000
  70
    32
  0
VERTEX
  8
0
  5
3288
 10
32.8975
 20
138.876
 30
0.00000
  70
    32
  0
VERTEX
  8
0
  5
3289
 10
32.8806
 20
138.924
 30
0.00000
  70
    32
  0
VERTEX
  8
0
  5
328A
 10
32.8632
 20
138.971
 30
0.00000
  70
    32
  0
VERTEX
  8
0
  5
328B
 10
32.8453
 20
139.019
 30
0.00000
  70
    32
  0
VERTEX
  8
0
  5
328C
 10
32.8268
 20
139.066
 30
0.00000
  70
    32
  0
VERTEX
  8
0
  5
328D
 10
32.8079
 20
139.113
 30
0.00000
  70
    32
  0
VERTEX
  8
0
  5
328E
 10
32.7885
 20
139.160
 30
0.00000
  70
    32
  0
VERTEX
  8
0
  5
328F
 10
32.7685
 20
139.207
 30
0.00000
  70
    32
  0
VERTEX
  8
0
  5
3290
 10
32.7481
 20
139.254
 30
0.00000
  70
    32
  0
VERTEX
  8
0
  5
3291
 10
32.7271
 20
139.301
 30
0.00000
  70
    32
  0
VERTEX
  8
0
  5
3292
 10
32.7057
 20
139.347
 30
0.00000
  70
    32
  0
VERTEX
  8
0
  5
3293
 10
32.6837
 20
139.394
 30
0.00000
  70
    32
  0
VERTEX
  8
0
  5
3294
 10
32.6613
 20
139.440
 30
0.00000
  70
    32
  0
VERTEX
  8
0
  5
3295
 10
32.6383
 20
139.487
 30
0.00000
  70
    32
  0
VERTEX
  8
0
  5
3296
 10
32.6149
 20
139.533
 30
0.00000
  70
    32
  0
VERTEX
  8
0
  5
3297
 10
32.5909
 20
139.579
 30
0.00000
  70
    32
  0
VERTEX
  8
0
  5
3298
 10
32.5665
 20
139.625
 30
0.00000
  70
    32
  0
VERTEX
  8
0
  5
3299
 10
32.5415
 20
139.671
 30
0.00000
  70
    32
  0
VERTEX
  8
0
  5
329A
 10
32.5161
 20
139.717
 30
0.00000
  70
    32
  0
VERTEX
  8
0
  5
329B
 10
32.4902
 20
139.762
 30
0.00000
  70
    32
  0
VERTEX
  8
0
  5
329C
 10
32.4638
 20
139.808
 30
0.00000
  70
    32
  0
VERTEX
  8
0
  5
329D
 10
32.4369
 20
139.853
 30
0.00000
  70
    32
  0
VERTEX
  8
0
  5
329E
 10
32.4095
 20
139.898
 30
0.00000
  70
    32
  0
VERTEX
  8
0
  5
329F
 10
32.3816
 20
139.944
 30
0.00000
  70
    32
  0
VERTEX
  8
0
  5
32A0
 10
32.3533
 20
139.989
 30
0.00000
  70
    32
  0
VERTEX
  8
0
  5
32A1
 10
32.3245
 20
140.033
 30
0.00000
  70
    32
  0
VERTEX
  8
0
  5
32A2
 10
32.2952
 20
140.078
 30
0.00000
  70
    32
  0
VERTEX
  8
0
  5
32A3
 10
32.2654
 20
140.123
 30
0.00000
  70
    32
  0
VERTEX
  8
0
  5
32A4
 10
32.2351
 20
140.167
 30
0.00000
  70
    32
  0
VERTEX
  8
0
  5
32A5
 10
32.2044
 20
140.211
 30
0.00000
  70
    32
  0
VERTEX
  8
0
  5
32A6
 10
32.1731
 20
140.255
 30
0.00000
  70
    32
  0
VERTEX
  8
0
  5
32A7
 10
32.1414
 20
140.299
 30
0.00000
  70
    32
  0
VERTEX
  8
0
  5
32A8
 10
32.1093
 20
140.343
 30
0.00000
  70
    32
  0
VERTEX
  8
0
  5
32A9
 10
32.0766
 20
140.387
 30
0.00000
  70
    32
  0
VERTEX
  8
0
  5
32AA
 10
32.0435
 20
140.430
 30
0.00000
  70
    32
  0
VERTEX
  8
0
  5
32AB
 10
32.0100
 20
140.473
 30
0.00000
  70
    32
  0
VERTEX
  8
0
  5
32AC
 10
31.9759
 20
140.517
 30
0.00000
  70
    32
  0
VERTEX
  8
0
  5
32AD
 10
31.9415
 20
140.560
 30
0.00000
  70
    32
  0
VERTEX
  8
0
  5
32AE
 10
31.9065
 20
140.602
 30
0.00000
  70
    32
  0
VERTEX
  8
0
  5
32AF
 10
31.8711
 20
140.645
 30
0.00000
  70
    32
  0
VERTEX
  8
0
  5
32B0
 10
31.8352
 20
140.687
 30
0.00000
  70
    32
  0
VERTEX
  8
0
  5
32B1
 10
31.7989
 20
140.730
 30
0.00000
  70
    32
  0
VERTEX
  8
0
  5
32B2
 10
31.7621
 20
140.772
 30
0.00000
  70
    32
  0
VERTEX
  8
0
  5
32B3
 10
31.7249
 20
140.814
 30
0.00000
  70
    32
  0
VERTEX
  8
0
  5
32B4
 10
31.6872
 20
140.855
 30
0.00000
  70
    32
  0
VERTEX
  8
0
  5
32B5
 10
31.6491
 20
140.897
 30
0.00000
  70
    32
  0
VERTEX
  8
0
  5
32B6
 10
31.6105
 20
140.938
 30
0.00000
  70
    32
  0
VERTEX
  8
0
  5
32B7
 10
31.5715
 20
140.980
 30
0.00000
  70
    32
  0
VERTEX
  8
0
  5
32B8
 10
31.5320
 20
141.021
 30
0.00000
  70
    32
  0
VERTEX
  8
0
  5
32B9
 10
31.4921
 20
141.061
 30
0.00000
  70
    32
  0
VERTEX
  8
0
  5
32BA
 10
31.4518
 20
141.102
 30
0.00000
  70
    32
  0
VERTEX
  8
0
  5
32BB
 10
31.4111
 20
141.142
 30
0.00000
  70
    32
  0
VERTEX
  8
0
  5
32BC
 10
31.3699
 20
141.183
 30
0.00000
  70
    32
  0
VERTEX
  8
0
  5
32BD
 10
31.3282
 20
141.223
 30
0.00000
  70
    32
  0
VERTEX
  8
0
  5
32BE
 10
31.2862
 20
141.262
 30
0.00000
  70
    32
  0
VERTEX
  8
0
  5
32BF
 10
31.2437
 20
141.302
 30
0.00000
  70
    32
  0
VERTEX
  8
0
  5
32C0
 10
31.2008
 20
141.341
 30
0.00000
  70
    32
  0
VERTEX
  8
0
  5
32C1
 10
31.1574
 20
141.380
 30
0.00000
  70
    32
  0
VERTEX
  8
0
  5
32C2
 10
31.1137
 20
141.419
 30
0.00000
  70
    32
  0
VERTEX
  8
0
  5
32C3
 10
31.0695
 20
141.458
 30
0.00000
  70
    32
  0
VERTEX
  8
0
  5
32C4
 10
31.0249
 20
141.497
 30
0.00000
  70
    32
  0
VERTEX
  8
0
  5
32C5
 10
30.9800
 20
141.535
 30
0.00000
  70
    32
  0
VERTEX
  8
0
  5
32C6
 10
30.9345
 20
141.573
 30
0.00000
  70
    32
  0
VERTEX
  8
0
  5
32C7
 10
30.8887
 20
141.611
 30
0.00000
  70
    32
  0
VERTEX
  8
0
  5
32C8
 10
30.8425
 20
141.648
 30
0.00000
  70
    32
  0
VERTEX
  8
0
  5
32C9
 10
30.7959
 20
141.686
 30
0.00000
  70
    32
  0
VERTEX
  8
0
  5
32CA
 10
30.7489
 20
141.723
 30
0.00000
  70
    32
  0
VERTEX
  8
0
  5
32CB
 10
30.7015
 20
141.760
 30
0.00000
  70
    32
  0
VERTEX
  8
0
  5
32CC
 10
30.6536
 20
141.797
 30
0.00000
  70
    32
  0
VERTEX
  8
0
  5
32CD
 10
30.6054
 20
141.833
 30
0.00000
  70
    32
  0
VERTEX
  8
0
  5
32CE
 10
30.5568
 20
141.869
 30
0.00000
  70
    32
  0
VERTEX
  8
0
  5
32CF
 10
30.5079
 20
141.905
 30
0.00000
  70
    32
  0
VERTEX
  8
0
  5
32D0
 10
30.4585
 20
141.941
 30
0.00000
  70
    32
  0
VERTEX
  8
0
  5
32D1
 10
30.4087
 20
141.977
 30
0.00000
  70
    32
  0
VERTEX
  8
0
  5
32D2
 10
30.3586
 20
142.012
 30
0.00000
  70
    32
  0
VERTEX
  8
0
  5
32D3
 10
30.3081
 20
142.047
 30
0.00000
  70
    32
  0
VERTEX
  8
0
  5
32D4
 10
30.2572
 20
142.082
 30
0.00000
  70
    32
  0
VERTEX
  8
0
  5
32D5
 10
30.2059
 20
142.116
 30
0.00000
  70
    32
  0
VERTEX
  8
0
  5
32D6
 10
30.1543
 20
142.151
 30
0.00000
  70
    32
  0
VERTEX
  8
0
  5
32D7
 10
30.1023
 20
142.185
 30
0.00000
  70
    32
  0
VERTEX
  8
0
  5
32D8
 10
30.0500
 20
142.218
 30
0.00000
  70
    32
  0
VERTEX
  8
0
  5
32D9
 10
29.9972
 20
142.252
 30
0.00000
  70
    32
  0
VERTEX
  8
0
  5
32DA
 10
29.9442
 20
142.285
 30
0.00000
  70
    32
  0
VERTEX
  8
0
  5
32DB
 10
29.8907
 20
142.318
 30
0.00000
  70
    32
  0
VERTEX
  8
0
  5
32DC
 10
29.8369
 20
142.351
 30
0.00000
  70
    32
  0
VERTEX
  8
0
  5
32DD
 10
29.7828
 20
142.383
 30
0.00000
  70
    32
  0
VERTEX
  8
0
  5
32DE
 10
29.7283
 20
142.416
 30
0.00000
  70
    32
  0
VERTEX
  8
0
  5
32DF
 10
29.6735
 20
142.448
 30
0.00000
  70
    32
  0
VERTEX
  8
0
  5
32E0
 10
29.6183
 20
142.479
 30
0.00000
  70
    32
  0
VERTEX
  8
0
  5
32E1
 10
29.5628
 20
142.511
 30
0.00000
  70
    32
  0
VERTEX
  8
0
  5
32E2
 10
29.5070
 20
142.542
 30
0.00000
  70
    32
  0
VERTEX
  8
0
  5
32E3
 10
29.4508
 20
142.573
 30
0.00000
  70
    32
  0
VERTEX
  8
0
  5
32E4
 10
29.3943
 20
142.603
 30
0.00000
  70
    32
  0
VERTEX
  8
0
  5
32E5
 10
29.3374
 20
142.633
 30
0.00000
  70
    32
  0
VERTEX
  8
0
  5
32E6
 10
29.2803
 20
142.663
 30
0.00000
  70
    32
  0
VERTEX
  8
0
  5
32E7
 10
29.2228
 20
142.693
 30
0.00000
  70
    32
  0
VERTEX
  8
0
  5
32E8
 10
29.1650
 20
142.723
 30
0.00000
  70
    32
  0
SEQEND
  8
0
  5
32E9
  0
POLYLINE
  5
2BA2
  8
0
 10
17.1650038706952479
 20
142.7226526296423117
 30
0.0
 66
     1
 70
     8
  0
VERTEX
  8
0
  5
32EA
 10
17.1650
 20
142.723
 30
0.00000
  70
    32
  0
VERTEX
  8
0
  5
32EB
 10
17.1072
 20
142.693
 30
0.00000
  70
    32
  0
VERTEX
  8
0
  5
32EC
 10
17.0497
 20
142.663
 30
0.00000
  70
    32
  0
VERTEX
  8
0
  5
32ED
 10
16.9926
 20
142.633
 30
0.00000
  70
    32
  0
VERTEX
  8
0
  5
32EE
 10
16.9357
 20
142.603
 30
0.00000
  70
    32
  0
VERTEX
  8
0
  5
32EF
 10
16.8792
 20
142.573
 30
0.00000
  70
    32
  0
VERTEX
  8
0
  5
32F0
 10
16.8230
 20
142.542
 30
0.00000
  70
    32
  0
VERTEX
  8
0
  5
32F1
 10
16.7672
 20
142.511
 30
0.00000
  70
    32
  0
VERTEX
  8
0
  5
32F2
 10
16.7117
 20
142.479
 30
0.00000
  70
    32
  0
VERTEX
  8
0
  5
32F3
 10
16.6565
 20
142.448
 30
0.00000
  70
    32
  0
VERTEX
  8
0
  5
32F4
 10
16.6017
 20
142.416
 30
0.00000
  70
    32
  0
VERTEX
  8
0
  5
32F5
 10
16.5472
 20
142.383
 30
0.00000
  70
    32
  0
VERTEX
  8
0
  5
32F6
 10
16.4931
 20
142.351
 30
0.00000
  70
    32
  0
VERTEX
  8
0
  5
32F7
 10
16.4393
 20
142.318
 30
0.00000
  70
    32
  0
VERTEX
  8
0
  5
32F8
 10
16.3858
 20
142.285
 30
0.00000
  70
    32
  0
VERTEX
  8
0
  5
32F9
 10
16.3328
 20
142.252
 30
0.00000
  70
    32
  0
VERTEX
  8
0
  5
32FA
 10
16.2800
 20
142.218
 30
0.00000
  70
    32
  0
VERTEX
  8
0
  5
32FB
 10
16.2277
 20
142.185
 30
0.00000
  70
    32
  0
VERTEX
  8
0
  5
32FC
 10
16.1757
 20
142.151
 30
0.00000
  70
    32
  0
VERTEX
  8
0
  5
32FD
 10
16.1241
 20
142.116
 30
0.00000
  70
    32
  0
VERTEX
  8
0
  5
32FE
 10
16.0728
 20
142.082
 30
0.00000
  70
    32
  0
VERTEX
  8
0
  5
32FF
 10
16.0219
 20
142.047
 30
0.00000
  70
    32
  0
VERTEX
  8
0
  5
3300
 10
15.9714
 20
142.012
 30
0.00000
  70
    32
  0
VERTEX
  8
0
  5
3301
 10
15.9213
 20
141.977
 30
0.00000
  70
    32
  0
VERTEX
  8
0
  5
3302
 10
15.8715
 20
141.941
 30
0.00000
  70
    32
  0
VERTEX
  8
0
  5
3303
 10
15.8221
 20
141.905
 30
0.00000
  70
    32
  0
VERTEX
  8
0
  5
3304
 10
15.7732
 20
141.869
 30
0.00000
  70
    32
  0
VERTEX
  8
0
  5
3305
 10
15.7246
 20
141.833
 30
0.00000
  70
    32
  0
VERTEX
  8
0
  5
3306
 10
15.6764
 20
141.797
 30
0.00000
  70
    32
  0
VERTEX
  8
0
  5
3307
 10
15.6285
 20
141.760
 30
0.00000
  70
    32
  0
VERTEX
  8
0
  5
3308
 10
15.5811
 20
141.723
 30
0.00000
  70
    32
  0
VERTEX
  8
0
  5
3309
 10
15.5341
 20
141.686
 30
0.00000
  70
    32
  0
VERTEX
  8
0
  5
330A
 10
15.4875
 20
141.648
 30
0.00000
  70
    32
  0
VERTEX
  8
0
  5
330B
 10
15.4413
 20
141.611
 30
0.00000
  70
    32
  0
VERTEX
  8
0
  5
330C
 10
15.3955
 20
141.573
 30
0.00000
  70
    32
  0
VERTEX
  8
0
  5
330D
 10
15.3501
 20
141.535
 30
0.00000
  70
    32
  0
VERTEX
  8
0
  5
330E
 10
15.3051
 20
141.497
 30
0.00000
  70
    32
  0
VERTEX
  8
0
  5
330F
 10
15.2605
 20
141.458
 30
0.00000
  70
    32
  0
VERTEX
  8
0
  5
3310
 10
15.2163
 20
141.419
 30
0.00000
  70
    32
  0
VERTEX
  8
0
  5
3311
 10
15.1726
 20
141.380
 30
0.00000
  70
    32
  0
VERTEX
  8
0
  5
3312
 10
15.1292
 20
141.341
 30
0.00000
  70
    32
  0
VERTEX
  8
0
  5
3313
 10
15.0863
 20
141.302
 30
0.00000
  70
    32
  0
VERTEX
  8
0
  5
3314
 10
15.0438
 20
141.262
 30
0.00000
  70
    32
  0
VERTEX
  8
0
  5
3315
 10
15.0018
 20
141.223
 30
0.00000
  70
    32
  0
VERTEX
  8
0
  5
3316
 10
14.9602
 20
141.183
 30
0.00000
  70
    32
  0
VERTEX
  8
0
  5
3317
 10
14.9190
 20
141.142
 30
0.00000
  70
    32
  0
VERTEX
  8
0
  5
3318
 10
14.8782
 20
141.102
 30
0.00000
  70
    32
  0
VERTEX
  8
0
  5
3319
 10
14.8379
 20
141.061
 30
0.00000
  70
    32
  0
VERTEX
  8
0
  5
331A
 10
14.7980
 20
141.021
 30
0.00000
  70
    32
  0
VERTEX
  8
0
  5
331B
 10
14.7585
 20
140.980
 30
0.00000
  70
    32
  0
VERTEX
  8
0
  5
331C
 10
14.7195
 20
140.938
 30
0.00000
  70
    32
  0
VERTEX
  8
0
  5
331D
 10
14.6809
 20
140.897
 30
0.00000
  70
    32
  0
VERTEX
  8
0
  5
331E
 10
14.6428
 20
140.855
 30
0.00000
  70
    32
  0
VERTEX
  8
0
  5
331F
 10
14.6051
 20
140.814
 30
0.00000
  70
    32
  0
VERTEX
  8
0
  5
3320
 10
14.5679
 20
140.772
 30
0.00000
  70
    32
  0
VERTEX
  8
0
  5
3321
 10
14.5311
 20
140.730
 30
0.00000
  70
    32
  0
VERTEX
  8
0
  5
3322
 10
14.4948
 20
140.687
 30
0.00000
  70
    32
  0
VERTEX
  8
0
  5
3323
 10
14.4589
 20
140.645
 30
0.00000
  70
    32
  0
VERTEX
  8
0
  5
3324
 10
14.4235
 20
140.602
 30
0.00000
  70
    32
  0
VERTEX
  8
0
  5
3325
 10
14.3886
 20
140.560
 30
0.00000
  70
    32
  0
VERTEX
  8
0
  5
3326
 10
14.3541
 20
140.517
 30
0.00000
  70
    32
  0
VERTEX
  8
0
  5
3327
 10
14.3200
 20
140.473
 30
0.00000
  70
    32
  0
VERTEX
  8
0
  5
3328
 10
14.2865
 20
140.430
 30
0.00000
  70
    32
  0
VERTEX
  8
0
  5
3329
 10
14.2534
 20
140.387
 30
0.00000
  70
    32
  0
VERTEX
  8
0
  5
332A
 10
14.2207
 20
140.343
 30
0.00000
  70
    32
  0
VERTEX
  8
0
  5
332B
 10
14.1886
 20
140.299
 30
0.00000
  70
    32
  0
VERTEX
  8
0
  5
332C
 10
14.1569
 20
140.255
 30
0.00000
  70
    32
  0
VERTEX
  8
0
  5
332D
 10
14.1257
 20
140.211
 30
0.00000
  70
    32
  0
VERTEX
  8
0
  5
332E
 10
14.0949
 20
140.167
 30
0.00000
  70
    32
  0
VERTEX
  8
0
  5
332F
 10
14.0646
 20
140.123
 30
0.00000
  70
    32
  0
VERTEX
  8
0
  5
3330
 10
14.0349
 20
140.078
 30
0.00000
  70
    32
  0
VERTEX
  8
0
  5
3331
 10
14.0055
 20
140.033
 30
0.00000
  70
    32
  0
VERTEX
  8
0
  5
3332
 10
13.9767
 20
139.989
 30
0.00000
  70
    32
  0
VERTEX
  8
0
  5
3333
 10
13.9484
 20
139.944
 30
0.00000
  70
    32
  0
VERTEX
  8
0
  5
3334
 10
13.9205
 20
139.898
 30
0.00000
  70
    32
  0
VERTEX
  8
0
  5
3335
 10
13.8931
 20
139.853
 30
0.00000
  70
    32
  0
VERTEX
  8
0
  5
3336
 10
13.8662
 20
139.808
 30
0.00000
  70
    32
  0
VERTEX
  8
0
  5
3337
 10
13.8398
 20
139.762
 30
0.00000
  70
    32
  0
VERTEX
  8
0
  5
3338
 10
13.8139
 20
139.717
 30
0.00000
  70
    32
  0
VERTEX
  8
0
  5
3339
 10
13.7885
 20
139.671
 30
0.00000
  70
    32
  0
VERTEX
  8
0
  5
333A
 10
13.7635
 20
139.625
 30
0.00000
  70
    32
  0
VERTEX
  8
0
  5
333B
 10
13.7391
 20
139.579
 30
0.00000
  70
    32
  0
VERTEX
  8
0
  5
333C
 10
13.7152
 20
139.533
 30
0.00000
  70
    32
  0
VERTEX
  8
0
  5
333D
 10
13.6917
 20
139.487
 30
0.00000
  70
    32
  0
VERTEX
  8
0
  5
333E
 10
13.6687
 20
139.440
 30
0.00000
  70
    32
  0
VERTEX
  8
0
  5
333F
 10
13.6463
 20
139.394
 30
0.00000
  70
    32
  0
VERTEX
  8
0
  5
3340
 10
13.6243
 20
139.347
 30
0.00000
  70
    32
  0
VERTEX
  8
0
  5
3341
 10
13.6029
 20
139.301
 30
0.00000
  70
    32
  0
VERTEX
  8
0
  5
3342
 10
13.5819
 20
139.254
 30
0.00000
  70
    32
  0
VERTEX
  8
0
  5
3343
 10
13.5615
 20
139.207
 30
0.00000
  70
    32
  0
VERTEX
  8
0
  5
3344
 10
13.5415
 20
139.160
 30
0.00000
  70
    32
  0
VERTEX
  8
0
  5
3345
 10
13.5221
 20
139.113
 30
0.00000
  70
    32
  0
VERTEX
  8
0
  5
3346
 10
13.5032
 20
139.066
 30
0.00000
  70
    32
  0
VERTEX
  8
0
  5
3347
 10
13.4847
 20
139.019
 30
0.00000
  70
    32
  0
VERTEX
  8
0
  5
3348
 10
13.4668
 20
138.971
 30
0.00000
  70
    32
  0
VERTEX
  8
0
  5
3349
 10
13.4494
 20
138.924
 30
0.00000
  70
    32
  0
VERTEX
  8
0
  5
334A
 10
13.4325
 20
138.876
 30
0.00000
  70
    32
  0
VERTEX
  8
0
  5
334B
 10
13.4161
 20
138.829
 30
0.00000
  70
    32
  0
VERTEX
  8
0
  5
334C
 10
13.4002
 20
138.781
 30
0.00000
  70
    32
  0
VERTEX
  8
0
  5
334D
 10
13.3849
 20
138.733
 30
0.00000
  70
    32
  0
VERTEX
  8
0
  5
334E
 10
13.3700
 20
138.685
 30
0.00000
  70
    32
  0
VERTEX
  8
0
  5
334F
 10
13.3557
 20
138.638
 30
0.00000
  70
    32
  0
VERTEX
  8
0
  5
3350
 10
13.3419
 20
138.590
 30
0.00000
  70
    32
  0
VERTEX
  8
0
  5
3351
 10
13.3286
 20
138.542
 30
0.00000
  70
    32
  0
VERTEX
  8
0
  5
3352
 10
13.3158
 20
138.493
 30
0.00000
  70
    32
  0
VERTEX
  8
0
  5
3353
 10
13.3035
 20
138.445
 30
0.00000
  70
    32
  0
VERTEX
  8
0
  5
3354
 10
13.2917
 20
138.397
 30
0.00000
  70
    32
  0
VERTEX
  8
0
  5
3355
 10
13.2805
 20
138.349
 30
0.00000
  70
    32
  0
VERTEX
  8
0
  5
3356
 10
13.2698
 20
138.300
 30
0.00000
  70
    32
  0
VERTEX
  8
0
  5
3357
 10
13.2596
 20
138.252
 30
0.00000
  70
    32
  0
VERTEX
  8
0
  5
3358
 10
13.2499
 20
138.204
 30
0.00000
  70
    32
  0
VERTEX
  8
0
  5
3359
 10
13.2407
 20
138.155
 30
0.00000
  70
    32
  0
VERTEX
  8
0
  5
335A
 10
13.2321
 20
138.107
 30
0.00000
  70
    32
  0
VERTEX
  8
0
  5
335B
 10
13.2240
 20
138.058
 30
0.00000
  70
    32
  0
VERTEX
  8
0
  5
335C
 10
13.2164
 20
138.010
 30
0.00000
  70
    32
  0
VERTEX
  8
0
  5
335D
 10
13.2093
 20
137.961
 30
0.00000
  70
    32
  0
VERTEX
  8
0
  5
335E
 10
13.2028
 20
137.912
 30
0.00000
  70
    32
  0
VERTEX
  8
0
  5
335F
 10
13.1967
 20
137.864
 30
0.00000
  70
    32
  0
VERTEX
  8
0
  5
3360
 10
13.1912
 20
137.815
 30
0.00000
  70
    32
  0
VERTEX
  8
0
  5
3361
 10
13.1863
 20
137.766
 30
0.00000
  70
    32
  0
VERTEX
  8
0
  5
3362
 10
13.1818
 20
137.717
 30
0.00000
  70
    32
  0
VERTEX
  8
0
  5
3363
 10
13.1779
 20
137.668
 30
0.00000
  70
    32
  0
VERTEX
  8
0
  5
3364
 10
13.1744
 20
137.620
 30
0.00000
  70
    32
  0
VERTEX
  8
0
  5
3365
 10
13.1716
 20
137.571
 30
0.00000
  70
    32
  0
VERTEX
  8
0
  5
3366
 10
13.1692
 20
137.522
 30
0.00000
  70
    32
  0
VERTEX
  8
0
  5
3367
 10
13.1674
 20
137.473
 30
0.00000
  70
    32
  0
VERTEX
  8
0
  5
3368
 10
13.1661
 20
137.424
 30
0.00000
  70
    32
  0
VERTEX
  8
0
  5
3369
 10
13.1653
 20
137.375
 30
0.00000
  70
    32
  0
VERTEX
  8
0
  5
336A
 10
13.1650
 20
137.327
 30
0.00000
  70
    32
  0
SEQEND
  8
0
  5
336B
  0
LINE
  5
2BA3
  8
0
 10
19.5942896237121609
 20
142.7226526130939988
 30
0.0
 11
17.1650038748447393
 21
142.7226526130939988
 31
0.0
  0
ARC
  5
2BA4
  8
0
 10
23.1650038379835514
 20
146.2226526130939135
 30
0.0
 40
4.9999999999999547
 50
224.4270040008047999
 51
315.5729959991954843
  0
LINE
  5
2BA5
  8
0
 10
13.1650038379833791
 20
89.756152613094045
 30
0.0
 11
33.1650038379833774
 21
89.7561526130940024
 31
0.0
  0
LINE
  5
2BA6
  8
0
 10
14.6985038379833792
 20
88.2226526130940556
 30
0.0
 11
31.6315038379833702
 21
88.2226526130939988
 31
0.0
  0
LINE
  5
2BA7
  8
0
 10
30.6650038379834911
 20
146.2226530777739129
 30
0.0
 11
15.6650038379835994
 21
146.2226530777739981
 31
0.0
  0
ARC
  5
2BA8
  8
0
 10
204.976821504223409
 20
146.2226526130947093
 30
0.0
 40
0.9999999999993689
 50
0.0000266241588199
 51
90.0
  0
ARC
  5
2BA9
  8
0
 10
191.9768215042221016
 20
146.2226526130947093
 30
0.0
 40
0.9999999999993689
 50
90.0
 51
179.9999733758428135
  0
LINE
  5
2BAA
  8
0
 10
205.9768215042228121
 20
135.4488322371041136
 30
0.0
 11
205.9768215042228121
 21
146.2226530777739129
 31
0.0
  0
LINE
  5
2BAB
  8
0
 10
190.9768215042228121
 20
146.2226530777739129
 30
0.0
 11
190.9768215042228121
 21
135.4488322371041136
 31
0.0
  0
LINE
  5
2BAC
  8
0
 10
202.4768215042230111
 20
78.5226526130940101
 30
0.0
 11
202.4768215042230111
 21
87.722652613048993
 31
0.0
  0
LINE
  5
2BAD
  8
0
 10
194.4768215042230111
 20
87.7226526130489788
 30
0.0
 11
194.4768215042230111
 21
78.5226526130939817
 31
0.0
  0
LINE
  5
2BAE
  8
0
 10
202.4768215042267059
 20
87.722652613048993
 30
0.0
 11
202.3768215042076974
 21
87.9974003550394741
 31
0.0
  0
LINE
  5
2BAF
  8
0
 10
194.576821504238211
 20
87.9974003550394457
 30
0.0
 11
194.4768215042194015
 21
87.7226526130489788
 31
0.0
  0
LINE
  5
2BB0
  8
0
 10
194.4768215042313102
 20
78.5226526130939817
 30
0.0
 11
195.4648718536097931
 21
76.8112992075448915
 31
0.0
  0
LINE
  5
2BB1
  8
0
 10
201.4887711548360869
 20
76.8112992075449199
 30
0.0
 11
202.4768215042147119
 21
78.5226526130940101
 31
0.0
  0
LINE
  5
2BB2
  8
0
 10
202.3768215042229883
 20
87.9974003550394741
 30
0.0
 11
202.3768215042229883
 21
88.222652613094013
 31
0.0
  0
LINE
  5
2BB3
  8
0
 10
194.5768215042228917
 20
88.2226526130939988
 30
0.0
 11
194.5768215042228917
 21
87.9974003550394457
 31
0.0
  0
ARC
  5
2BB4
  8
0
 10
198.4768215042230111
 20
84.2226526130737057
 30
0.0
 40
7.9999999999733546
 50
247.8833368673655002
 51
292.1166631326345282
  0
LINE
  5
2BB5
  8
0
 10
208.4768215042230111
 20
89.7561526130940308
 30
0.0
 11
208.4768215042228121
 21
137.3265844783545049
 31
0.0
  0
LINE
  5
2BB6
  8
0
 10
188.4768215042226984
 20
137.3265844783543912
 30
0.0
 11
188.4768215042230111
 21
89.756152613093974
 31
0.0
  0
LINE
  5
2BB7
  8
0
 10
188.4768215042230111
 20
89.756152613093974
 30
0.0
 11
190.0103215042229863
 21
88.2226526130939703
 31
0.0
  0
LINE
  5
2BB8
  8
0
 10
206.9433215042230074
 20
88.222652613094013
 30
0.0
 11
208.4768215042230111
 21
89.7561526130940308
 31
0.0
  0
ARC
  5
2BBC
  8
0
 10
198.4768215042228121
 20
144.2226526130939988
 30
0.0
 40
3.0
 50
0.0000000000004071
 51
180.0000126176948072
  0
LINE
  5
2BBD
  8
0
 10
201.4768215042228121
 20
132.2226526130939988
 30
0.0
 11
201.4768215042228121
 21
144.2226526130939988
 31
0.0
  0
ARC
  5
2BBE
  8
0
 10
198.4768215042228121
 20
132.2226526130939988
 30
0.0
 40
3.0
 50
180.0
 51
0.0000000000093636
  0
LINE
  5
2BBF
  8
0
 10
195.4768215042228121
 20
144.2226526130939988
 30
0.0
 11
195.4768215042228121
 21
132.2226526130939988
 31
0.0
  0
LINE
  5
2BC4
  8
0
 10
204.976821504223409
 20
147.2226526130939988
 30
0.0
 11
191.9768214634135006
 21
147.2226526130939988
 31
0.0
  0
LINE
  5
2BC5
  8
0
 10
194.4768215042751081
 20
78.5226526132693152
 30
0.0
 11
202.4768215041709993
 21
78.5226526129186766
 31
0.0
  0
LINE
  5
2BC6
  8
0
 10
194.4768215042134045
 20
87.7226526130489788
 30
0.0
 11
202.4768215042325892
 21
87.722652613048993
 31
0.0
  0
LINE
  5
2BC7
  8
0
 10
194.5768215042292013
 20
87.9974003550218242
 30
0.0
 11
202.3768215042165934
 21
87.997400355057124
 31
0.0
  0
LINE
  5
2BC8
  8
0
 10
195.4648718536097931
 20
76.8112992075448915
 30
0.0
 11
201.4887711548360869
 21
76.8112992075449199
 31
0.0
  0
POLYLINE
  5
2BC9
  8
0
 10
190.9768215042227553
 20
141.788038960254795
 30
0.0
 66
     1
 70
     8
  0
VERTEX
  8
0
  5
336C
 10
190.977
 20
141.788
 30
0.00000
  70
    32
  0
VERTEX
  8
0
  5
336D
 10
190.880
 20
141.713
 30
0.00000
  70
    32
  0
VERTEX
  8
0
  5
336E
 10
190.785
 20
141.637
 30
0.00000
  70
    32
  0
VERTEX
  8
0
  5
336F
 10
190.691
 20
141.560
 30
0.00000
  70
    32
  0
VERTEX
  8
0
  5
3370
 10
190.599
 20
141.482
 30
0.00000
  70
    32
  0
VERTEX
  8
0
  5
3371
 10
190.509
 20
141.403
 30
0.00000
  70
    32
  0
VERTEX
  8
0
  5
3372
 10
190.421
 20
141.323
 30
0.00000
  70
    32
  0
VERTEX
  8
0
  5
3373
 10
190.334
 20
141.242
 30
0.00000
  70
    32
  0
VERTEX
  8
0
  5
3374
 10
190.249
 20
141.161
 30
0.00000
  70
    32
  0
VERTEX
  8
0
  5
3375
 10
190.166
 20
141.078
 30
0.00000
  70
    32
  0
VERTEX
  8
0
  5
3376
 10
190.085
 20
140.995
 30
0.00000
  70
    32
  0
VERTEX
  8
0
  5
3377
 10
190.006
 20
140.911
 30
0.00000
  70
    32
  0
VERTEX
  8
0
  5
3378
 10
189.928
 20
140.826
 30
0.00000
  70
    32
  0
VERTEX
  8
0
  5
3379
 10
189.852
 20
140.741
 30
0.00000
  70
    32
  0
VERTEX
  8
0
  5
337A
 10
189.779
 20
140.654
 30
0.00000
  70
    32
  0
VERTEX
  8
0
  5
337B
 10
189.707
 20
140.567
 30
0.00000
  70
    32
  0
VERTEX
  8
0
  5
337C
 10
189.637
 20
140.480
 30
0.00000
  70
    32
  0
VERTEX
  8
0
  5
337D
 10
189.569
 20
140.391
 30
0.00000
  70
    32
  0
VERTEX
  8
0
  5
337E
 10
189.503
 20
140.302
 30
0.00000
  70
    32
  0
VERTEX
  8
0
  5
337F
 10
189.438
 20
140.213
 30
0.00000
  70
    32
  0
VERTEX
  8
0
  5
3380
 10
189.376
 20
140.122
 30
0.00000
  70
    32
  0
VERTEX
  8
0
  5
3381
 10
189.316
 20
140.031
 30
0.00000
  70
    32
  0
VERTEX
  8
0
  5
3382
 10
189.258
 20
139.940
 30
0.00000
  70
    32
  0
VERTEX
  8
0
  5
3383
 10
189.202
 20
139.848
 30
0.00000
  70
    32
  0
VERTEX
  8
0
  5
3384
 10
189.147
 20
139.755
 30
0.00000
  70
    32
  0
VERTEX
  8
0
  5
3385
 10
189.095
 20
139.662
 30
0.00000
  70
    32
  0
VERTEX
  8
0
  5
3386
 10
189.045
 20
139.568
 30
0.00000
  70
    32
  0
VERTEX
  8
0
  5
3387
 10
188.997
 20
139.474
 30
0.00000
  70
    32
  0
VERTEX
  8
0
  5
3388
 10
188.951
 20
139.379
 30
0.00000
  70
    32
  0
VERTEX
  8
0
  5
3389
 10
188.907
 20
139.284
 30
0.00000
  70
    32
  0
VERTEX
  8
0
  5
338A
 10
188.865
 20
139.188
 30
0.00000
  70
    32
  0
VERTEX
  8
0
  5
338B
 10
188.826
 20
139.092
 30
0.00000
  70
    32
  0
VERTEX
  8
0
  5
338C
 10
188.788
 20
138.996
 30
0.00000
  70
    32
  0
VERTEX
  8
0
  5
338D
 10
188.753
 20
138.899
 30
0.00000
  70
    32
  0
VERTEX
  8
0
  5
338E
 10
188.719
 20
138.802
 30
0.00000
  70
    32
  0
VERTEX
  8
0
  5
338F
 10
188.688
 20
138.705
 30
0.00000
  70
    32
  0
VERTEX
  8
0
  5
3390
 10
188.659
 20
138.607
 30
0.00000
  70
    32
  0
VERTEX
  8
0
  5
3391
 10
188.632
 20
138.509
 30
0.00000
  70
    32
  0
VERTEX
  8
0
  5
3392
 10
188.607
 20
138.411
 30
0.00000
  70
    32
  0
VERTEX
  8
0
  5
3393
 10
188.584
 20
138.313
 30
0.00000
  70
    32
  0
VERTEX
  8
0
  5
3394
 10
188.564
 20
138.214
 30
0.00000
  70
    32
  0
VERTEX
  8
0
  5
3395
 10
188.545
 20
138.115
 30
0.00000
  70
    32
  0
VERTEX
  8
0
  5
3396
 10
188.529
 20
138.016
 30
0.00000
  70
    32
  0
VERTEX
  8
0
  5
3397
 10
188.515
 20
137.917
 30
0.00000
  70
    32
  0
VERTEX
  8
0
  5
3398
 10
188.503
 20
137.818
 30
0.00000
  70
    32
  0
VERTEX
  8
0
  5
3399
 10
188.494
 20
137.718
 30
0.00000
  70
    32
  0
VERTEX
  8
0
  5
339A
 10
188.486
 20
137.619
 30
0.00000
  70
    32
  0
VERTEX
  8
0
  5
339B
 10
188.481
 20
137.519
 30
0.00000
  70
    32
  0
VERTEX
  8
0
  5
339C
 10
188.478
 20
137.420
 30
0.00000
  70
    32
  0
VERTEX
  8
0
  5
339D
 10
188.477
 20
137.320
 30
0.00000
  70
    32
  0
VERTEX
  8
0
  5
339E
 10
188.478
 20
137.221
 30
0.00000
  70
    32
  0
VERTEX
  8
0
  5
339F
 10
188.481
 20
137.121
 30
0.00000
  70
    32
  0
VERTEX
  8
0
  5
33A0
 10
188.487
 20
137.021
 30
0.00000
  70
    32
  0
VERTEX
  8
0
  5
33A1
 10
188.495
 20
136.922
 30
0.00000
  70
    32
  0
VERTEX
  8
0
  5
33A2
 10
188.505
 20
136.823
 30
0.00000
  70
    32
  0
VERTEX
  8
0
  5
33A3
 10
188.517
 20
136.723
 30
0.00000
  70
    32
  0
VERTEX
  8
0
  5
33A4
 10
188.531
 20
136.624
 30
0.00000
  70
    32
  0
VERTEX
  8
0
  5
33A5
 10
188.548
 20
136.525
 30
0.00000
  70
    32
  0
VERTEX
  8
0
  5
33A6
 10
188.566
 20
136.426
 30
0.00000
  70
    32
  0
VERTEX
  8
0
  5
33A7
 10
188.587
 20
136.328
 30
0.00000
  70
    32
  0
VERTEX
  8
0
  5
33A8
 10
188.610
 20
136.229
 30
0.00000
  70
    32
  0
VERTEX
  8
0
  5
33A9
 10
188.635
 20
136.131
 30
0.00000
  70
    32
  0
VERTEX
  8
0
  5
33AA
 10
188.662
 20
136.033
 30
0.00000
  70
    32
  0
VERTEX
  8
0
  5
33AB
 10
188.692
 20
135.936
 30
0.00000
  70
    32
  0
VERTEX
  8
0
  5
33AC
 10
188.723
 20
135.838
 30
0.00000
  70
    32
  0
VERTEX
  8
0
  5
33AD
 10
188.757
 20
135.741
 30
0.00000
  70
    32
  0
VERTEX
  8
0
  5
33AE
 10
188.793
 20
135.645
 30
0.00000
  70
    32
  0
VERTEX
  8
0
  5
33AF
 10
188.831
 20
135.548
 30
0.00000
  70
    32
  0
VERTEX
  8
0
  5
33B0
 10
188.871
 20
135.452
 30
0.00000
  70
    32
  0
VERTEX
  8
0
  5
33B1
 10
188.913
 20
135.357
 30
0.00000
  70
    32
  0
VERTEX
  8
0
  5
33B2
 10
188.957
 20
135.262
 30
0.00000
  70
    32
  0
VERTEX
  8
0
  5
33B3
 10
189.003
 20
135.167
 30
0.00000
  70
    32
  0
VERTEX
  8
0
  5
33B4
 10
189.051
 20
135.073
 30
0.00000
  70
    32
  0
VERTEX
  8
0
  5
33B5
 10
189.102
 20
134.979
 30
0.00000
  70
    32
  0
VERTEX
  8
0
  5
33B6
 10
189.154
 20
134.886
 30
0.00000
  70
    32
  0
VERTEX
  8
0
  5
33B7
 10
189.209
 20
134.794
 30
0.00000
  70
    32
  0
VERTEX
  8
0
  5
33B8
 10
189.265
 20
134.702
 30
0.00000
  70
    32
  0
VERTEX
  8
0
  5
33B9
 10
189.324
 20
134.610
 30
0.00000
  70
    32
  0
VERTEX
  8
0
  5
33BA
 10
189.384
 20
134.519
 30
0.00000
  70
    32
  0
VERTEX
  8
0
  5
33BB
 10
189.447
 20
134.429
 30
0.00000
  70
    32
  0
VERTEX
  8
0
  5
33BC
 10
189.511
 20
134.339
 30
0.00000
  70
    32
  0
VERTEX
  8
0
  5
33BD
 10
189.577
 20
134.250
 30
0.00000
  70
    32
  0
VERTEX
  8
0
  5
33BE
 10
189.646
 20
134.162
 30
0.00000
  70
    32
  0
VERTEX
  8
0
  5
33BF
 10
189.716
 20
134.074
 30
0.00000
  70
    32
  0
VERTEX
  8
0
  5
33C0
 10
189.788
 20
133.988
 30
0.00000
  70
    32
  0
VERTEX
  8
0
  5
33C1
 10
189.862
 20
133.901
 30
0.00000
  70
    32
  0
VERTEX
  8
0
  5
33C2
 10
189.938
 20
133.816
 30
0.00000
  70
    32
  0
VERTEX
  8
0
  5
33C3
 10
190.016
 20
133.731
 30
0.00000
  70
    32
  0
VERTEX
  8
0
  5
33C4
 10
190.096
 20
133.647
 30
0.00000
  70
    32
  0
VERTEX
  8
0
  5
33C5
 10
190.177
 20
133.564
 30
0.00000
  70
    32
  0
VERTEX
  8
0
  5
33C6
 10
190.260
 20
133.482
 30
0.00000
  70
    32
  0
VERTEX
  8
0
  5
33C7
 10
190.345
 20
133.401
 30
0.00000
  70
    32
  0
VERTEX
  8
0
  5
33C8
 10
190.432
 20
133.320
 30
0.00000
  70
    32
  0
VERTEX
  8
0
  5
33C9
 10
190.521
 20
133.240
 30
0.00000
  70
    32
  0
VERTEX
  8
0
  5
33CA
 10
190.611
 20
133.161
 30
0.00000
  70
    32
  0
VERTEX
  8
0
  5
33CB
 10
190.703
 20
133.084
 30
0.00000
  70
    32
  0
VERTEX
  8
0
  5
33CC
 10
190.797
 20
133.007
 30
0.00000
  70
    32
  0
VERTEX
  8
0
  5
33CD
 10
190.892
 20
132.931
 30
0.00000
  70
    32
  0
VERTEX
  8
0
  5
33CE
 10
190.989
 20
132.855
 30
0.00000
  70
    32
  0
VERTEX
  8
0
  5
33CF
 10
191.088
 20
132.781
 30
0.00000
  70
    32
  0
VERTEX
  8
0
  5
33D0
 10
191.188
 20
132.708
 30
0.00000
  70
    32
  0
VERTEX
  8
0
  5
33D1
 10
191.290
 20
132.636
 30
0.00000
  70
    32
  0
VERTEX
  8
0
  5
33D2
 10
191.394
 20
132.565
 30
0.00000
  70
    32
  0
VERTEX
  8
0
  5
33D3
 10
191.499
 20
132.495
 30
0.00000
  70
    32
  0
VERTEX
  8
0
  5
33D4
 10
191.605
 20
132.426
 30
0.00000
  70
    32
  0
VERTEX
  8
0
  5
33D5
 10
191.713
 20
132.358
 30
0.00000
  70
    32
  0
VERTEX
  8
0
  5
33D6
 10
191.823
 20
132.291
 30
0.00000
  70
    32
  0
VERTEX
  8
0
  5
33D7
 10
191.934
 20
132.226
 30
0.00000
  70
    32
  0
VERTEX
  8
0
  5
33D8
 10
192.046
 20
132.161
 30
0.00000
  70
    32
  0
VERTEX
  8
0
  5
33D9
 10
192.160
 20
132.097
 30
0.00000
  70
    32
  0
VERTEX
  8
0
  5
33DA
 10
192.275
 20
132.035
 30
0.00000
  70
    32
  0
VERTEX
  8
0
  5
33DB
 10
192.392
 20
131.974
 30
0.00000
  70
    32
  0
VERTEX
  8
0
  5
33DC
 10
192.510
 20
131.914
 30
0.00000
  70
    32
  0
VERTEX
  8
0
  5
33DD
 10
192.629
 20
131.855
 30
0.00000
  70
    32
  0
VERTEX
  8
0
  5
33DE
 10
192.749
 20
131.797
 30
0.00000
  70
    32
  0
VERTEX
  8
0
  5
33DF
 10
192.871
 20
131.741
 30
0.00000
  70
    32
  0
VERTEX
  8
0
  5
33E0
 10
192.994
 20
131.686
 30
0.00000
  70
    32
  0
VERTEX
  8
0
  5
33E1
 10
193.118
 20
131.632
 30
0.00000
  70
    32
  0
VERTEX
  8
0
  5
33E2
 10
193.243
 20
131.579
 30
0.00000
  70
    32
  0
VERTEX
  8
0
  5
33E3
 10
193.370
 20
131.527
 30
0.00000
  70
    32
  0
VERTEX
  8
0
  5
33E4
 10
193.497
 20
131.477
 30
0.00000
  70
    32
  0
VERTEX
  8
0
  5
33E5
 10
193.626
 20
131.428
 30
0.00000
  70
    32
  0
VERTEX
  8
0
  5
33E6
 10
193.756
 20
131.381
 30
0.00000
  70
    32
  0
VERTEX
  8
0
  5
33E7
 10
193.886
 20
131.334
 30
0.00000
  70
    32
  0
VERTEX
  8
0
  5
33E8
 10
194.018
 20
131.289
 30
0.00000
  70
    32
  0
VERTEX
  8
0
  5
33E9
 10
194.151
 20
131.245
 30
0.00000
  70
    32
  0
VERTEX
  8
0
  5
33EA
 10
194.284
 20
131.203
 30
0.00000
  70
    32
  0
VERTEX
  8
0
  5
33EB
 10
194.419
 20
131.162
 30
0.00000
  70
    32
  0
VERTEX
  8
0
  5
33EC
 10
194.554
 20
131.122
 30
0.00000
  70
    32
  0
SEQEND
  8
0
  5
33ED
  0
ARC
  5
2BCA
  8
0
 10
198.4768214922750076
 20
134.222652586207488
 30
0.0
 40
4.999999973954087
 50
218.3245774339856951
 51
321.6754238666314905
  0
POLYLINE
  5
2BCB
  8
0
 10
202.3993737275065143
 20
131.122074556551155
 30
0.0
 66
     1
 70
     8
  0
VERTEX
  8
0
  5
33EE
 10
202.399
 20
131.122
 30
0.00000
  70
    32
  0
VERTEX
  8
0
  5
33EF
 10
202.535
 20
131.162
 30
0.00000
  70
    32
  0
VERTEX
  8
0
  5
33F0
 10
202.669
 20
131.203
 30
0.00000
  70
    32
  0
VERTEX
  8
0
  5
33F1
 10
202.803
 20
131.245
 30
0.00000
  70
    32
  0
VERTEX
  8
0
  5
33F2
 10
202.936
 20
131.289
 30
0.00000
  70
    32
  0
VERTEX
  8
0
  5
33F3
 10
203.067
 20
131.334
 30
0.00000
  70
    32
  0
VERTEX
  8
0
  5
33F4
 10
203.198
 20
131.381
 30
0.00000
  70
    32
  0
VERTEX
  8
0
  5
33F5
 10
203.328
 20
131.428
 30
0.00000
  70
    32
  0
VERTEX
  8
0
  5
33F6
 10
203.456
 20
131.477
 30
0.00000
  70
    32
  0
VERTEX
  8
0
  5
33F7
 10
203.584
 20
131.527
 30
0.00000
  70
    32
  0
VERTEX
  8
0
  5
33F8
 10
203.710
 20
131.579
 30
0.00000
  70
    32
  0
VERTEX
  8
0
  5
33F9
 10
203.836
 20
131.632
 30
0.00000
  70
    32
  0
VERTEX
  8
0
  5
33FA
 10
203.960
 20
131.686
 30
0.00000
  70
    32
  0
VERTEX
  8
0
  5
33FB
 10
204.083
 20
131.741
 30
0.00000
  70
    32
  0
VERTEX
  8
0
  5
33FC
 10
204.204
 20
131.797
 30
0.00000
  70
    32
  0
VERTEX
  8
0
  5
33FD
 10
204.325
 20
131.855
 30
0.00000
  70
    32
  0
VERTEX
  8
0
  5
33FE
 10
204.444
 20
131.914
 30
0.00000
  70
    32
  0
VERTEX
  8
0
  5
33FF
 10
204.562
 20
131.974
 30
0.00000
  70
    32
  0
VERTEX
  8
0
  5
3400
 10
204.678
 20
132.035
 30
0.00000
  70
    32
  0
VERTEX
  8
0
  5
3401
 10
204.793
 20
132.097
 30
0.00000
  70
    32
  0
VERTEX
  8
0
  5
3402
 10
204.907
 20
132.161
 30
0.00000
  70
    32
  0
VERTEX
  8
0
  5
3403
 10
205.020
 20
132.226
 30
0.00000
  70
    32
  0
VERTEX
  8
0
  5
3404
 10
205.131
 20
132.291
 30
0.00000
  70
    32
  0
VERTEX
  8
0
  5
3405
 10
205.240
 20
132.358
 30
0.00000
  70
    32
  0
VERTEX
  8
0
  5
3406
 10
205.348
 20
132.426
 30
0.00000
  70
    32
  0
VERTEX
  8
0
  5
3407
 10
205.455
 20
132.495
 30
0.00000
  70
    32
  0
VERTEX
  8
0
  5
3408
 10
205.560
 20
132.565
 30
0.00000
  70
    32
  0
VERTEX
  8
0
  5
3409
 10
205.663
 20
132.636
 30
0.00000
  70
    32
  0
VERTEX
  8
0
  5
340A
 10
205.765
 20
132.708
 30
0.00000
  70
    32
  0
VERTEX
  8
0
  5
340B
 10
205.865
 20
132.781
 30
0.00000
  70
    32
  0
VERTEX
  8
0
  5
340C
 10
205.964
 20
132.855
 30
0.00000
  70
    32
  0
VERTEX
  8
0
  5
340D
 10
206.061
 20
132.931
 30
0.00000
  70
    32
  0
VERTEX
  8
0
  5
340E
 10
206.157
 20
133.007
 30
0.00000
  70
    32
  0
VERTEX
  8
0
  5
340F
 10
206.250
 20
133.084
 30
0.00000
  70
    32
  0
VERTEX
  8
0
  5
3410
 10
206.343
 20
133.161
 30
0.00000
  70
    32
  0
VERTEX
  8
0
  5
3411
 10
206.433
 20
133.240
 30
0.00000
  70
    32
  0
VERTEX
  8
0
  5
3412
 10
206.521
 20
133.320
 30
0.00000
  70
    32
  0
VERTEX
  8
0
  5
3413
 10
206.608
 20
133.401
 30
0.00000
  70
    32
  0
VERTEX
  8
0
  5
3414
 10
206.693
 20
133.482
 30
0.00000
  70
    32
  0
VERTEX
  8
0
  5
3415
 10
206.777
 20
133.564
 30
0.00000
  70
    32
  0
VERTEX
  8
0
  5
3416
 10
206.858
 20
133.647
 30
0.00000
  70
    32
  0
VERTEX
  8
0
  5
3417
 10
206.938
 20
133.731
 30
0.00000
  70
    32
  0
VERTEX
  8
0
  5
3418
 10
207.016
 20
133.816
 30
0.00000
  70
    32
  0
VERTEX
  8
0
  5
3419
 10
207.092
 20
133.901
 30
0.00000
  70
    32
  0
VERTEX
  8
0
  5
341A
 10
207.166
 20
133.988
 30
0.00000
  70
    32
  0
VERTEX
  8
0
  5
341B
 10
207.238
 20
134.074
 30
0.00000
  70
    32
  0
VERTEX
  8
0
  5
341C
 10
207.308
 20
134.162
 30
0.00000
  70
    32
  0
VERTEX
  8
0
  5
341D
 10
207.376
 20
134.250
 30
0.00000
  70
    32
  0
VERTEX
  8
0
  5
341E
 10
207.443
 20
134.339
 30
0.00000
  70
    32
  0
VERTEX
  8
0
  5
341F
 10
207.507
 20
134.429
 30
0.00000
  70
    32
  0
VERTEX
  8
0
  5
3420
 10
207.570
 20
134.519
 30
0.00000
  70
    32
  0
VERTEX
  8
0
  5
3421
 10
207.630
 20
134.610
 30
0.00000
  70
    32
  0
VERTEX
  8
0
  5
3422
 10
207.689
 20
134.702
 30
0.00000
  70
    32
  0
VERTEX
  8
0
  5
3423
 10
207.745
 20
134.794
 30
0.00000
  70
    32
  0
VERTEX
  8
0
  5
3424
 10
207.799
 20
134.886
 30
0.00000
  70
    32
  0
VERTEX
  8
0
  5
3425
 10
207.852
 20
134.979
 30
0.00000
  70
    32
  0
VERTEX
  8
0
  5
3426
 10
207.902
 20
135.073
 30
0.00000
  70
    32
  0
VERTEX
  8
0
  5
3427
 10
207.951
 20
135.167
 30
0.00000
  70
    32
  0
VERTEX
  8
0
  5
3428
 10
207.997
 20
135.262
 30
0.00000
  70
    32
  0
VERTEX
  8
0
  5
3429
 10
208.041
 20
135.357
 30
0.00000
  70
    32
  0
VERTEX
  8
0
  5
342A
 10
208.083
 20
135.452
 30
0.00000
  70
    32
  0
VERTEX
  8
0
  5
342B
 10
208.123
 20
135.548
 30
0.00000
  70
    32
  0
VERTEX
  8
0
  5
342C
 10
208.161
 20
135.645
 30
0.00000
  70
    32
  0
VERTEX
  8
0
  5
342D
 10
208.197
 20
135.741
 30
0.00000
  70
    32
  0
VERTEX
  8
0
  5
342E
 10
208.230
 20
135.838
 30
0.00000
  70
    32
  0
VERTEX
  8
0
  5
342F
 10
208.262
 20
135.936
 30
0.00000
  70
    32
  0
VERTEX
  8
0
  5
3430
 10
208.291
 20
136.033
 30
0.00000
  70
    32
  0
VERTEX
  8
0
  5
3431
 10
208.318
 20
136.131
 30
0.00000
  70
    32
  0
VERTEX
  8
0
  5
3432
 10
208.344
 20
136.229
 30
0.00000
  70
    32
  0
VERTEX
  8
0
  5
3433
 10
208.367
 20
136.328
 30
0.00000
  70
    32
  0
VERTEX
  8
0
  5
3434
 10
208.387
 20
136.426
 30
0.00000
  70
    32
  0
VERTEX
  8
0
  5
3435
 10
208.406
 20
136.525
 30
0.00000
  70
    32
  0
VERTEX
  8
0
  5
3436
 10
208.422
 20
136.624
 30
0.00000
  70
    32
  0
VERTEX
  8
0
  5
3437
 10
208.437
 20
136.723
 30
0.00000
  70
    32
  0
VERTEX
  8
0
  5
3438
 10
208.449
 20
136.823
 30
0.00000
  70
    32
  0
VERTEX
  8
0
  5
3439
 10
208.459
 20
136.922
 30
0.00000
  70
    32
  0
VERTEX
  8
0
  5
343A
 10
208.467
 20
137.021
 30
0.00000
  70
    32
  0
VERTEX
  8
0
  5
343B
 10
208.472
 20
137.121
 30
0.00000
  70
    32
  0
VERTEX
  8
0
  5
343C
 10
208.476
 20
137.221
 30
0.00000
  70
    32
  0
VERTEX
  8
0
  5
343D
 10
208.477
 20
137.320
 30
0.00000
  70
    32
  0
VERTEX
  8
0
  5
343E
 10
208.476
 20
137.420
 30
0.00000
  70
    32
  0
VERTEX
  8
0
  5
343F
 10
208.473
 20
137.519
 30
0.00000
  70
    32
  0
VERTEX
  8
0
  5
3440
 10
208.467
 20
137.619
 30
0.00000
  70
    32
  0
VERTEX
  8
0
  5
3441
 10
208.460
 20
137.718
 30
0.00000
  70
    32
  0
VERTEX
  8
0
  5
3442
 10
208.450
 20
137.818
 30
0.00000
  70
    32
  0
VERTEX
  8
0
  5
3443
 10
208.438
 20
137.917
 30
0.00000
  70
    32
  0
VERTEX
  8
0
  5
3444
 10
208.424
 20
138.016
 30
0.00000
  70
    32
  0
VERTEX
  8
0
  5
3445
 10
208.408
 20
138.115
 30
0.00000
  70
    32
  0
VERTEX
  8
0
  5
3446
 10
208.390
 20
138.214
 30
0.00000
  70
    32
  0
VERTEX
  8
0
  5
3447
 10
208.369
 20
138.313
 30
0.00000
  70
    32
  0
VERTEX
  8
0
  5
3448
 10
208.347
 20
138.411
 30
0.00000
  70
    32
  0
VERTEX
  8
0
  5
3449
 10
208.322
 20
138.509
 30
0.00000
  70
    32
  0
VERTEX
  8
0
  5
344A
 10
208.295
 20
138.607
 30
0.00000
  70
    32
  0
VERTEX
  8
0
  5
344B
 10
208.266
 20
138.705
 30
0.00000
  70
    32
  0
VERTEX
  8
0
  5
344C
 10
208.235
 20
138.802
 30
0.00000
  70
    32
  0
VERTEX
  8
0
  5
344D
 10
208.201
 20
138.899
 30
0.00000
  70
    32
  0
VERTEX
  8
0
  5
344E
 10
208.166
 20
138.996
 30
0.00000
  70
    32
  0
VERTEX
  8
0
  5
344F
 10
208.128
 20
139.092
 30
0.00000
  70
    32
  0
VERTEX
  8
0
  5
3450
 10
208.088
 20
139.188
 30
0.00000
  70
    32
  0
VERTEX
  8
0
  5
3451
 10
208.047
 20
139.284
 30
0.00000
  70
    32
  0
VERTEX
  8
0
  5
3452
 10
208.003
 20
139.379
 30
0.00000
  70
    32
  0
VERTEX
  8
0
  5
3453
 10
207.957
 20
139.474
 30
0.00000
  70
    32
  0
VERTEX
  8
0
  5
3454
 10
207.909
 20
139.568
 30
0.00000
  70
    32
  0
VERTEX
  8
0
  5
3455
 10
207.858
 20
139.662
 30
0.00000
  70
    32
  0
VERTEX
  8
0
  5
3456
 10
207.806
 20
139.755
 30
0.00000
  70
    32
  0
VERTEX
  8
0
  5
3457
 10
207.752
 20
139.848
 30
0.00000
  70
    32
  0
VERTEX
  8
0
  5
3458
 10
207.696
 20
139.940
 30
0.00000
  70
    32
  0
VERTEX
  8
0
  5
3459
 10
207.638
 20
140.031
 30
0.00000
  70
    32
  0
VERTEX
  8
0
  5
345A
 10
207.577
 20
140.122
 30
0.00000
  70
    32
  0
VERTEX
  8
0
  5
345B
 10
207.515
 20
140.213
 30
0.00000
  70
    32
  0
VERTEX
  8
0
  5
345C
 10
207.451
 20
140.302
 30
0.00000
  70
    32
  0
VERTEX
  8
0
  5
345D
 10
207.385
 20
140.391
 30
0.00000
  70
    32
  0
VERTEX
  8
0
  5
345E
 10
207.317
 20
140.480
 30
0.00000
  70
    32
  0
VERTEX
  8
0
  5
345F
 10
207.247
 20
140.567
 30
0.00000
  70
    32
  0
VERTEX
  8
0
  5
3460
 10
207.175
 20
140.654
 30
0.00000
  70
    32
  0
VERTEX
  8
0
  5
3461
 10
207.101
 20
140.741
 30
0.00000
  70
    32
  0
VERTEX
  8
0
  5
3462
 10
207.025
 20
140.826
 30
0.00000
  70
    32
  0
VERTEX
  8
0
  5
3463
 10
206.948
 20
140.911
 30
0.00000
  70
    32
  0
VERTEX
  8
0
  5
3464
 10
206.869
 20
140.995
 30
0.00000
  70
    32
  0
VERTEX
  8
0
  5
3465
 10
206.787
 20
141.078
 30
0.00000
  70
    32
  0
VERTEX
  8
0
  5
3466
 10
206.704
 20
141.161
 30
0.00000
  70
    32
  0
VERTEX
  8
0
  5
3467
 10
206.619
 20
141.242
 30
0.00000
  70
    32
  0
VERTEX
  8
0
  5
3468
 10
206.533
 20
141.323
 30
0.00000
  70
    32
  0
VERTEX
  8
0
  5
3469
 10
206.444
 20
141.403
 30
0.00000
  70
    32
  0
VERTEX
  8
0
  5
346A
 10
206.354
 20
141.482
 30
0.00000
  70
    32
  0
VERTEX
  8
0
  5
346B
 10
206.262
 20
141.560
 30
0.00000
  70
    32
  0
VERTEX
  8
0
  5
346C
 10
206.169
 20
141.637
 30
0.00000
  70
    32
  0
VERTEX
  8
0
  5
346D
 10
206.074
 20
141.713
 30
0.00000
  70
    32
  0
VERTEX
  8
0
  5
346E
 10
205.977
 20
141.788
 30
0.00000
  70
    32
  0
SEQEND
  8
0
  5
346F
  0
LINE
  5
2BCC
  8
0
 10
188.4768215042230111
 20
89.756152613093974
 30
0.0
 11
208.4768215042230111
 21
89.7561526130940308
 31
0.0
  0
LINE
  5
2BCD
  8
0
 10
190.0103215042229863
 20
88.2226526130939703
 30
0.0
 11
206.9433215042230074
 21
88.222652613094013
 31
0.0
  0
POLYLINE
  5
2BCE
  8
0
 10
190.9768215042228121
 20
139.2043367196048109
 30
0.0
 66
     1
 70
     8
  0
VERTEX
  8
0
  5
3470
 10
190.977
 20
139.204
 30
0.00000
  70
    32
  0
VERTEX
  8
0
  5
3471
 10
190.949
 20
139.154
 30
0.00000
  70
    32
  0
VERTEX
  8
0
  5
3472
 10
190.923
 20
139.103
 30
0.00000
  70
    32
  0
VERTEX
  8
0
  5
3473
 10
190.897
 20
139.053
 30
0.00000
  70
    32
  0
VERTEX
  8
0
  5
3474
 10
190.872
 20
139.002
 30
0.00000
  70
    32
  0
VERTEX
  8
0
  5
3475
 10
190.848
 20
138.950
 30
0.00000
  70
    32
  0
VERTEX
  8
0
  5
3476
 10
190.824
 20
138.899
 30
0.00000
  70
    32
  0
VERTEX
  8
0
  5
3477
 10
190.801
 20
138.848
 30
0.00000
  70
    32
  0
VERTEX
  8
0
  5
3478
 10
190.779
 20
138.796
 30
0.00000
  70
    32
  0
VERTEX
  8
0
  5
3479
 10
190.758
 20
138.744
 30
0.00000
  70
    32
  0
VERTEX
  8
0
  5
347A
 10
190.737
 20
138.693
 30
0.00000
  70
    32
  0
VERTEX
  8
0
  5
347B
 10
190.718
 20
138.641
 30
0.00000
  70
    32
  0
VERTEX
  8
0
  5
347C
 10
190.699
 20
138.588
 30
0.00000
  70
    32
  0
VERTEX
  8
0
  5
347D
 10
190.680
 20
138.536
 30
0.00000
  70
    32
  0
VERTEX
  8
0
  5
347E
 10
190.663
 20
138.484
 30
0.00000
  70
    32
  0
VERTEX
  8
0
  5
347F
 10
190.646
 20
138.431
 30
0.00000
  70
    32
  0
VERTEX
  8
0
  5
3480
 10
190.630
 20
138.379
 30
0.00000
  70
    32
  0
VERTEX
  8
0
  5
3481
 10
190.615
 20
138.326
 30
0.00000
  70
    32
  0
VERTEX
  8
0
  5
3482
 10
190.601
 20
138.273
 30
0.00000
  70
    32
  0
VERTEX
  8
0
  5
3483
 10
190.587
 20
138.220
 30
0.00000
  70
    32
  0
VERTEX
  8
0
  5
3484
 10
190.574
 20
138.167
 30
0.00000
  70
    32
  0
VERTEX
  8
0
  5
3485
 10
190.562
 20
138.114
 30
0.00000
  70
    32
  0
VERTEX
  8
0
  5
3486
 10
190.551
 20
138.061
 30
0.00000
  70
    32
  0
VERTEX
  8
0
  5
3487
 10
190.541
 20
138.008
 30
0.00000
  70
    32
  0
VERTEX
  8
0
  5
3488
 10
190.531
 20
137.954
 30
0.00000
  70
    32
  0
VERTEX
  8
0
  5
3489
 10
190.522
 20
137.901
 30
0.00000
  70
    32
  0
VERTEX
  8
0
  5
348A
 10
190.514
 20
137.848
 30
0.00000
  70
    32
  0
VERTEX
  8
0
  5
348B
 10
190.507
 20
137.794
 30
0.00000
  70
    32
  0
VERTEX
  8
0
  5
348C
 10
190.500
 20
137.741
 30
0.00000
  70
    32
  0
VERTEX
  8
0
  5
348D
 10
190.495
 20
137.687
 30
0.00000
  70
    32
  0
VERTEX
  8
0
  5
348E
 10
190.490
 20
137.634
 30
0.00000
  70
    32
  0
VERTEX
  8
0
  5
348F
 10
190.486
 20
137.580
 30
0.00000
  70
    32
  0
VERTEX
  8
0
  5
3490
 10
190.482
 20
137.526
 30
0.00000
  70
    32
  0
VERTEX
  8
0
  5
3491
 10
190.480
 20
137.473
 30
0.00000
  70
    32
  0
VERTEX
  8
0
  5
3492
 10
190.478
 20
137.419
 30
0.00000
  70
    32
  0
VERTEX
  8
0
  5
3493
 10
190.477
 20
137.365
 30
0.00000
  70
    32
  0
VERTEX
  8
0
  5
3494
 10
190.477
 20
137.312
 30
0.00000
  70
    32
  0
VERTEX
  8
0
  5
3495
 10
190.477
 20
137.258
 30
0.00000
  70
    32
  0
VERTEX
  8
0
  5
3496
 10
190.479
 20
137.204
 30
0.00000
  70
    32
  0
VERTEX
  8
0
  5
3497
 10
190.481
 20
137.150
 30
0.00000
  70
    32
  0
VERTEX
  8
0
  5
3498
 10
190.484
 20
137.097
 30
0.00000
  70
    32
  0
VERTEX
  8
0
  5
3499
 10
190.488
 20
137.043
 30
0.00000
  70
    32
  0
VERTEX
  8
0
  5
349A
 10
190.492
 20
136.990
 30
0.00000
  70
    32
  0
VERTEX
  8
0
  5
349B
 10
190.498
 20
136.936
 30
0.00000
  70
    32
  0
VERTEX
  8
0
  5
349C
 10
190.504
 20
136.883
 30
0.00000
  70
    32
  0
VERTEX
  8
0
  5
349D
 10
190.511
 20
136.829
 30
0.00000
  70
    32
  0
VERTEX
  8
0
  5
349E
 10
190.519
 20
136.776
 30
0.00000
  70
    32
  0
VERTEX
  8
0
  5
349F
 10
190.527
 20
136.722
 30
0.00000
  70
    32
  0
VERTEX
  8
0
  5
34A0
 10
190.536
 20
136.669
 30
0.00000
  70
    32
  0
VERTEX
  8
0
  5
34A1
 10
190.547
 20
136.616
 30
0.00000
  70
    32
  0
VERTEX
  8
0
  5
34A2
 10
190.557
 20
136.562
 30
0.00000
  70
    32
  0
VERTEX
  8
0
  5
34A3
 10
190.569
 20
136.509
 30
0.00000
  70
    32
  0
VERTEX
  8
0
  5
34A4
 10
190.582
 20
136.456
 30
0.00000
  70
    32
  0
VERTEX
  8
0
  5
34A5
 10
190.595
 20
136.403
 30
0.00000
  70
    32
  0
VERTEX
  8
0
  5
34A6
 10
190.609
 20
136.350
 30
0.00000
  70
    32
  0
VERTEX
  8
0
  5
34A7
 10
190.624
 20
136.298
 30
0.00000
  70
    32
  0
VERTEX
  8
0
  5
34A8
 10
190.639
 20
136.245
 30
0.00000
  70
    32
  0
VERTEX
  8
0
  5
34A9
 10
190.655
 20
136.193
 30
0.00000
  70
    32
  0
VERTEX
  8
0
  5
34AA
 10
190.673
 20
136.140
 30
0.00000
  70
    32
  0
VERTEX
  8
0
  5
34AB
 10
190.690
 20
136.088
 30
0.00000
  70
    32
  0
VERTEX
  8
0
  5
34AC
 10
190.709
 20
136.036
 30
0.00000
  70
    32
  0
VERTEX
  8
0
  5
34AD
 10
190.729
 20
135.984
 30
0.00000
  70
    32
  0
VERTEX
  8
0
  5
34AE
 10
190.749
 20
135.932
 30
0.00000
  70
    32
  0
VERTEX
  8
0
  5
34AF
 10
190.770
 20
135.880
 30
0.00000
  70
    32
  0
VERTEX
  8
0
  5
34B0
 10
190.791
 20
135.828
 30
0.00000
  70
    32
  0
VERTEX
  8
0
  5
34B1
 10
190.814
 20
135.777
 30
0.00000
  70
    32
  0
VERTEX
  8
0
  5
34B2
 10
190.837
 20
135.725
 30
0.00000
  70
    32
  0
VERTEX
  8
0
  5
34B3
 10
190.861
 20
135.674
 30
0.00000
  70
    32
  0
VERTEX
  8
0
  5
34B4
 10
190.886
 20
135.623
 30
0.00000
  70
    32
  0
VERTEX
  8
0
  5
34B5
 10
190.911
 20
135.572
 30
0.00000
  70
    32
  0
VERTEX
  8
0
  5
34B6
 10
190.938
 20
135.521
 30
0.00000
  70
    32
  0
VERTEX
  8
0
  5
34B7
 10
190.965
 20
135.471
 30
0.00000
  70
    32
  0
VERTEX
  8
0
  5
34B8
 10
190.992
 20
135.421
 30
0.00000
  70
    32
  0
VERTEX
  8
0
  5
34B9
 10
191.021
 20
135.371
 30
0.00000
  70
    32
  0
VERTEX
  8
0
  5
34BA
 10
191.050
 20
135.321
 30
0.00000
  70
    32
  0
VERTEX
  8
0
  5
34BB
 10
191.080
 20
135.271
 30
0.00000
  70
    32
  0
VERTEX
  8
0
  5
34BC
 10
191.111
 20
135.221
 30
0.00000
  70
    32
  0
VERTEX
  8
0
  5
34BD
 10
191.142
 20
135.172
 30
0.00000
  70
    32
  0
VERTEX
  8
0
  5
34BE
 10
191.174
 20
135.123
 30
0.00000
  70
    32
  0
VERTEX
  8
0
  5
34BF
 10
191.207
 20
135.074
 30
0.00000
  70
    32
  0
VERTEX
  8
0
  5
34C0
 10
191.241
 20
135.025
 30
0.00000
  70
    32
  0
VERTEX
  8
0
  5
34C1
 10
191.275
 20
134.977
 30
0.00000
  70
    32
  0
VERTEX
  8
0
  5
34C2
 10
191.310
 20
134.929
 30
0.00000
  70
    32
  0
VERTEX
  8
0
  5
34C3
 10
191.346
 20
134.881
 30
0.00000
  70
    32
  0
VERTEX
  8
0
  5
34C4
 10
191.382
 20
134.833
 30
0.00000
  70
    32
  0
VERTEX
  8
0
  5
34C5
 10
191.419
 20
134.785
 30
0.00000
  70
    32
  0
VERTEX
  8
0
  5
34C6
 10
191.457
 20
134.738
 30
0.00000
  70
    32
  0
VERTEX
  8
0
  5
34C7
 10
191.496
 20
134.691
 30
0.00000
  70
    32
  0
VERTEX
  8
0
  5
34C8
 10
191.535
 20
134.644
 30
0.00000
  70
    32
  0
VERTEX
  8
0
  5
34C9
 10
191.575
 20
134.598
 30
0.00000
  70
    32
  0
VERTEX
  8
0
  5
34CA
 10
191.616
 20
134.552
 30
0.00000
  70
    32
  0
VERTEX
  8
0
  5
34CB
 10
191.657
 20
134.506
 30
0.00000
  70
    32
  0
VERTEX
  8
0
  5
34CC
 10
191.699
 20
134.460
 30
0.00000
  70
    32
  0
VERTEX
  8
0
  5
34CD
 10
191.741
 20
134.415
 30
0.00000
  70
    32
  0
VERTEX
  8
0
  5
34CE
 10
191.785
 20
134.370
 30
0.00000
  70
    32
  0
VERTEX
  8
0
  5
34CF
 10
191.829
 20
134.325
 30
0.00000
  70
    32
  0
VERTEX
  8
0
  5
34D0
 10
191.873
 20
134.281
 30
0.00000
  70
    32
  0
VERTEX
  8
0
  5
34D1
 10
191.918
 20
134.236
 30
0.00000
  70
    32
  0
VERTEX
  8
0
  5
34D2
 10
191.964
 20
134.193
 30
0.00000
  70
    32
  0
VERTEX
  8
0
  5
34D3
 10
192.011
 20
134.149
 30
0.00000
  70
    32
  0
VERTEX
  8
0
  5
34D4
 10
192.058
 20
134.106
 30
0.00000
  70
    32
  0
VERTEX
  8
0
  5
34D5
 10
192.106
 20
134.063
 30
0.00000
  70
    32
  0
VERTEX
  8
0
  5
34D6
 10
192.154
 20
134.020
 30
0.00000
  70
    32
  0
VERTEX
  8
0
  5
34D7
 10
192.204
 20
133.978
 30
0.00000
  70
    32
  0
VERTEX
  8
0
  5
34D8
 10
192.253
 20
133.936
 30
0.00000
  70
    32
  0
VERTEX
  8
0
  5
34D9
 10
192.304
 20
133.894
 30
0.00000
  70
    32
  0
VERTEX
  8
0
  5
34DA
 10
192.354
 20
133.853
 30
0.00000
  70
    32
  0
VERTEX
  8
0
  5
34DB
 10
192.406
 20
133.812
 30
0.00000
  70
    32
  0
VERTEX
  8
0
  5
34DC
 10
192.458
 20
133.772
 30
0.00000
  70
    32
  0
VERTEX
  8
0
  5
34DD
 10
192.511
 20
133.732
 30
0.00000
  70
    32
  0
VERTEX
  8
0
  5
34DE
 10
192.564
 20
133.692
 30
0.00000
  70
    32
  0
VERTEX
  8
0
  5
34DF
 10
192.618
 20
133.652
 30
0.00000
  70
    32
  0
VERTEX
  8
0
  5
34E0
 10
192.673
 20
133.613
 30
0.00000
  70
    32
  0
VERTEX
  8
0
  5
34E1
 10
192.728
 20
133.574
 30
0.00000
  70
    32
  0
VERTEX
  8
0
  5
34E2
 10
192.783
 20
133.536
 30
0.00000
  70
    32
  0
VERTEX
  8
0
  5
34E3
 10
192.840
 20
133.498
 30
0.00000
  70
    32
  0
VERTEX
  8
0
  5
34E4
 10
192.896
 20
133.460
 30
0.00000
  70
    32
  0
VERTEX
  8
0
  5
34E5
 10
192.954
 20
133.423
 30
0.00000
  70
    32
  0
VERTEX
  8
0
  5
34E6
 10
193.011
 20
133.386
 30
0.00000
  70
    32
  0
VERTEX
  8
0
  5
34E7
 10
193.070
 20
133.350
 30
0.00000
  70
    32
  0
VERTEX
  8
0
  5
34E8
 10
193.129
 20
133.313
 30
0.00000
  70
    32
  0
VERTEX
  8
0
  5
34E9
 10
193.188
 20
133.278
 30
0.00000
  70
    32
  0
VERTEX
  8
0
  5
34EA
 10
193.248
 20
133.242
 30
0.00000
  70
    32
  0
VERTEX
  8
0
  5
34EB
 10
193.309
 20
133.208
 30
0.00000
  70
    32
  0
VERTEX
  8
0
  5
34EC
 10
193.370
 20
133.173
 30
0.00000
  70
    32
  0
VERTEX
  8
0
  5
34ED
 10
193.431
 20
133.139
 30
0.00000
  70
    32
  0
VERTEX
  8
0
  5
34EE
 10
193.493
 20
133.105
 30
0.00000
  70
    32
  0
VERTEX
  8
0
  5
34EF
 10
193.556
 20
133.072
 30
0.00000
  70
    32
  0
VERTEX
  8
0
  5
34F0
 10
193.619
 20
133.039
 30
0.00000
  70
    32
  0
SEQEND
  8
0
  5
34F1
  0
ARC
  5
2BCF
  8
0
 10
198.4768215042228121
 20
134.2226526130939988
 30
0.0
 40
5.0000000000000018
 50
193.6897896183340038
 51
218.3245776324503993
  0
POLYLINE
  5
2BD0
  8
0
 10
203.334778069159313
 20
133.0393275868715932
 30
0.0
 66
     1
 70
     8
  0
VERTEX
  8
0
  5
34F2
 10
203.335
 20
133.039
 30
0.00000
  70
    32
  0
VERTEX
  8
0
  5
34F3
 10
203.398
 20
133.072
 30
0.00000
  70
    32
  0
VERTEX
  8
0
  5
34F4
 10
203.460
 20
133.105
 30
0.00000
  70
    32
  0
VERTEX
  8
0
  5
34F5
 10
203.522
 20
133.139
 30
0.00000
  70
    32
  0
VERTEX
  8
0
  5
34F6
 10
203.584
 20
133.173
 30
0.00000
  70
    32
  0
VERTEX
  8
0
  5
34F7
 10
203.645
 20
133.208
 30
0.00000
  70
    32
  0
VERTEX
  8
0
  5
34F8
 10
203.705
 20
133.242
 30
0.00000
  70
    32
  0
VERTEX
  8
0
  5
34F9
 10
203.765
 20
133.278
 30
0.00000
  70
    32
  0
VERTEX
  8
0
  5
34FA
 10
203.825
 20
133.313
 30
0.00000
  70
    32
  0
VERTEX
  8
0
  5
34FB
 10
203.884
 20
133.350
 30
0.00000
  70
    32
  0
VERTEX
  8
0
  5
34FC
 10
203.942
 20
133.386
 30
0.00000
  70
    32
  0
VERTEX
  8
0
  5
34FD
 10
204.000
 20
133.423
 30
0.00000
  70
    32
  0
VERTEX
  8
0
  5
34FE
 10
204.057
 20
133.460
 30
0.00000
  70
    32
  0
VERTEX
  8
0
  5
34FF
 10
204.114
 20
133.498
 30
0.00000
  70
    32
  0
VERTEX
  8
0
  5
3500
 10
204.170
 20
133.536
 30
0.00000
  70
    32
  0
VERTEX
  8
0
  5
3501
 10
204.226
 20
133.574
 30
0.00000
  70
    32
  0
VERTEX
  8
0
  5
3502
 10
204.281
 20
133.613
 30
0.00000
  70
    32
  0
VERTEX
  8
0
  5
3503
 10
204.335
 20
133.652
 30
0.00000
  70
    32
  0
VERTEX
  8
0
  5
3504
 10
204.389
 20
133.692
 30
0.00000
  70
    32
  0
VERTEX
  8
0
  5
3505
 10
204.443
 20
133.732
 30
0.00000
  70
    32
  0
VERTEX
  8
0
  5
3506
 10
204.495
 20
133.772
 30
0.00000
  70
    32
  0
VERTEX
  8
0
  5
3507
 10
204.548
 20
133.812
 30
0.00000
  70
    32
  0
VERTEX
  8
0
  5
3508
 10
204.599
 20
133.853
 30
0.00000
  70
    32
  0
VERTEX
  8
0
  5
3509
 10
204.650
 20
133.894
 30
0.00000
  70
    32
  0
VERTEX
  8
0
  5
350A
 10
204.700
 20
133.936
 30
0.00000
  70
    32
  0
VERTEX
  8
0
  5
350B
 10
204.750
 20
133.978
 30
0.00000
  70
    32
  0
VERTEX
  8
0
  5
350C
 10
204.799
 20
134.020
 30
0.00000
  70
    32
  0
VERTEX
  8
0
  5
350D
 10
204.848
 20
134.063
 30
0.00000
  70
    32
  0
VERTEX
  8
0
  5
350E
 10
204.895
 20
134.106
 30
0.00000
  70
    32
  0
VERTEX
  8
0
  5
350F
 10
204.943
 20
134.149
 30
0.00000
  70
    32
  0
VERTEX
  8
0
  5
3510
 10
204.989
 20
134.193
 30
0.00000
  70
    32
  0
VERTEX
  8
0
  5
3511
 10
205.035
 20
134.236
 30
0.00000
  70
    32
  0
VERTEX
  8
0
  5
3512
 10
205.080
 20
134.281
 30
0.00000
  70
    32
  0
VERTEX
  8
0
  5
3513
 10
205.125
 20
134.325
 30
0.00000
  70
    32
  0
VERTEX
  8
0
  5
3514
 10
205.169
 20
134.370
 30
0.00000
  70
    32
  0
VERTEX
  8
0
  5
3515
 10
205.212
 20
134.415
 30
0.00000
  70
    32
  0
VERTEX
  8
0
  5
3516
 10
205.255
 20
134.460
 30
0.00000
  70
    32
  0
VERTEX
  8
0
  5
3517
 10
205.297
 20
134.506
 30
0.00000
  70
    32
  0
VERTEX
  8
0
  5
3518
 10
205.338
 20
134.552
 30
0.00000
  70
    32
  0
VERTEX
  8
0
  5
3519
 10
205.379
 20
134.598
 30
0.00000
  70
    32
  0
VERTEX
  8
0
  5
351A
 10
205.419
 20
134.644
 30
0.00000
  70
    32
  0
VERTEX
  8
0
  5
351B
 10
205.458
 20
134.691
 30
0.00000
  70
    32
  0
VERTEX
  8
0
  5
351C
 10
205.496
 20
134.738
 30
0.00000
  70
    32
  0
VERTEX
  8
0
  5
351D
 10
205.534
 20
134.785
 30
0.00000
  70
    32
  0
VERTEX
  8
0
  5
351E
 10
205.571
 20
134.833
 30
0.00000
  70
    32
  0
VERTEX
  8
0
  5
351F
 10
205.608
 20
134.881
 30
0.00000
  70
    32
  0
VERTEX
  8
0
  5
3520
 10
205.643
 20
134.929
 30
0.00000
  70
    32
  0
VERTEX
  8
0
  5
3521
 10
205.678
 20
134.977
 30
0.00000
  70
    32
  0
VERTEX
  8
0
  5
3522
 10
205.713
 20
135.025
 30
0.00000
  70
    32
  0
VERTEX
  8
0
  5
3523
 10
205.746
 20
135.074
 30
0.00000
  70
    32
  0
VERTEX
  8
0
  5
3524
 10
205.779
 20
135.123
 30
0.00000
  70
    32
  0
VERTEX
  8
0
  5
3525
 10
205.811
 20
135.172
 30
0.00000
  70
    32
  0
VERTEX
  8
0
  5
3526
 10
205.843
 20
135.221
 30
0.00000
  70
    32
  0
VERTEX
  8
0
  5
3527
 10
205.874
 20
135.271
 30
0.00000
  70
    32
  0
VERTEX
  8
0
  5
3528
 10
205.903
 20
135.321
 30
0.00000
  70
    32
  0
VERTEX
  8
0
  5
3529
 10
205.933
 20
135.371
 30
0.00000
  70
    32
  0
VERTEX
  8
0
  5
352A
 10
205.961
 20
135.421
 30
0.00000
  70
    32
  0
VERTEX
  8
0
  5
352B
 10
205.989
 20
135.471
 30
0.00000
  70
    32
  0
VERTEX
  8
0
  5
352C
 10
206.016
 20
135.521
 30
0.00000
  70
    32
  0
VERTEX
  8
0
  5
352D
 10
206.042
 20
135.572
 30
0.00000
  70
    32
  0
VERTEX
  8
0
  5
352E
 10
206.068
 20
135.623
 30
0.00000
  70
    32
  0
VERTEX
  8
0
  5
352F
 10
206.092
 20
135.674
 30
0.00000
  70
    32
  0
VERTEX
  8
0
  5
3530
 10
206.116
 20
135.725
 30
0.00000
  70
    32
  0
VERTEX
  8
0
  5
3531
 10
206.140
 20
135.777
 30
0.00000
  70
    32
  0
VERTEX
  8
0
  5
3532
 10
206.162
 20
135.828
 30
0.00000
  70
    32
  0
VERTEX
  8
0
  5
3533
 10
206.184
 20
135.880
 30
0.00000
  70
    32
  0
VERTEX
  8
0
  5
3534
 10
206.205
 20
135.932
 30
0.00000
  70
    32
  0
VERTEX
  8
0
  5
3535
 10
206.225
 20
135.984
 30
0.00000
  70
    32
  0
VERTEX
  8
0
  5
3536
 10
206.244
 20
136.036
 30
0.00000
  70
    32
  0
VERTEX
  8
0
  5
3537
 10
206.263
 20
136.088
 30
0.00000
  70
    32
  0
VERTEX
  8
0
  5
3538
 10
206.281
 20
136.140
 30
0.00000
  70
    32
  0
VERTEX
  8
0
  5
3539
 10
206.298
 20
136.193
 30
0.00000
  70
    32
  0
VERTEX
  8
0
  5
353A
 10
206.314
 20
136.245
 30
0.00000
  70
    32
  0
VERTEX
  8
0
  5
353B
 10
206.330
 20
136.298
 30
0.00000
  70
    32
  0
VERTEX
  8
0
  5
353C
 10
206.345
 20
136.350
 30
0.00000
  70
    32
  0
VERTEX
  8
0
  5
353D
 10
206.359
 20
136.403
 30
0.00000
  70
    32
  0
VERTEX
  8
0
  5
353E
 10
206.372
 20
136.456
 30
0.00000
  70
    32
  0
VERTEX
  8
0
  5
353F
 10
206.385
 20
136.509
 30
0.00000
  70
    32
  0
VERTEX
  8
0
  5
3540
 10
206.396
 20
136.562
 30
0.00000
  70
    32
  0
VERTEX
  8
0
  5
3541
 10
206.407
 20
136.616
 30
0.00000
  70
    32
  0
VERTEX
  8
0
  5
3542
 10
206.417
 20
136.669
 30
0.00000
  70
    32
  0
VERTEX
  8
0
  5
3543
 10
206.426
 20
136.722
 30
0.00000
  70
    32
  0
VERTEX
  8
0
  5
3544
 10
206.435
 20
136.776
 30
0.00000
  70
    32
  0
VERTEX
  8
0
  5
3545
 10
206.443
 20
136.829
 30
0.00000
  70
    32
  0
VERTEX
  8
0
  5
3546
 10
206.450
 20
136.883
 30
0.00000
  70
    32
  0
VERTEX
  8
0
  5
3547
 10
206.456
 20
136.936
 30
0.00000
  70
    32
  0
VERTEX
  8
0
  5
3548
 10
206.461
 20
136.990
 30
0.00000
  70
    32
  0
VERTEX
  8
0
  5
3549
 10
206.466
 20
137.043
 30
0.00000
  70
    32
  0
VERTEX
  8
0
  5
354A
 10
206.470
 20
137.097
 30
0.00000
  70
    32
  0
VERTEX
  8
0
  5
354B
 10
206.473
 20
137.150
 30
0.00000
  70
    32
  0
VERTEX
  8
0
  5
354C
 10
206.475
 20
137.204
 30
0.00000
  70
    32
  0
VERTEX
  8
0
  5
354D
 10
206.476
 20
137.258
 30
0.00000
  70
    32
  0
VERTEX
  8
0
  5
354E
 10
206.477
 20
137.312
 30
0.00000
  70
    32
  0
VERTEX
  8
0
  5
354F
 10
206.477
 20
137.365
 30
0.00000
  70
    32
  0
VERTEX
  8
0
  5
3550
 10
206.476
 20
137.419
 30
0.00000
  70
    32
  0
VERTEX
  8
0
  5
3551
 10
206.474
 20
137.473
 30
0.00000
  70
    32
  0
VERTEX
  8
0
  5
3552
 10
206.471
 20
137.526
 30
0.00000
  70
    32
  0
VERTEX
  8
0
  5
3553
 10
206.468
 20
137.580
 30
0.00000
  70
    32
  0
VERTEX
  8
0
  5
3554
 10
206.464
 20
137.634
 30
0.00000
  70
    32
  0
VERTEX
  8
0
  5
3555
 10
206.459
 20
137.687
 30
0.00000
  70
    32
  0
VERTEX
  8
0
  5
3556
 10
206.453
 20
137.741
 30
0.00000
  70
    32
  0
VERTEX
  8
0
  5
3557
 10
206.447
 20
137.794
 30
0.00000
  70
    32
  0
VERTEX
  8
0
  5
3558
 10
206.439
 20
137.848
 30
0.00000
  70
    32
  0
VERTEX
  8
0
  5
3559
 10
206.431
 20
137.901
 30
0.00000
  70
    32
  0
VERTEX
  8
0
  5
355A
 10
206.422
 20
137.954
 30
0.00000
  70
    32
  0
VERTEX
  8
0
  5
355B
 10
206.413
 20
138.008
 30
0.00000
  70
    32
  0
VERTEX
  8
0
  5
355C
 10
206.402
 20
138.061
 30
0.00000
  70
    32
  0
VERTEX
  8
0
  5
355D
 10
206.391
 20
138.114
 30
0.00000
  70
    32
  0
VERTEX
  8
0
  5
355E
 10
206.379
 20
138.167
 30
0.00000
  70
    32
  0
VERTEX
  8
0
  5
355F
 10
206.366
 20
138.220
 30
0.00000
  70
    32
  0
VERTEX
  8
0
  5
3560
 10
206.353
 20
138.273
 30
0.00000
  70
    32
  0
VERTEX
  8
0
  5
3561
 10
206.338
 20
138.326
 30
0.00000
  70
    32
  0
VERTEX
  8
0
  5
3562
 10
206.323
 20
138.379
 30
0.00000
  70
    32
  0
VERTEX
  8
0
  5
3563
 10
206.307
 20
138.431
 30
0.00000
  70
    32
  0
VERTEX
  8
0
  5
3564
 10
206.291
 20
138.484
 30
0.00000
  70
    32
  0
VERTEX
  8
0
  5
3565
 10
206.273
 20
138.536
 30
0.00000
  70
    32
  0
VERTEX
  8
0
  5
3566
 10
206.255
 20
138.588
 30
0.00000
  70
    32
  0
VERTEX
  8
0
  5
3567
 10
206.236
 20
138.641
 30
0.00000
  70
    32
  0
VERTEX
  8
0
  5
3568
 10
206.216
 20
138.693
 30
0.00000
  70
    32
  0
VERTEX
  8
0
  5
3569
 10
206.196
 20
138.744
 30
0.00000
  70
    32
  0
VERTEX
  8
0
  5
356A
 10
206.174
 20
138.796
 30
0.00000
  70
    32
  0
VERTEX
  8
0
  5
356B
 10
206.152
 20
138.848
 30
0.00000
  70
    32
  0
VERTEX
  8
0
  5
356C
 10
206.130
 20
138.899
 30
0.00000
  70
    32
  0
VERTEX
  8
0
  5
356D
 10
206.106
 20
138.950
 30
0.00000
  70
    32
  0
VERTEX
  8
0
  5
356E
 10
206.082
 20
139.002
 30
0.00000
  70
    32
  0
VERTEX
  8
0
  5
356F
 10
206.057
 20
139.053
 30
0.00000
  70
    32
  0
VERTEX
  8
0
  5
3570
 10
206.031
 20
139.103
 30
0.00000
  70
    32
  0
VERTEX
  8
0
  5
3571
 10
206.004
 20
139.154
 30
0.00000
  70
    32
  0
VERTEX
  8
0
  5
3572
 10
205.977
 20
139.204
 30
0.00000
  70
    32
  0
SEQEND
  8
0
  5
3573
  0
ARC
  5
2BD1
  8
0
 10
198.4768215042228121
 20
134.2226526130939988
 30
0.0
 40
5.0000000000000231
 50
321.6754227845221976
 51
346.3102107767330153
  0
LINE
  5
2BD2
  8
0
 10
205.9768215042226984
 20
146.2226530777739981
 30
0.0
 11
200.7128890661001037
 21
146.2226530777739129
 31
0.0
  0
LINE
  5
2BD4
  8
0
 10
196.2407535772296114
 20
130.2226526130932882
 30
0.0
 11
195.4824240259520991
 21
130.2226526130932882
 31
0.0
  0
LINE
  5
2BD5
  8
0
 10
201.462349704926396
 20
130.2226526130932882
 30
0.0
 11
200.7128890661088008
 21
130.2226526130932882
 31
0.0
  0
CIRCLE
  5
2BD6
  8
0
 10
96.3405219216934654
 20
38.146893938571111
 30
0.0
 40
3.0119496506131318
  0
CIRCLE
  5
2BD7
  8
0
 10
96.3405219216934654
 20
38.1468939385711181
 30
0.0
 40
3.9999999999479239
  0
CIRCLE
  5
2BD8
  8
0
 10
96.3405219216934654
 20
38.1468939385711465
 30
0.0
 40
6.0
  0
LINE
  5
2BD9
  8
0
 10
143.3405219216934086
 20
41.1468939385713099
 30
0.0
 11
105.879913935862902
 21
41.1468939385713099
 31
0.0
  0
LINE
  5
2BDB
  8
0
 10
105.879913935862902
 20
35.1468939385713099
 30
0.0
 11
143.3405219216934086
 21
35.1468939385713099
 31
0.0
  0
ARC
  5
2BDE
  8
0
 10
143.3405219216934086
 20
38.1468939385713171
 30
0.0
 40
3.0000000000000071
 50
270.0
 51
90.0
  0
CIRCLE
  5
2BDF
  8
3
 10
96.3405219216934654
 20
38.1468939385711465
 30
0.0
 40
8.4665000000000035
  0
CIRCLE
  5
2BE0
  8
0
 10
96.3405219216934654
 20
38.1468939385711607
 30
0.0
 40
10.0
  0
LINE
  5
2DD8
  8
0
 10
86.3405219216935222
 20
123.2226526130939988
 30
0.0
 11
106.3405219216934938
 21
123.2226526130939988
 31
0.0
  0
LINE
  5
2DD9
  8
3
 10
104.8070219216935044
 20
123.2226526130939988
 30
0.0
 11
104.8070219216935044
 21
88.2226526130939988
 31
0.0
  0
LINE
  5
2DDA
  8
3
 10
104.8070219216935044
 20
123.2226526130939988
 30
0.0
 11
106.3405219216935933
 21
125.8787525265008043
 31
0.0
  0
LINE
  5
2DDB
  8
3
 10
87.8740219216935259
 20
123.2226526130939988
 30
0.0
 11
87.8740219216934975
 21
88.2226526130941551
 31
0.0
  0
LINE
  5
2DDC
  8
3
 10
87.8740219216935259
 20
123.2226526130939988
 30
0.0
 11
86.3405219216935222
 21
125.8787525265009037
 31
0.0
  0
LINE
  5
2DDD
  8
1
 10
96.3405219216935222
 20
150.2226526130939988
 30
0.0
 11
96.3405219216935222
 21
73.2226526130998536
 31
0.0
  0
LINE
  5
2F96
  8
0
 10
13.1650038379835994
 20
123.2226526130939988
 30
0.0
 11
33.1650038379836118
 21
123.2226526130939988
 31
0.0
  0
LINE
  5
2F97
  8
3
 10
31.6315038379836295
 20
123.2226526130939988
 30
0.0
 11
31.6315038379836295
 21
88.2226526130939988
 31
0.0
  0
LINE
  5
2F98
  8
3
 10
31.6315038379836295
 20
123.2226526130939988
 30
0.0
 11
33.1650038379836616
 21
125.8787525265008043
 31
0.0
  0
LINE
  5
2F99
  8
3
 10
14.6985038379836102
 20
123.2226526130939988
 30
0.0
 11
14.69850383798358
 21
88.2226526130941551
 31
0.0
  0
LINE
  5
2F9A
  8
3
 10
14.6985038379836102
 20
123.2226526130939988
 30
0.0
 11
13.1650038379835994
 21
125.8787525265009037
 31
0.0
  0
LINE
  5
2F9B
  8
1
 10
23.1650038379836083
 20
150.2226526130939988
 30
0.0
 11
23.1650038379836083
 21
73.2226526130998536
 31
0.0
  0
LINE
  5
2FA0
  8
0
 10
196.2407539423454068
 20
146.2226530777739129
 30
0.0
 11
190.9768215042228121
 21
146.2226530777739129
 31
0.0
  0
LINE
  5
2FA1
  8
0
 10
188.4768215042226984
 20
123.2226526130938993
 30
0.0
 11
208.4768215042228121
 21
123.2226526130938993
 31
0.0
  0
LINE
  5
2FA2
  8
3
 10
206.9433215042228085
 20
123.2226526130938993
 30
0.0
 11
206.9433215042228085
 21
88.2226526130939561
 31
0.0
  0
LINE
  5
2FA3
  8
3
 10
206.9433215042228085
 20
123.2226526130938993
 30
0.0
 11
208.4768215042228121
 21
125.8787525265007048
 31
0.0
  0
LINE
  5
2FA4
  8
3
 10
190.0103215042227873
 20
123.2226526130938993
 30
0.0
 11
190.0103215042227873
 21
88.2226526130941124
 31
0.0
  0
LINE
  5
2FA5
  8
3
 10
190.0103215042227873
 20
123.2226526130938993
 30
0.0
 11
188.4768215042226984
 21
125.8787525265009037
 31
0.0
  0
LINE
  5
2FA6
  8
1
 10
198.4768215042228121
 20
150.2226526130939988
 30
0.0
 11
198.4768215042228121
 21
73.2226526130998252
 31
0.0
  0
LINE
  5
2FC8
  8
1
 10
96.3405219216934512
 20
51.1468939383510914
 30
0.0
 11
96.3405219216934654
 21
25.1468939387911199
 31
0.0
  0
LINE
  5
2FC9
  8
1
 10
149.3405219216934086
 20
38.1468939383678602
 30
0.0
 11
83.3405219220660456
 21
38.1468939383678318
 31
0.0
  0
ENDSEC
  0
EOF
