  0
SECTION
  2
HEADER
  9
$ACADVER
  1
AC1009
  9
$INSBASE
 10
0.0
 20
0.0
 30
0.0
  9
$EXTMIN
 10
-0.0000000000000002
 20
-0.0000000000000027
 30
0.0
  9
$EXTMAX
 10
180.4768215042047075
 20
173.2046893957725899
 30
0.0
  9
$LIMMIN
 10
0.0
 20
0.0
  9
$LIMMAX
 10
187.5
 20
135.0
  9
$ORTHOMODE
 70
     1
  9
$REGENMODE
 70
     1
  9
$FILLMODE
 70
     1
  9
$QTEXTMODE
 70
     0
  9
$MIRRTEXT
 70
     0
  9
$DRAGMODE
 70
     2
  9
$LTSCALE
 40
10.0
  9
$OSMODE
 70
    37
  9
$ATTMODE
 70
     1
  9
$TEXTSIZE
 40
4.0
  9
$TRACEWID
 40
0.05
  9
$TEXTSTYLE
  7
STANDARD
  9
$CLAYER
  8
0
  9
$CELTYPE
  6
BYLAYER
  9
$CECOLOR
 62
   256
  9
$DIMSCALE
 40
0.5
  9
$DIMASZ
 40
3.0
  9
$DIMEXO
 40
2.0
  9
$DIMDLI
 40
0.38
  9
$DIMRND
 40
0.0
  9
$DIMDLE
 40
0.0
  9
$DIMEXE
 40
2.0
  9
$DIMTP
 40
0.0
  9
$DIMTM
 40
0.0
  9
$DIMTXT
 40
3.0
  9
$DIMCEN
 40
0.0
  9
$DIMTSZ
 40
0.0
  9
$DIMTOL
 70
     0
  9
$DIMLIM
 70
     0
  9
$DIMTIH
 70
     0
  9
$DIMTOH
 70
     0
  9
$DIMSE1
 70
     0
  9
$DIMSE2
 70
     0
  9
$DIMTAD
 70
     1
  9
$DIMZIN
 70
     0
  9
$DIMBLK
  1

  9
$DIMASO
 70
     0
  9
$DIMSHO
 70
     0
  9
$DIMPOST
  1

  9
$DIMAPOST
  1

  9
$DIMALT
 70
     0
  9
$DIMALTD
 70
     2
  9
$DIMALTF
 40
25.3999999999999986
  9
$DIMLFAC
 40
1.0
  9
$DIMTOFL
 70
     0
  9
$DIMTVP
 40
1.6000000000000001
  9
$DIMTIX
 70
     1
  9
$DIMSOXD
 70
     0
  9
$DIMSAH
 70
     0
  9
$DIMBLK1
  1

  9
$DIMBLK2
  1

  9
$DIMSTYLE
  2
STANDARD
  9
$DIMCLRD
 70
     0
  9
$DIMCLRE
 70
     0
  9
$DIMCLRT
 70
     0
  9
$DIMTFAC
 40
1.0
  9
$DIMGAP
 40
0.09
  9
$LUNITS
 70
     2
  9
$LUPREC
 70
     1
  9
$SKETCHINC
 40
0.1
  9
$FILLETRAD
 40
1.0
  9
$AUNITS
 70
     0
  9
$AUPREC
 70
     0
  9
$MENU
  1
E:\r13\win\SUPPORT\ACAD
  9
$ELEVATION
 40
0.0
  9
$PELEVATION
 40
0.0
  9
$THICKNESS
 40
0.0
  9
$LIMCHECK
 70
     0
  9
$BLIPMODE
 70
     0
  9
$CHAMFERA
 40
0.0
  9
$CHAMFERB
 40
0.0
  9
$SKPOLY
 70
     0
  9
$TDCREATE
 40
2449840.6143865738995373
  9
$TDUPDATE
 40
2460516.6897569447755814
  9
$TDINDWG
 40
0.2813688889
  9
$TDUSRTIMER
 40
0.2813688889
  9
$USRTIMER
 70
     1
  9
$ANGBASE
 50
0.0
  9
$ANGDIR
 70
     0
  9
$PDMODE
 70
     0
  9
$PDSIZE
 40
0.0
  9
$PLINEWID
 40
0.0
  9
$COORDS
 70
     1
  9
$SPLFRAME
 70
     0
  9
$SPLINETYPE
 70
     6
  9
$SPLINESEGS
 70
     8
  9
$ATTDIA
 70
     1
  9
$ATTREQ
 70
     1
  9
$HANDLING
 70
     1
  9
$HANDSEED
  5
269B
  9
$SURFTAB1
 70
     6
  9
$SURFTAB2
 70
     6
  9
$SURFTYPE
 70
     6
  9
$SURFU
 70
     6
  9
$SURFV
 70
     6
  9
$UCSNAME
  2

  9
$UCSORG
 10
0.0
 20
0.0
 30
0.0
  9
$UCSXDIR
 10
1.0
 20
0.0
 30
0.0
  9
$UCSYDIR
 10
0.0
 20
1.0
 30
0.0
  9
$PUCSNAME
  2

  9
$PUCSORG
 10
0.0
 20
0.0
 30
0.0
  9
$PUCSXDIR
 10
1.0
 20
0.0
 30
0.0
  9
$PUCSYDIR
 10
0.0
 20
1.0
 30
0.0
  9
$USERI1
 70
     0
  9
$USERI2
 70
     1
  9
$USERI3
 70
     1
  9
$USERI4
 70
     0
  9
$USERI5
 70
     0
  9
$USERR1
 40
0.0
  9
$USERR2
 40
0.0
  9
$USERR3
 40
0.0
  9
$USERR4
 40
0.0
  9
$USERR5
 40
0.0
  9
$WORLDVIEW
 70
     1
  9
$SHADEDGE
 70
     3
  9
$SHADEDIF
 70
    70
  9
$TILEMODE
 70
     1
  9
$MAXACTVP
 70
    16
  9
$PLIMCHECK
 70
     0
  9
$PEXTMIN
 10
1.0000000000000000E+20
 20
1.0000000000000000E+20
 30
1.0000000000000000E+20
  9
$PEXTMAX
 10
-1.0000000000000000E+20
 20
-1.0000000000000000E+20
 30
-1.0000000000000000E+20
  9
$PLIMMIN
 10
0.0
 20
0.0
  9
$PLIMMAX
 10
12.0
 20
9.0
  9
$UNITMODE
 70
     0
  9
$VISRETAIN
 70
     0
  9
$PLINEGEN
 70
     0
  9
$PSLTSCALE
 70
     0
  0
ENDSEC
  0
SECTION
  2
TABLES
  0
TABLE
  2
VPORT
 70
     1
  0
VPORT
  2
*ACTIVE
 70
     0
 10
0.0
 20
0.0
 11
1.0
 21
1.0
 12
270.0800492610836727
 22
115.0
 13
0.0
 23
0.0
 14
5.0
 24
5.0
 15
5.0
 25
5.0
 16
0.0
 26
0.0
 36
1.0
 17
0.0
 27
0.0
 37
0.0
 40
230.0
 41
2.3485221674876842
 42
50.0
 43
0.0
 44
0.0
 50
0.0
 51
0.0
 71
     0
 72
   100
 73
     1
 74
     0
 75
     0
 76
     0
 77
     0
 78
     0
  0
ENDTAB
  0
TABLE
  2
LTYPE
 70
     2
  0
LTYPE
  2
CONTINUOUS
 70
     0
  3
Solid Line
 72
    65
 73
     0
 40
0.0
  0
LTYPE
  2
CENTER
 70
     0
  3
____ _ ____ _ ____ _ ____ _ ____ _ ____ _ ____
 72
    65
 73
     4
 40
2.0
 49
1.25
 49
-0.25
 49
0.25
 49
-0.25
  0
ENDTAB
  0
TABLE
  2
LAYER
 70
     3
  0
LAYER
  2
0
 70
     0
 62
     7
  6
CONTINUOUS
  0
LAYER
  2
1
 70
     0
 62
     1
  6
CENTER
  0
LAYER
  2
3
 70
     0
 62
     3
  6
CONTINUOUS
  0
ENDTAB
  0
TABLE
  2
STYLE
 70
     2
  0
STYLE
  2
STANDARD
 70
     0
 40
0.0
 41
1.0
 50
0.0
 71
     0
 42
4.0
  3
TXT
  4
BIGFONT
  0
STYLE
  2
STANDARD1
 70
     0
 40
0.0
 41
1.0
 50
0.0
 71
     0
 42
3.0
  3
txt
  4

  0
ENDTAB
  0
TABLE
  2
VIEW
 70
     1
  0
VIEW
  2
ALL
 70
     0
 40
179.6615229999999883
 10
141.9039180000000044
 20
89.8307609999999812
 41
0.0
 11
0.0
 21
0.0
 31
1.0
 12
0.0
 22
0.0
 32
0.0
 42
0.0
 43
0.0
 44
0.0
 50
0.0
 71
     0
  0
ENDTAB
  0
TABLE
  2
UCS
 70
     0
  0
ENDTAB
  0
TABLE
  2
APPID
 70
     8
  0
APPID
  2
ACAD
 70
     0
  0
APPID
  2
ACADANNOTATIVE
 70
     0
  0
APPID
  2
DCO15
 70
     0
  0
APPID
  2
ACAD_MLEADERVER
 70
     0
  0
APPID
  2
ACAD_NAV_VCDISPLAY
 70
     0
  0
APPID
  2
ACAD_EXEMPT_FROM_CAD_STANDARDS
 70
     0
  0
APPID
  2
ACAD_DSTYLE_DIMJAG
 70
     0
  0
APPID
  2
ACAD_DSTYLE_DIMTALN
 70
     0
  0
ENDTAB
  0
TABLE
  2
DIMSTYLE
 70
     1
  0
DIMSTYLE
  2
STANDARD
 70
     0
  3

  4

  5

  6

  7

 40
1.0
 41
0.18
 42
0.0625
 43
0.38
 44
0.18
 45
0.0
 46
0.0
 47
0.0
 48
0.0
140
0.18
141
0.09
142
0.0
143
25.3999999999999986
144
1.0
145
0.0
146
1.0
147
0.09
 71
     0
 72
     0
 73
     1
 74
     1
 75
     0
 76
     0
 77
     0
 78
     0
170
     0
171
     2
172
     0
173
     0
174
     0
175
     0
176
     0
177
     0
178
     0
  0
ENDTAB
  0
ENDSEC
  0
SECTION
  2
BLOCKS
  0
BLOCK
  8
0
  2
$MODEL_SPACE
 70
     0
 10
0.0
 20
0.0
 30
0.0
  3
$MODEL_SPACE
  1

  0
ENDBLK
  5
1A49
  8
0
  0
BLOCK
 67
     1
  8
0
  2
$PAPER_SPACE
 70
     0
 10
0.0
 20
0.0
 30
0.0
  3
$PAPER_SPACE
  1

  0
ENDBLK
  5
1A45
 67
     1
  8
0
  0
BLOCK
  8
0
  2
STDGX5
 70
     0
 10
0.0
 20
0.0
 30
0.0
  3
STDGX5
  1

  0
ENDBLK
  5
13A4
  8
0
  0
ENDSEC
  0
SECTION
  2
ENTITIES
  0
INSERT
  5
15B2
  8
0
  2
STDGX5
 10
385.1430582916194112
 20
49.94871211462101
 30
0.0
 41
0.25
 42
0.25
 43
0.25
  0
INSERT
  5
15B3
  8
0
  2
STDGX5
 10
385.1430582916194112
 20
49.94871211462101
 30
0.0
 41
0.25
 42
0.25
 43
0.25
  0
INSERT
  5
15B4
  8
0
  2
STDGX5
 10
453.8930582916192975
 20
49.94871211462101
 30
0.0
 41
0.25
 42
0.25
 43
0.25
  0
INSERT
  5
15B5
  8
0
  2
STDGX5
 10
453.8930582916192975
 20
49.94871211462101
 30
0.0
 41
0.25
 42
0.25
 43
0.25
  0
INSERT
  5
15B6
  8
0
  2
STDGX5
 10
385.1430582916194112
 20
49.94871211462101
 30
0.0
 41
0.5
 42
0.5
 43
0.5
  0
INSERT
  5
15B7
  8
0
  2
STDGX5
 10
385.1430582916194112
 20
49.94871211462101
 30
0.0
 41
0.5
 42
0.5
 43
0.5
  0
INSERT
  5
15B8
  8
0
  2
STDGX5
 10
522.6430582916193543
 20
49.94871211462101
 30
0.0
 41
0.5
 42
0.5
 43
0.5
  0
INSERT
  5
15B9
  8
0
  2
STDGX5
 10
522.6430582916193543
 20
49.94871211462101
 30
0.0
 41
0.5
 42
0.5
 43
0.5
  0
INSERT
  5
15BB
  8
0
  2
STDGX5
 10
350.1430582916194112
 20
-50.0512878853789829
 30
0.0
 41
0.3333333333333144
 42
0.3333333333333144
 43
0.3333333333333144
  0
INSERT
  5
15BC
  8
0
  2
STDGX5
 10
350.1430582916194112
 20
-50.0512878853789829
 30
0.0
 41
0.3333333333333144
 42
0.3333333333333144
 43
0.3333333333333144
  0
INSERT
  5
15BD
  8
0
  2
STDGX5
 10
441.8097249582859263
 20
-50.0512878853789829
 30
0.0
 41
0.3333333333333144
 42
0.3333333333333144
 43
0.3333333333333144
  0
INSERT
  5
15BE
  8
0
  2
STDGX5
 10
441.8097249582859263
 20
-50.0512878853789829
 30
0.0
 41
0.3333333333333144
 42
0.3333333333333144
 43
0.3333333333333144
  0
INSERT
  5
15C0
  8
0
  2
STDGX5
 10
350.1430582916194112
 20
-50.0512878853789829
 30
0.0
 41
0.3333333333333144
 42
0.3333333333333144
 43
0.3333333333333144
  0
INSERT
  5
15C1
  8
0
  2
STDGX5
 10
350.1430582916194112
 20
-50.0512878853789829
 30
0.0
 41
0.3333333333333144
 42
0.3333333333333144
 43
0.3333333333333144
  0
INSERT
  5
15C2
  8
0
  2
STDGX5
 10
441.8097249582859263
 20
-50.0512878853789829
 30
0.0
 41
0.3333333333333144
 42
0.3333333333333144
 43
0.3333333333333144
  0
INSERT
  5
15C3
  8
0
  2
STDGX5
 10
441.8097249582859263
 20
-50.0512878853789829
 30
0.0
 41
0.3333333333333144
 42
0.3333333333333144
 43
0.3333333333333144
  0
INSERT
  5
15C4
  8
0
  2
STDGX5
 10
385.1430582916194112
 20
49.94871211462101
 30
0.0
  0
INSERT
  5
15C5
  8
0
  2
STDGX5
 10
385.1430582916194112
 20
49.94871211462101
 30
0.0
  0
INSERT
  5
15C6
  8
0
  2
STDGX5
 10
660.1430582916193543
 20
49.94871211462101
 30
0.0
  0
INSERT
  5
15C7
  8
0
  2
STDGX5
 10
660.1430582916193543
 20
49.94871211462101
 30
0.0
  0
TEXT
  5
183A
  8
0
 62
     3
 10
0.0
 20
0.0
 30
0.0
 40
5.0
  1
GDX16LW-8N
  7
STANDARD1
  0
LINE
  5
1ED1
  8
0
 10
78.9750619903653615
 20
161.3271883949718131
 30
0.0
 11
79.8405219216934938
 21
161.3271883949718131
 31
0.0
  0
POLYLINE
  5
1ED2
  8
0
 10
80.4368090113649572
 20
160.9242801578776323
 30
0.0
 66
     1
 70
     8
  0
VERTEX
  8
0
  5
2187
 10
80.4368
 20
160.924
 30
0.00000
  70
    32
  0
VERTEX
  8
0
  5
2188
 10
80.4325
 20
160.928
 30
0.00000
  70
    32
  0
VERTEX
  8
0
  5
2189
 10
80.4281
 20
160.931
 30
0.00000
  70
    32
  0
VERTEX
  8
0
  5
218A
 10
80.4238
 20
160.934
 30
0.00000
  70
    32
  0
VERTEX
  8
0
  5
218B
 10
80.4194
 20
160.938
 30
0.00000
  70
    32
  0
VERTEX
  8
0
  5
218C
 10
80.4151
 20
160.941
 30
0.00000
  70
    32
  0
VERTEX
  8
0
  5
218D
 10
80.4107
 20
160.945
 30
0.00000
  70
    32
  0
VERTEX
  8
0
  5
218E
 10
80.4064
 20
160.948
 30
0.00000
  70
    32
  0
VERTEX
  8
0
  5
218F
 10
80.4020
 20
160.951
 30
0.00000
  70
    32
  0
VERTEX
  8
0
  5
2190
 10
80.3976
 20
160.955
 30
0.00000
  70
    32
  0
VERTEX
  8
0
  5
2191
 10
80.3932
 20
160.958
 30
0.00000
  70
    32
  0
VERTEX
  8
0
  5
2192
 10
80.3889
 20
160.961
 30
0.00000
  70
    32
  0
VERTEX
  8
0
  5
2193
 10
80.3845
 20
160.965
 30
0.00000
  70
    32
  0
VERTEX
  8
0
  5
2194
 10
80.3801
 20
160.968
 30
0.00000
  70
    32
  0
VERTEX
  8
0
  5
2195
 10
80.3757
 20
160.971
 30
0.00000
  70
    32
  0
VERTEX
  8
0
  5
2196
 10
80.3713
 20
160.975
 30
0.00000
  70
    32
  0
VERTEX
  8
0
  5
2197
 10
80.3669
 20
160.978
 30
0.00000
  70
    32
  0
VERTEX
  8
0
  5
2198
 10
80.3624
 20
160.981
 30
0.00000
  70
    32
  0
VERTEX
  8
0
  5
2199
 10
80.3580
 20
160.985
 30
0.00000
  70
    32
  0
VERTEX
  8
0
  5
219A
 10
80.3536
 20
160.988
 30
0.00000
  70
    32
  0
VERTEX
  8
0
  5
219B
 10
80.3492
 20
160.991
 30
0.00000
  70
    32
  0
VERTEX
  8
0
  5
219C
 10
80.3447
 20
160.995
 30
0.00000
  70
    32
  0
VERTEX
  8
0
  5
219D
 10
80.3403
 20
160.998
 30
0.00000
  70
    32
  0
VERTEX
  8
0
  5
219E
 10
80.3358
 20
161.001
 30
0.00000
  70
    32
  0
VERTEX
  8
0
  5
219F
 10
80.3314
 20
161.005
 30
0.00000
  70
    32
  0
VERTEX
  8
0
  5
21A0
 10
80.3269
 20
161.008
 30
0.00000
  70
    32
  0
VERTEX
  8
0
  5
21A1
 10
80.3224
 20
161.011
 30
0.00000
  70
    32
  0
VERTEX
  8
0
  5
21A2
 10
80.3180
 20
161.015
 30
0.00000
  70
    32
  0
VERTEX
  8
0
  5
21A3
 10
80.3135
 20
161.018
 30
0.00000
  70
    32
  0
VERTEX
  8
0
  5
21A4
 10
80.3090
 20
161.021
 30
0.00000
  70
    32
  0
VERTEX
  8
0
  5
21A5
 10
80.3045
 20
161.024
 30
0.00000
  70
    32
  0
VERTEX
  8
0
  5
21A6
 10
80.3000
 20
161.028
 30
0.00000
  70
    32
  0
VERTEX
  8
0
  5
21A7
 10
80.2955
 20
161.031
 30
0.00000
  70
    32
  0
VERTEX
  8
0
  5
21A8
 10
80.2910
 20
161.034
 30
0.00000
  70
    32
  0
VERTEX
  8
0
  5
21A9
 10
80.2865
 20
161.037
 30
0.00000
  70
    32
  0
VERTEX
  8
0
  5
21AA
 10
80.2820
 20
161.041
 30
0.00000
  70
    32
  0
VERTEX
  8
0
  5
21AB
 10
80.2775
 20
161.044
 30
0.00000
  70
    32
  0
VERTEX
  8
0
  5
21AC
 10
80.2730
 20
161.047
 30
0.00000
  70
    32
  0
VERTEX
  8
0
  5
21AD
 10
80.2685
 20
161.051
 30
0.00000
  70
    32
  0
VERTEX
  8
0
  5
21AE
 10
80.2639
 20
161.054
 30
0.00000
  70
    32
  0
VERTEX
  8
0
  5
21AF
 10
80.2594
 20
161.057
 30
0.00000
  70
    32
  0
VERTEX
  8
0
  5
21B0
 10
80.2548
 20
161.060
 30
0.00000
  70
    32
  0
VERTEX
  8
0
  5
21B1
 10
80.2503
 20
161.064
 30
0.00000
  70
    32
  0
VERTEX
  8
0
  5
21B2
 10
80.2457
 20
161.067
 30
0.00000
  70
    32
  0
VERTEX
  8
0
  5
21B3
 10
80.2412
 20
161.070
 30
0.00000
  70
    32
  0
VERTEX
  8
0
  5
21B4
 10
80.2366
 20
161.073
 30
0.00000
  70
    32
  0
VERTEX
  8
0
  5
21B5
 10
80.2320
 20
161.076
 30
0.00000
  70
    32
  0
VERTEX
  8
0
  5
21B6
 10
80.2275
 20
161.080
 30
0.00000
  70
    32
  0
VERTEX
  8
0
  5
21B7
 10
80.2229
 20
161.083
 30
0.00000
  70
    32
  0
VERTEX
  8
0
  5
21B8
 10
80.2183
 20
161.086
 30
0.00000
  70
    32
  0
VERTEX
  8
0
  5
21B9
 10
80.2137
 20
161.089
 30
0.00000
  70
    32
  0
VERTEX
  8
0
  5
21BA
 10
80.2091
 20
161.092
 30
0.00000
  70
    32
  0
VERTEX
  8
0
  5
21BB
 10
80.2045
 20
161.096
 30
0.00000
  70
    32
  0
VERTEX
  8
0
  5
21BC
 10
80.1999
 20
161.099
 30
0.00000
  70
    32
  0
VERTEX
  8
0
  5
21BD
 10
80.1953
 20
161.102
 30
0.00000
  70
    32
  0
VERTEX
  8
0
  5
21BE
 10
80.1907
 20
161.105
 30
0.00000
  70
    32
  0
VERTEX
  8
0
  5
21BF
 10
80.1861
 20
161.108
 30
0.00000
  70
    32
  0
VERTEX
  8
0
  5
21C0
 10
80.1814
 20
161.112
 30
0.00000
  70
    32
  0
VERTEX
  8
0
  5
21C1
 10
80.1768
 20
161.115
 30
0.00000
  70
    32
  0
VERTEX
  8
0
  5
21C2
 10
80.1722
 20
161.118
 30
0.00000
  70
    32
  0
VERTEX
  8
0
  5
21C3
 10
80.1675
 20
161.121
 30
0.00000
  70
    32
  0
VERTEX
  8
0
  5
21C4
 10
80.1629
 20
161.124
 30
0.00000
  70
    32
  0
VERTEX
  8
0
  5
21C5
 10
80.1582
 20
161.127
 30
0.00000
  70
    32
  0
VERTEX
  8
0
  5
21C6
 10
80.1536
 20
161.131
 30
0.00000
  70
    32
  0
VERTEX
  8
0
  5
21C7
 10
80.1489
 20
161.134
 30
0.00000
  70
    32
  0
VERTEX
  8
0
  5
21C8
 10
80.1443
 20
161.137
 30
0.00000
  70
    32
  0
VERTEX
  8
0
  5
21C9
 10
80.1396
 20
161.140
 30
0.00000
  70
    32
  0
VERTEX
  8
0
  5
21CA
 10
80.1349
 20
161.143
 30
0.00000
  70
    32
  0
VERTEX
  8
0
  5
21CB
 10
80.1302
 20
161.146
 30
0.00000
  70
    32
  0
VERTEX
  8
0
  5
21CC
 10
80.1256
 20
161.149
 30
0.00000
  70
    32
  0
VERTEX
  8
0
  5
21CD
 10
80.1209
 20
161.153
 30
0.00000
  70
    32
  0
VERTEX
  8
0
  5
21CE
 10
80.1162
 20
161.156
 30
0.00000
  70
    32
  0
VERTEX
  8
0
  5
21CF
 10
80.1115
 20
161.159
 30
0.00000
  70
    32
  0
VERTEX
  8
0
  5
21D0
 10
80.1068
 20
161.162
 30
0.00000
  70
    32
  0
VERTEX
  8
0
  5
21D1
 10
80.1021
 20
161.165
 30
0.00000
  70
    32
  0
VERTEX
  8
0
  5
21D2
 10
80.0973
 20
161.168
 30
0.00000
  70
    32
  0
VERTEX
  8
0
  5
21D3
 10
80.0926
 20
161.171
 30
0.00000
  70
    32
  0
VERTEX
  8
0
  5
21D4
 10
80.0879
 20
161.174
 30
0.00000
  70
    32
  0
VERTEX
  8
0
  5
21D5
 10
80.0832
 20
161.177
 30
0.00000
  70
    32
  0
VERTEX
  8
0
  5
21D6
 10
80.0784
 20
161.181
 30
0.00000
  70
    32
  0
VERTEX
  8
0
  5
21D7
 10
80.0737
 20
161.184
 30
0.00000
  70
    32
  0
VERTEX
  8
0
  5
21D8
 10
80.0689
 20
161.187
 30
0.00000
  70
    32
  0
VERTEX
  8
0
  5
21D9
 10
80.0642
 20
161.190
 30
0.00000
  70
    32
  0
VERTEX
  8
0
  5
21DA
 10
80.0594
 20
161.193
 30
0.00000
  70
    32
  0
VERTEX
  8
0
  5
21DB
 10
80.0547
 20
161.196
 30
0.00000
  70
    32
  0
VERTEX
  8
0
  5
21DC
 10
80.0499
 20
161.199
 30
0.00000
  70
    32
  0
VERTEX
  8
0
  5
21DD
 10
80.0451
 20
161.202
 30
0.00000
  70
    32
  0
VERTEX
  8
0
  5
21DE
 10
80.0404
 20
161.205
 30
0.00000
  70
    32
  0
VERTEX
  8
0
  5
21DF
 10
80.0356
 20
161.208
 30
0.00000
  70
    32
  0
VERTEX
  8
0
  5
21E0
 10
80.0308
 20
161.211
 30
0.00000
  70
    32
  0
VERTEX
  8
0
  5
21E1
 10
80.0260
 20
161.214
 30
0.00000
  70
    32
  0
VERTEX
  8
0
  5
21E2
 10
80.0212
 20
161.217
 30
0.00000
  70
    32
  0
VERTEX
  8
0
  5
21E3
 10
80.0164
 20
161.220
 30
0.00000
  70
    32
  0
VERTEX
  8
0
  5
21E4
 10
80.0116
 20
161.223
 30
0.00000
  70
    32
  0
VERTEX
  8
0
  5
21E5
 10
80.0068
 20
161.226
 30
0.00000
  70
    32
  0
VERTEX
  8
0
  5
21E6
 10
80.0020
 20
161.230
 30
0.00000
  70
    32
  0
VERTEX
  8
0
  5
21E7
 10
79.9972
 20
161.233
 30
0.00000
  70
    32
  0
VERTEX
  8
0
  5
21E8
 10
79.9924
 20
161.236
 30
0.00000
  70
    32
  0
VERTEX
  8
0
  5
21E9
 10
79.9875
 20
161.239
 30
0.00000
  70
    32
  0
VERTEX
  8
0
  5
21EA
 10
79.9827
 20
161.242
 30
0.00000
  70
    32
  0
VERTEX
  8
0
  5
21EB
 10
79.9779
 20
161.245
 30
0.00000
  70
    32
  0
VERTEX
  8
0
  5
21EC
 10
79.9730
 20
161.248
 30
0.00000
  70
    32
  0
VERTEX
  8
0
  5
21ED
 10
79.9682
 20
161.251
 30
0.00000
  70
    32
  0
VERTEX
  8
0
  5
21EE
 10
79.9633
 20
161.254
 30
0.00000
  70
    32
  0
VERTEX
  8
0
  5
21EF
 10
79.9585
 20
161.257
 30
0.00000
  70
    32
  0
VERTEX
  8
0
  5
21F0
 10
79.9536
 20
161.260
 30
0.00000
  70
    32
  0
VERTEX
  8
0
  5
21F1
 10
79.9488
 20
161.263
 30
0.00000
  70
    32
  0
VERTEX
  8
0
  5
21F2
 10
79.9439
 20
161.266
 30
0.00000
  70
    32
  0
VERTEX
  8
0
  5
21F3
 10
79.9390
 20
161.269
 30
0.00000
  70
    32
  0
VERTEX
  8
0
  5
21F4
 10
79.9341
 20
161.272
 30
0.00000
  70
    32
  0
VERTEX
  8
0
  5
21F5
 10
79.9292
 20
161.274
 30
0.00000
  70
    32
  0
VERTEX
  8
0
  5
21F6
 10
79.9244
 20
161.277
 30
0.00000
  70
    32
  0
VERTEX
  8
0
  5
21F7
 10
79.9195
 20
161.280
 30
0.00000
  70
    32
  0
VERTEX
  8
0
  5
21F8
 10
79.9146
 20
161.283
 30
0.00000
  70
    32
  0
VERTEX
  8
0
  5
21F9
 10
79.9097
 20
161.286
 30
0.00000
  70
    32
  0
VERTEX
  8
0
  5
21FA
 10
79.9047
 20
161.289
 30
0.00000
  70
    32
  0
VERTEX
  8
0
  5
21FB
 10
79.8998
 20
161.292
 30
0.00000
  70
    32
  0
VERTEX
  8
0
  5
21FC
 10
79.8949
 20
161.295
 30
0.00000
  70
    32
  0
VERTEX
  8
0
  5
21FD
 10
79.8900
 20
161.298
 30
0.00000
  70
    32
  0
VERTEX
  8
0
  5
21FE
 10
79.8851
 20
161.301
 30
0.00000
  70
    32
  0
VERTEX
  8
0
  5
21FF
 10
79.8801
 20
161.304
 30
0.00000
  70
    32
  0
VERTEX
  8
0
  5
2200
 10
79.8752
 20
161.307
 30
0.00000
  70
    32
  0
VERTEX
  8
0
  5
2201
 10
79.8703
 20
161.310
 30
0.00000
  70
    32
  0
VERTEX
  8
0
  5
2202
 10
79.8653
 20
161.313
 30
0.00000
  70
    32
  0
VERTEX
  8
0
  5
2203
 10
79.8604
 20
161.316
 30
0.00000
  70
    32
  0
VERTEX
  8
0
  5
2204
 10
79.8554
 20
161.318
 30
0.00000
  70
    32
  0
VERTEX
  8
0
  5
2205
 10
79.8505
 20
161.321
 30
0.00000
  70
    32
  0
VERTEX
  8
0
  5
2206
 10
79.8455
 20
161.324
 30
0.00000
  70
    32
  0
VERTEX
  8
0
  5
2207
 10
79.8405
 20
161.327
 30
0.00000
  70
    32
  0
SEQEND
  8
0
  5
2208
  0
ARC
  5
1ED3
  8
0
 10
86.3405219391088394
 20
158.2046893985906877
 30
0.0
 40
6.5000000169968652
 50
155.266475774131095
 51
204.7335245212011898
  0
POLYLINE
  5
1ED4
  8
0
 10
79.8405220276350889
 20
155.0821904581996478
 30
0.0
 66
     1
 70
     8
  0
VERTEX
  8
0
  5
2209
 10
79.8405
 20
155.082
 30
0.00000
  70
    32
  0
VERTEX
  8
0
  5
220A
 10
79.8455
 20
155.085
 30
0.00000
  70
    32
  0
VERTEX
  8
0
  5
220B
 10
79.8505
 20
155.088
 30
0.00000
  70
    32
  0
VERTEX
  8
0
  5
220C
 10
79.8554
 20
155.091
 30
0.00000
  70
    32
  0
VERTEX
  8
0
  5
220D
 10
79.8604
 20
155.094
 30
0.00000
  70
    32
  0
VERTEX
  8
0
  5
220E
 10
79.8653
 20
155.097
 30
0.00000
  70
    32
  0
VERTEX
  8
0
  5
220F
 10
79.8703
 20
155.100
 30
0.00000
  70
    32
  0
VERTEX
  8
0
  5
2210
 10
79.8752
 20
155.103
 30
0.00000
  70
    32
  0
VERTEX
  8
0
  5
2211
 10
79.8801
 20
155.105
 30
0.00000
  70
    32
  0
VERTEX
  8
0
  5
2212
 10
79.8851
 20
155.108
 30
0.00000
  70
    32
  0
VERTEX
  8
0
  5
2213
 10
79.8900
 20
155.111
 30
0.00000
  70
    32
  0
VERTEX
  8
0
  5
2214
 10
79.8949
 20
155.114
 30
0.00000
  70
    32
  0
VERTEX
  8
0
  5
2215
 10
79.8998
 20
155.117
 30
0.00000
  70
    32
  0
VERTEX
  8
0
  5
2216
 10
79.9047
 20
155.120
 30
0.00000
  70
    32
  0
VERTEX
  8
0
  5
2217
 10
79.9097
 20
155.123
 30
0.00000
  70
    32
  0
VERTEX
  8
0
  5
2218
 10
79.9146
 20
155.126
 30
0.00000
  70
    32
  0
VERTEX
  8
0
  5
2219
 10
79.9195
 20
155.129
 30
0.00000
  70
    32
  0
VERTEX
  8
0
  5
221A
 10
79.9244
 20
155.132
 30
0.00000
  70
    32
  0
VERTEX
  8
0
  5
221B
 10
79.9292
 20
155.135
 30
0.00000
  70
    32
  0
VERTEX
  8
0
  5
221C
 10
79.9341
 20
155.138
 30
0.00000
  70
    32
  0
VERTEX
  8
0
  5
221D
 10
79.9390
 20
155.141
 30
0.00000
  70
    32
  0
VERTEX
  8
0
  5
221E
 10
79.9439
 20
155.144
 30
0.00000
  70
    32
  0
VERTEX
  8
0
  5
221F
 10
79.9488
 20
155.147
 30
0.00000
  70
    32
  0
VERTEX
  8
0
  5
2220
 10
79.9536
 20
155.150
 30
0.00000
  70
    32
  0
VERTEX
  8
0
  5
2221
 10
79.9585
 20
155.153
 30
0.00000
  70
    32
  0
VERTEX
  8
0
  5
2222
 10
79.9633
 20
155.156
 30
0.00000
  70
    32
  0
VERTEX
  8
0
  5
2223
 10
79.9682
 20
155.159
 30
0.00000
  70
    32
  0
VERTEX
  8
0
  5
2224
 10
79.9730
 20
155.162
 30
0.00000
  70
    32
  0
VERTEX
  8
0
  5
2225
 10
79.9779
 20
155.165
 30
0.00000
  70
    32
  0
VERTEX
  8
0
  5
2226
 10
79.9827
 20
155.168
 30
0.00000
  70
    32
  0
VERTEX
  8
0
  5
2227
 10
79.9875
 20
155.171
 30
0.00000
  70
    32
  0
VERTEX
  8
0
  5
2228
 10
79.9924
 20
155.174
 30
0.00000
  70
    32
  0
VERTEX
  8
0
  5
2229
 10
79.9972
 20
155.177
 30
0.00000
  70
    32
  0
VERTEX
  8
0
  5
222A
 10
80.0020
 20
155.180
 30
0.00000
  70
    32
  0
VERTEX
  8
0
  5
222B
 10
80.0068
 20
155.183
 30
0.00000
  70
    32
  0
VERTEX
  8
0
  5
222C
 10
80.0116
 20
155.186
 30
0.00000
  70
    32
  0
VERTEX
  8
0
  5
222D
 10
80.0164
 20
155.189
 30
0.00000
  70
    32
  0
VERTEX
  8
0
  5
222E
 10
80.0212
 20
155.192
 30
0.00000
  70
    32
  0
VERTEX
  8
0
  5
222F
 10
80.0260
 20
155.195
 30
0.00000
  70
    32
  0
VERTEX
  8
0
  5
2230
 10
80.0308
 20
155.198
 30
0.00000
  70
    32
  0
VERTEX
  8
0
  5
2231
 10
80.0356
 20
155.201
 30
0.00000
  70
    32
  0
VERTEX
  8
0
  5
2232
 10
80.0404
 20
155.204
 30
0.00000
  70
    32
  0
VERTEX
  8
0
  5
2233
 10
80.0451
 20
155.207
 30
0.00000
  70
    32
  0
VERTEX
  8
0
  5
2234
 10
80.0499
 20
155.210
 30
0.00000
  70
    32
  0
VERTEX
  8
0
  5
2235
 10
80.0547
 20
155.213
 30
0.00000
  70
    32
  0
VERTEX
  8
0
  5
2236
 10
80.0594
 20
155.216
 30
0.00000
  70
    32
  0
VERTEX
  8
0
  5
2237
 10
80.0642
 20
155.220
 30
0.00000
  70
    32
  0
VERTEX
  8
0
  5
2238
 10
80.0689
 20
155.223
 30
0.00000
  70
    32
  0
VERTEX
  8
0
  5
2239
 10
80.0737
 20
155.226
 30
0.00000
  70
    32
  0
VERTEX
  8
0
  5
223A
 10
80.0784
 20
155.229
 30
0.00000
  70
    32
  0
VERTEX
  8
0
  5
223B
 10
80.0832
 20
155.232
 30
0.00000
  70
    32
  0
VERTEX
  8
0
  5
223C
 10
80.0879
 20
155.235
 30
0.00000
  70
    32
  0
VERTEX
  8
0
  5
223D
 10
80.0926
 20
155.238
 30
0.00000
  70
    32
  0
VERTEX
  8
0
  5
223E
 10
80.0973
 20
155.241
 30
0.00000
  70
    32
  0
VERTEX
  8
0
  5
223F
 10
80.1021
 20
155.244
 30
0.00000
  70
    32
  0
VERTEX
  8
0
  5
2240
 10
80.1068
 20
155.247
 30
0.00000
  70
    32
  0
VERTEX
  8
0
  5
2241
 10
80.1115
 20
155.251
 30
0.00000
  70
    32
  0
VERTEX
  8
0
  5
2242
 10
80.1162
 20
155.254
 30
0.00000
  70
    32
  0
VERTEX
  8
0
  5
2243
 10
80.1209
 20
155.257
 30
0.00000
  70
    32
  0
VERTEX
  8
0
  5
2244
 10
80.1256
 20
155.260
 30
0.00000
  70
    32
  0
VERTEX
  8
0
  5
2245
 10
80.1302
 20
155.263
 30
0.00000
  70
    32
  0
VERTEX
  8
0
  5
2246
 10
80.1349
 20
155.266
 30
0.00000
  70
    32
  0
VERTEX
  8
0
  5
2247
 10
80.1396
 20
155.269
 30
0.00000
  70
    32
  0
VERTEX
  8
0
  5
2248
 10
80.1443
 20
155.272
 30
0.00000
  70
    32
  0
VERTEX
  8
0
  5
2249
 10
80.1489
 20
155.276
 30
0.00000
  70
    32
  0
VERTEX
  8
0
  5
224A
 10
80.1536
 20
155.279
 30
0.00000
  70
    32
  0
VERTEX
  8
0
  5
224B
 10
80.1582
 20
155.282
 30
0.00000
  70
    32
  0
VERTEX
  8
0
  5
224C
 10
80.1629
 20
155.285
 30
0.00000
  70
    32
  0
VERTEX
  8
0
  5
224D
 10
80.1675
 20
155.288
 30
0.00000
  70
    32
  0
VERTEX
  8
0
  5
224E
 10
80.1722
 20
155.291
 30
0.00000
  70
    32
  0
VERTEX
  8
0
  5
224F
 10
80.1768
 20
155.295
 30
0.00000
  70
    32
  0
VERTEX
  8
0
  5
2250
 10
80.1814
 20
155.298
 30
0.00000
  70
    32
  0
VERTEX
  8
0
  5
2251
 10
80.1861
 20
155.301
 30
0.00000
  70
    32
  0
VERTEX
  8
0
  5
2252
 10
80.1907
 20
155.304
 30
0.00000
  70
    32
  0
VERTEX
  8
0
  5
2253
 10
80.1953
 20
155.307
 30
0.00000
  70
    32
  0
VERTEX
  8
0
  5
2254
 10
80.1999
 20
155.311
 30
0.00000
  70
    32
  0
VERTEX
  8
0
  5
2255
 10
80.2045
 20
155.314
 30
0.00000
  70
    32
  0
VERTEX
  8
0
  5
2256
 10
80.2091
 20
155.317
 30
0.00000
  70
    32
  0
VERTEX
  8
0
  5
2257
 10
80.2137
 20
155.320
 30
0.00000
  70
    32
  0
VERTEX
  8
0
  5
2258
 10
80.2183
 20
155.323
 30
0.00000
  70
    32
  0
VERTEX
  8
0
  5
2259
 10
80.2229
 20
155.327
 30
0.00000
  70
    32
  0
VERTEX
  8
0
  5
225A
 10
80.2275
 20
155.330
 30
0.00000
  70
    32
  0
VERTEX
  8
0
  5
225B
 10
80.2320
 20
155.333
 30
0.00000
  70
    32
  0
VERTEX
  8
0
  5
225C
 10
80.2366
 20
155.336
 30
0.00000
  70
    32
  0
VERTEX
  8
0
  5
225D
 10
80.2412
 20
155.339
 30
0.00000
  70
    32
  0
VERTEX
  8
0
  5
225E
 10
80.2457
 20
155.343
 30
0.00000
  70
    32
  0
VERTEX
  8
0
  5
225F
 10
80.2503
 20
155.346
 30
0.00000
  70
    32
  0
VERTEX
  8
0
  5
2260
 10
80.2548
 20
155.349
 30
0.00000
  70
    32
  0
VERTEX
  8
0
  5
2261
 10
80.2594
 20
155.352
 30
0.00000
  70
    32
  0
VERTEX
  8
0
  5
2262
 10
80.2639
 20
155.356
 30
0.00000
  70
    32
  0
VERTEX
  8
0
  5
2263
 10
80.2685
 20
155.359
 30
0.00000
  70
    32
  0
VERTEX
  8
0
  5
2264
 10
80.2730
 20
155.362
 30
0.00000
  70
    32
  0
VERTEX
  8
0
  5
2265
 10
80.2775
 20
155.365
 30
0.00000
  70
    32
  0
VERTEX
  8
0
  5
2266
 10
80.2820
 20
155.369
 30
0.00000
  70
    32
  0
VERTEX
  8
0
  5
2267
 10
80.2865
 20
155.372
 30
0.00000
  70
    32
  0
VERTEX
  8
0
  5
2268
 10
80.2910
 20
155.375
 30
0.00000
  70
    32
  0
VERTEX
  8
0
  5
2269
 10
80.2955
 20
155.378
 30
0.00000
  70
    32
  0
VERTEX
  8
0
  5
226A
 10
80.3000
 20
155.382
 30
0.00000
  70
    32
  0
VERTEX
  8
0
  5
226B
 10
80.3045
 20
155.385
 30
0.00000
  70
    32
  0
VERTEX
  8
0
  5
226C
 10
80.3090
 20
155.388
 30
0.00000
  70
    32
  0
VERTEX
  8
0
  5
226D
 10
80.3135
 20
155.392
 30
0.00000
  70
    32
  0
VERTEX
  8
0
  5
226E
 10
80.3180
 20
155.395
 30
0.00000
  70
    32
  0
VERTEX
  8
0
  5
226F
 10
80.3224
 20
155.398
 30
0.00000
  70
    32
  0
VERTEX
  8
0
  5
2270
 10
80.3269
 20
155.401
 30
0.00000
  70
    32
  0
VERTEX
  8
0
  5
2271
 10
80.3314
 20
155.405
 30
0.00000
  70
    32
  0
VERTEX
  8
0
  5
2272
 10
80.3358
 20
155.408
 30
0.00000
  70
    32
  0
VERTEX
  8
0
  5
2273
 10
80.3403
 20
155.411
 30
0.00000
  70
    32
  0
VERTEX
  8
0
  5
2274
 10
80.3447
 20
155.415
 30
0.00000
  70
    32
  0
VERTEX
  8
0
  5
2275
 10
80.3492
 20
155.418
 30
0.00000
  70
    32
  0
VERTEX
  8
0
  5
2276
 10
80.3536
 20
155.421
 30
0.00000
  70
    32
  0
VERTEX
  8
0
  5
2277
 10
80.3580
 20
155.425
 30
0.00000
  70
    32
  0
VERTEX
  8
0
  5
2278
 10
80.3624
 20
155.428
 30
0.00000
  70
    32
  0
VERTEX
  8
0
  5
2279
 10
80.3669
 20
155.431
 30
0.00000
  70
    32
  0
VERTEX
  8
0
  5
227A
 10
80.3713
 20
155.435
 30
0.00000
  70
    32
  0
VERTEX
  8
0
  5
227B
 10
80.3757
 20
155.438
 30
0.00000
  70
    32
  0
VERTEX
  8
0
  5
227C
 10
80.3801
 20
155.441
 30
0.00000
  70
    32
  0
VERTEX
  8
0
  5
227D
 10
80.3845
 20
155.445
 30
0.00000
  70
    32
  0
VERTEX
  8
0
  5
227E
 10
80.3889
 20
155.448
 30
0.00000
  70
    32
  0
VERTEX
  8
0
  5
227F
 10
80.3932
 20
155.451
 30
0.00000
  70
    32
  0
VERTEX
  8
0
  5
2280
 10
80.3976
 20
155.455
 30
0.00000
  70
    32
  0
VERTEX
  8
0
  5
2281
 10
80.4020
 20
155.458
 30
0.00000
  70
    32
  0
VERTEX
  8
0
  5
2282
 10
80.4064
 20
155.461
 30
0.00000
  70
    32
  0
VERTEX
  8
0
  5
2283
 10
80.4107
 20
155.465
 30
0.00000
  70
    32
  0
VERTEX
  8
0
  5
2284
 10
80.4151
 20
155.468
 30
0.00000
  70
    32
  0
VERTEX
  8
0
  5
2285
 10
80.4194
 20
155.472
 30
0.00000
  70
    32
  0
VERTEX
  8
0
  5
2286
 10
80.4238
 20
155.475
 30
0.00000
  70
    32
  0
VERTEX
  8
0
  5
2287
 10
80.4281
 20
155.478
 30
0.00000
  70
    32
  0
VERTEX
  8
0
  5
2288
 10
80.4325
 20
155.482
 30
0.00000
  70
    32
  0
VERTEX
  8
0
  5
2289
 10
80.4368
 20
155.485
 30
0.00000
  70
    32
  0
SEQEND
  8
0
  5
228A
  0
LINE
  5
1ED5
  8
0
 10
79.8405220441632082
 20
155.0821904432010001
 30
0.0
 11
78.9750619903653615
 21
155.0821903965735089
 31
0.0
  0
POLYLINE
  5
1ED6
  8
0
 10
93.7400225125899738
 20
161.2456416862051469
 30
0.0
 66
     1
 70
     8
  0
VERTEX
  8
0
  5
228B
 10
93.7400
 20
161.246
 30
0.00000
  70
    32
  0
VERTEX
  8
0
  5
228C
 10
93.7253
 20
161.255
 30
0.00000
  70
    32
  0
VERTEX
  8
0
  5
228D
 10
93.7105
 20
161.264
 30
0.00000
  70
    32
  0
VERTEX
  8
0
  5
228E
 10
93.6957
 20
161.273
 30
0.00000
  70
    32
  0
VERTEX
  8
0
  5
228F
 10
93.6808
 20
161.282
 30
0.00000
  70
    32
  0
VERTEX
  8
0
  5
2290
 10
93.6659
 20
161.291
 30
0.00000
  70
    32
  0
VERTEX
  8
0
  5
2291
 10
93.6510
 20
161.300
 30
0.00000
  70
    32
  0
VERTEX
  8
0
  5
2292
 10
93.6360
 20
161.309
 30
0.00000
  70
    32
  0
VERTEX
  8
0
  5
2293
 10
93.6209
 20
161.317
 30
0.00000
  70
    32
  0
VERTEX
  8
0
  5
2294
 10
93.6059
 20
161.326
 30
0.00000
  70
    32
  0
VERTEX
  8
0
  5
2295
 10
93.5907
 20
161.335
 30
0.00000
  70
    32
  0
VERTEX
  8
0
  5
2296
 10
93.5756
 20
161.344
 30
0.00000
  70
    32
  0
VERTEX
  8
0
  5
2297
 10
93.5604
 20
161.353
 30
0.00000
  70
    32
  0
VERTEX
  8
0
  5
2298
 10
93.5451
 20
161.361
 30
0.00000
  70
    32
  0
VERTEX
  8
0
  5
2299
 10
93.5298
 20
161.370
 30
0.00000
  70
    32
  0
VERTEX
  8
0
  5
229A
 10
93.5145
 20
161.378
 30
0.00000
  70
    32
  0
VERTEX
  8
0
  5
229B
 10
93.4991
 20
161.387
 30
0.00000
  70
    32
  0
VERTEX
  8
0
  5
229C
 10
93.4837
 20
161.395
 30
0.00000
  70
    32
  0
VERTEX
  8
0
  5
229D
 10
93.4683
 20
161.404
 30
0.00000
  70
    32
  0
VERTEX
  8
0
  5
229E
 10
93.4528
 20
161.412
 30
0.00000
  70
    32
  0
VERTEX
  8
0
  5
229F
 10
93.4372
 20
161.421
 30
0.00000
  70
    32
  0
VERTEX
  8
0
  5
22A0
 10
93.4216
 20
161.429
 30
0.00000
  70
    32
  0
VERTEX
  8
0
  5
22A1
 10
93.4060
 20
161.437
 30
0.00000
  70
    32
  0
VERTEX
  8
0
  5
22A2
 10
93.3904
 20
161.446
 30
0.00000
  70
    32
  0
VERTEX
  8
0
  5
22A3
 10
93.3747
 20
161.454
 30
0.00000
  70
    32
  0
VERTEX
  8
0
  5
22A4
 10
93.3589
 20
161.462
 30
0.00000
  70
    32
  0
VERTEX
  8
0
  5
22A5
 10
93.3432
 20
161.470
 30
0.00000
  70
    32
  0
VERTEX
  8
0
  5
22A6
 10
93.3273
 20
161.478
 30
0.00000
  70
    32
  0
VERTEX
  8
0
  5
22A7
 10
93.3115
 20
161.486
 30
0.00000
  70
    32
  0
VERTEX
  8
0
  5
22A8
 10
93.2956
 20
161.494
 30
0.00000
  70
    32
  0
VERTEX
  8
0
  5
22A9
 10
93.2797
 20
161.502
 30
0.00000
  70
    32
  0
VERTEX
  8
0
  5
22AA
 10
93.2637
 20
161.510
 30
0.00000
  70
    32
  0
VERTEX
  8
0
  5
22AB
 10
93.2477
 20
161.518
 30
0.00000
  70
    32
  0
VERTEX
  8
0
  5
22AC
 10
93.2316
 20
161.526
 30
0.00000
  70
    32
  0
VERTEX
  8
0
  5
22AD
 10
93.2155
 20
161.534
 30
0.00000
  70
    32
  0
VERTEX
  8
0
  5
22AE
 10
93.1994
 20
161.542
 30
0.00000
  70
    32
  0
VERTEX
  8
0
  5
22AF
 10
93.1833
 20
161.549
 30
0.00000
  70
    32
  0
VERTEX
  8
0
  5
22B0
 10
93.1671
 20
161.557
 30
0.00000
  70
    32
  0
VERTEX
  8
0
  5
22B1
 10
93.1508
 20
161.565
 30
0.00000
  70
    32
  0
VERTEX
  8
0
  5
22B2
 10
93.1346
 20
161.572
 30
0.00000
  70
    32
  0
VERTEX
  8
0
  5
22B3
 10
93.1183
 20
161.580
 30
0.00000
  70
    32
  0
VERTEX
  8
0
  5
22B4
 10
93.1019
 20
161.587
 30
0.00000
  70
    32
  0
VERTEX
  8
0
  5
22B5
 10
93.0855
 20
161.595
 30
0.00000
  70
    32
  0
VERTEX
  8
0
  5
22B6
 10
93.0691
 20
161.602
 30
0.00000
  70
    32
  0
VERTEX
  8
0
  5
22B7
 10
93.0527
 20
161.610
 30
0.00000
  70
    32
  0
VERTEX
  8
0
  5
22B8
 10
93.0362
 20
161.617
 30
0.00000
  70
    32
  0
VERTEX
  8
0
  5
22B9
 10
93.0196
 20
161.624
 30
0.00000
  70
    32
  0
VERTEX
  8
0
  5
22BA
 10
93.0031
 20
161.632
 30
0.00000
  70
    32
  0
VERTEX
  8
0
  5
22BB
 10
92.9865
 20
161.639
 30
0.00000
  70
    32
  0
VERTEX
  8
0
  5
22BC
 10
92.9699
 20
161.646
 30
0.00000
  70
    32
  0
VERTEX
  8
0
  5
22BD
 10
92.9532
 20
161.653
 30
0.00000
  70
    32
  0
VERTEX
  8
0
  5
22BE
 10
92.9365
 20
161.660
 30
0.00000
  70
    32
  0
VERTEX
  8
0
  5
22BF
 10
92.9198
 20
161.667
 30
0.00000
  70
    32
  0
VERTEX
  8
0
  5
22C0
 10
92.9030
 20
161.674
 30
0.00000
  70
    32
  0
VERTEX
  8
0
  5
22C1
 10
92.8862
 20
161.681
 30
0.00000
  70
    32
  0
VERTEX
  8
0
  5
22C2
 10
92.8694
 20
161.688
 30
0.00000
  70
    32
  0
VERTEX
  8
0
  5
22C3
 10
92.8525
 20
161.695
 30
0.00000
  70
    32
  0
VERTEX
  8
0
  5
22C4
 10
92.8356
 20
161.702
 30
0.00000
  70
    32
  0
VERTEX
  8
0
  5
22C5
 10
92.8187
 20
161.709
 30
0.00000
  70
    32
  0
VERTEX
  8
0
  5
22C6
 10
92.8017
 20
161.715
 30
0.00000
  70
    32
  0
VERTEX
  8
0
  5
22C7
 10
92.7847
 20
161.722
 30
0.00000
  70
    32
  0
VERTEX
  8
0
  5
22C8
 10
92.7677
 20
161.729
 30
0.00000
  70
    32
  0
VERTEX
  8
0
  5
22C9
 10
92.7506
 20
161.736
 30
0.00000
  70
    32
  0
VERTEX
  8
0
  5
22CA
 10
92.7335
 20
161.742
 30
0.00000
  70
    32
  0
VERTEX
  8
0
  5
22CB
 10
92.7164
 20
161.749
 30
0.00000
  70
    32
  0
VERTEX
  8
0
  5
22CC
 10
92.6992
 20
161.755
 30
0.00000
  70
    32
  0
VERTEX
  8
0
  5
22CD
 10
92.6820
 20
161.762
 30
0.00000
  70
    32
  0
VERTEX
  8
0
  5
22CE
 10
92.6648
 20
161.768
 30
0.00000
  70
    32
  0
VERTEX
  8
0
  5
22CF
 10
92.6475
 20
161.774
 30
0.00000
  70
    32
  0
VERTEX
  8
0
  5
22D0
 10
92.6303
 20
161.781
 30
0.00000
  70
    32
  0
VERTEX
  8
0
  5
22D1
 10
92.6129
 20
161.787
 30
0.00000
  70
    32
  0
VERTEX
  8
0
  5
22D2
 10
92.5956
 20
161.793
 30
0.00000
  70
    32
  0
VERTEX
  8
0
  5
22D3
 10
92.5782
 20
161.799
 30
0.00000
  70
    32
  0
VERTEX
  8
0
  5
22D4
 10
92.5608
 20
161.806
 30
0.00000
  70
    32
  0
VERTEX
  8
0
  5
22D5
 10
92.5434
 20
161.812
 30
0.00000
  70
    32
  0
VERTEX
  8
0
  5
22D6
 10
92.5259
 20
161.818
 30
0.00000
  70
    32
  0
VERTEX
  8
0
  5
22D7
 10
92.5084
 20
161.824
 30
0.00000
  70
    32
  0
VERTEX
  8
0
  5
22D8
 10
92.4909
 20
161.830
 30
0.00000
  70
    32
  0
VERTEX
  8
0
  5
22D9
 10
92.4734
 20
161.836
 30
0.00000
  70
    32
  0
VERTEX
  8
0
  5
22DA
 10
92.4558
 20
161.841
 30
0.00000
  70
    32
  0
VERTEX
  8
0
  5
22DB
 10
92.4382
 20
161.847
 30
0.00000
  70
    32
  0
VERTEX
  8
0
  5
22DC
 10
92.4205
 20
161.853
 30
0.00000
  70
    32
  0
VERTEX
  8
0
  5
22DD
 10
92.4029
 20
161.859
 30
0.00000
  70
    32
  0
VERTEX
  8
0
  5
22DE
 10
92.3852
 20
161.865
 30
0.00000
  70
    32
  0
VERTEX
  8
0
  5
22DF
 10
92.3675
 20
161.870
 30
0.00000
  70
    32
  0
VERTEX
  8
0
  5
22E0
 10
92.3497
 20
161.876
 30
0.00000
  70
    32
  0
VERTEX
  8
0
  5
22E1
 10
92.3320
 20
161.881
 30
0.00000
  70
    32
  0
VERTEX
  8
0
  5
22E2
 10
92.3142
 20
161.887
 30
0.00000
  70
    32
  0
VERTEX
  8
0
  5
22E3
 10
92.2963
 20
161.892
 30
0.00000
  70
    32
  0
VERTEX
  8
0
  5
22E4
 10
92.2785
 20
161.898
 30
0.00000
  70
    32
  0
VERTEX
  8
0
  5
22E5
 10
92.2606
 20
161.903
 30
0.00000
  70
    32
  0
VERTEX
  8
0
  5
22E6
 10
92.2427
 20
161.908
 30
0.00000
  70
    32
  0
VERTEX
  8
0
  5
22E7
 10
92.2248
 20
161.914
 30
0.00000
  70
    32
  0
VERTEX
  8
0
  5
22E8
 10
92.2068
 20
161.919
 30
0.00000
  70
    32
  0
VERTEX
  8
0
  5
22E9
 10
92.1888
 20
161.924
 30
0.00000
  70
    32
  0
VERTEX
  8
0
  5
22EA
 10
92.1708
 20
161.929
 30
0.00000
  70
    32
  0
VERTEX
  8
0
  5
22EB
 10
92.1528
 20
161.934
 30
0.00000
  70
    32
  0
VERTEX
  8
0
  5
22EC
 10
92.1347
 20
161.939
 30
0.00000
  70
    32
  0
VERTEX
  8
0
  5
22ED
 10
92.1167
 20
161.944
 30
0.00000
  70
    32
  0
VERTEX
  8
0
  5
22EE
 10
92.0986
 20
161.949
 30
0.00000
  70
    32
  0
VERTEX
  8
0
  5
22EF
 10
92.0804
 20
161.954
 30
0.00000
  70
    32
  0
VERTEX
  8
0
  5
22F0
 10
92.0623
 20
161.959
 30
0.00000
  70
    32
  0
VERTEX
  8
0
  5
22F1
 10
92.0441
 20
161.964
 30
0.00000
  70
    32
  0
VERTEX
  8
0
  5
22F2
 10
92.0259
 20
161.969
 30
0.00000
  70
    32
  0
VERTEX
  8
0
  5
22F3
 10
92.0077
 20
161.974
 30
0.00000
  70
    32
  0
VERTEX
  8
0
  5
22F4
 10
91.9894
 20
161.978
 30
0.00000
  70
    32
  0
VERTEX
  8
0
  5
22F5
 10
91.9712
 20
161.983
 30
0.00000
  70
    32
  0
VERTEX
  8
0
  5
22F6
 10
91.9529
 20
161.987
 30
0.00000
  70
    32
  0
VERTEX
  8
0
  5
22F7
 10
91.9346
 20
161.992
 30
0.00000
  70
    32
  0
VERTEX
  8
0
  5
22F8
 10
91.9163
 20
161.997
 30
0.00000
  70
    32
  0
VERTEX
  8
0
  5
22F9
 10
91.8979
 20
162.001
 30
0.00000
  70
    32
  0
VERTEX
  8
0
  5
22FA
 10
91.8795
 20
162.005
 30
0.00000
  70
    32
  0
VERTEX
  8
0
  5
22FB
 10
91.8611
 20
162.010
 30
0.00000
  70
    32
  0
VERTEX
  8
0
  5
22FC
 10
91.8427
 20
162.014
 30
0.00000
  70
    32
  0
VERTEX
  8
0
  5
22FD
 10
91.8243
 20
162.018
 30
0.00000
  70
    32
  0
VERTEX
  8
0
  5
22FE
 10
91.8058
 20
162.023
 30
0.00000
  70
    32
  0
VERTEX
  8
0
  5
22FF
 10
91.7873
 20
162.027
 30
0.00000
  70
    32
  0
VERTEX
  8
0
  5
2300
 10
91.7688
 20
162.031
 30
0.00000
  70
    32
  0
VERTEX
  8
0
  5
2301
 10
91.7503
 20
162.035
 30
0.00000
  70
    32
  0
VERTEX
  8
0
  5
2302
 10
91.7318
 20
162.039
 30
0.00000
  70
    32
  0
VERTEX
  8
0
  5
2303
 10
91.7132
 20
162.043
 30
0.00000
  70
    32
  0
VERTEX
  8
0
  5
2304
 10
91.6946
 20
162.047
 30
0.00000
  70
    32
  0
VERTEX
  8
0
  5
2305
 10
91.6760
 20
162.051
 30
0.00000
  70
    32
  0
VERTEX
  8
0
  5
2306
 10
91.6574
 20
162.055
 30
0.00000
  70
    32
  0
VERTEX
  8
0
  5
2307
 10
91.6388
 20
162.058
 30
0.00000
  70
    32
  0
VERTEX
  8
0
  5
2308
 10
91.6201
 20
162.062
 30
0.00000
  70
    32
  0
VERTEX
  8
0
  5
2309
 10
91.6015
 20
162.066
 30
0.00000
  70
    32
  0
VERTEX
  8
0
  5
230A
 10
91.5828
 20
162.069
 30
0.00000
  70
    32
  0
VERTEX
  8
0
  5
230B
 10
91.5641
 20
162.073
 30
0.00000
  70
    32
  0
SEQEND
  8
0
  5
230C
  0
ARC
  5
1ED7
  8
0
 10
86.3405219216934938
 20
158.2046893957727036
 30
0.0
 40
6.500000003146666
 50
36.5222613316699096
 51
155.2664757218676073
  0
LINE
  5
1ED8
  8
0
 10
79.8405219216934938
 20
161.3271883949718131
 30
0.0
 11
79.8405219216934938
 21
162.8683789223171061
 31
0.0
  0
ARC
  5
1ED9
  8
0
 10
86.3405219216933801
 20
158.2046893957725899
 30
0.0
 40
8.0000000000000373
 50
22.3410562655530605
 51
337.6589450956500968
  0
LINE
  5
1EDA
  8
0
 10
79.8405220441632082
 20
153.5409996985364955
 30
0.0
 11
79.8405220441632082
 21
155.0821904432010001
 31
0.0
  0
ARC
  5
1EDB
  8
0
 10
86.3405219216934938
 20
158.2046893957727036
 30
0.0
 40
6.5000000000000009
 50
204.7335244172112141
 51
323.4777386743893999
  0
POLYLINE
  5
1EDC
  8
0
 10
91.564088911994304
 20
154.3363114702837322
 30
0.0
 66
     1
 70
     8
  0
VERTEX
  8
0
  5
230D
 10
91.5641
 20
154.336
 30
0.00000
  70
    32
  0
VERTEX
  8
0
  5
230E
 10
91.5828
 20
154.340
 30
0.00000
  70
    32
  0
VERTEX
  8
0
  5
230F
 10
91.6015
 20
154.344
 30
0.00000
  70
    32
  0
VERTEX
  8
0
  5
2310
 10
91.6201
 20
154.347
 30
0.00000
  70
    32
  0
VERTEX
  8
0
  5
2311
 10
91.6388
 20
154.351
 30
0.00000
  70
    32
  0
VERTEX
  8
0
  5
2312
 10
91.6574
 20
154.355
 30
0.00000
  70
    32
  0
VERTEX
  8
0
  5
2313
 10
91.6760
 20
154.359
 30
0.00000
  70
    32
  0
VERTEX
  8
0
  5
2314
 10
91.6946
 20
154.363
 30
0.00000
  70
    32
  0
VERTEX
  8
0
  5
2315
 10
91.7132
 20
154.366
 30
0.00000
  70
    32
  0
VERTEX
  8
0
  5
2316
 10
91.7318
 20
154.370
 30
0.00000
  70
    32
  0
VERTEX
  8
0
  5
2317
 10
91.7503
 20
154.374
 30
0.00000
  70
    32
  0
VERTEX
  8
0
  5
2318
 10
91.7688
 20
154.379
 30
0.00000
  70
    32
  0
VERTEX
  8
0
  5
2319
 10
91.7873
 20
154.383
 30
0.00000
  70
    32
  0
VERTEX
  8
0
  5
231A
 10
91.8058
 20
154.387
 30
0.00000
  70
    32
  0
VERTEX
  8
0
  5
231B
 10
91.8243
 20
154.391
 30
0.00000
  70
    32
  0
VERTEX
  8
0
  5
231C
 10
91.8427
 20
154.395
 30
0.00000
  70
    32
  0
VERTEX
  8
0
  5
231D
 10
91.8611
 20
154.400
 30
0.00000
  70
    32
  0
VERTEX
  8
0
  5
231E
 10
91.8795
 20
154.404
 30
0.00000
  70
    32
  0
VERTEX
  8
0
  5
231F
 10
91.8979
 20
154.408
 30
0.00000
  70
    32
  0
VERTEX
  8
0
  5
2320
 10
91.9163
 20
154.413
 30
0.00000
  70
    32
  0
VERTEX
  8
0
  5
2321
 10
91.9346
 20
154.417
 30
0.00000
  70
    32
  0
VERTEX
  8
0
  5
2322
 10
91.9529
 20
154.422
 30
0.00000
  70
    32
  0
VERTEX
  8
0
  5
2323
 10
91.9712
 20
154.426
 30
0.00000
  70
    32
  0
VERTEX
  8
0
  5
2324
 10
91.9894
 20
154.431
 30
0.00000
  70
    32
  0
VERTEX
  8
0
  5
2325
 10
92.0077
 20
154.436
 30
0.00000
  70
    32
  0
VERTEX
  8
0
  5
2326
 10
92.0259
 20
154.441
 30
0.00000
  70
    32
  0
VERTEX
  8
0
  5
2327
 10
92.0441
 20
154.445
 30
0.00000
  70
    32
  0
VERTEX
  8
0
  5
2328
 10
92.0623
 20
154.450
 30
0.00000
  70
    32
  0
VERTEX
  8
0
  5
2329
 10
92.0804
 20
154.455
 30
0.00000
  70
    32
  0
VERTEX
  8
0
  5
232A
 10
92.0986
 20
154.460
 30
0.00000
  70
    32
  0
VERTEX
  8
0
  5
232B
 10
92.1167
 20
154.465
 30
0.00000
  70
    32
  0
VERTEX
  8
0
  5
232C
 10
92.1347
 20
154.470
 30
0.00000
  70
    32
  0
VERTEX
  8
0
  5
232D
 10
92.1528
 20
154.475
 30
0.00000
  70
    32
  0
VERTEX
  8
0
  5
232E
 10
92.1708
 20
154.480
 30
0.00000
  70
    32
  0
VERTEX
  8
0
  5
232F
 10
92.1888
 20
154.485
 30
0.00000
  70
    32
  0
VERTEX
  8
0
  5
2330
 10
92.2068
 20
154.490
 30
0.00000
  70
    32
  0
VERTEX
  8
0
  5
2331
 10
92.2248
 20
154.496
 30
0.00000
  70
    32
  0
VERTEX
  8
0
  5
2332
 10
92.2427
 20
154.501
 30
0.00000
  70
    32
  0
VERTEX
  8
0
  5
2333
 10
92.2606
 20
154.506
 30
0.00000
  70
    32
  0
VERTEX
  8
0
  5
2334
 10
92.2785
 20
154.512
 30
0.00000
  70
    32
  0
VERTEX
  8
0
  5
2335
 10
92.2963
 20
154.517
 30
0.00000
  70
    32
  0
VERTEX
  8
0
  5
2336
 10
92.3142
 20
154.523
 30
0.00000
  70
    32
  0
VERTEX
  8
0
  5
2337
 10
92.3320
 20
154.528
 30
0.00000
  70
    32
  0
VERTEX
  8
0
  5
2338
 10
92.3497
 20
154.534
 30
0.00000
  70
    32
  0
VERTEX
  8
0
  5
2339
 10
92.3675
 20
154.539
 30
0.00000
  70
    32
  0
VERTEX
  8
0
  5
233A
 10
92.3852
 20
154.545
 30
0.00000
  70
    32
  0
VERTEX
  8
0
  5
233B
 10
92.4029
 20
154.551
 30
0.00000
  70
    32
  0
VERTEX
  8
0
  5
233C
 10
92.4205
 20
154.556
 30
0.00000
  70
    32
  0
VERTEX
  8
0
  5
233D
 10
92.4382
 20
154.562
 30
0.00000
  70
    32
  0
VERTEX
  8
0
  5
233E
 10
92.4558
 20
154.568
 30
0.00000
  70
    32
  0
VERTEX
  8
0
  5
233F
 10
92.4734
 20
154.574
 30
0.00000
  70
    32
  0
VERTEX
  8
0
  5
2340
 10
92.4909
 20
154.580
 30
0.00000
  70
    32
  0
VERTEX
  8
0
  5
2341
 10
92.5084
 20
154.586
 30
0.00000
  70
    32
  0
VERTEX
  8
0
  5
2342
 10
92.5259
 20
154.592
 30
0.00000
  70
    32
  0
VERTEX
  8
0
  5
2343
 10
92.5434
 20
154.598
 30
0.00000
  70
    32
  0
VERTEX
  8
0
  5
2344
 10
92.5608
 20
154.604
 30
0.00000
  70
    32
  0
VERTEX
  8
0
  5
2345
 10
92.5782
 20
154.610
 30
0.00000
  70
    32
  0
VERTEX
  8
0
  5
2346
 10
92.5956
 20
154.616
 30
0.00000
  70
    32
  0
VERTEX
  8
0
  5
2347
 10
92.6129
 20
154.622
 30
0.00000
  70
    32
  0
VERTEX
  8
0
  5
2348
 10
92.6303
 20
154.629
 30
0.00000
  70
    32
  0
VERTEX
  8
0
  5
2349
 10
92.6475
 20
154.635
 30
0.00000
  70
    32
  0
VERTEX
  8
0
  5
234A
 10
92.6648
 20
154.641
 30
0.00000
  70
    32
  0
VERTEX
  8
0
  5
234B
 10
92.6820
 20
154.648
 30
0.00000
  70
    32
  0
VERTEX
  8
0
  5
234C
 10
92.6992
 20
154.654
 30
0.00000
  70
    32
  0
VERTEX
  8
0
  5
234D
 10
92.7164
 20
154.661
 30
0.00000
  70
    32
  0
VERTEX
  8
0
  5
234E
 10
92.7335
 20
154.667
 30
0.00000
  70
    32
  0
VERTEX
  8
0
  5
234F
 10
92.7506
 20
154.674
 30
0.00000
  70
    32
  0
VERTEX
  8
0
  5
2350
 10
92.7677
 20
154.681
 30
0.00000
  70
    32
  0
VERTEX
  8
0
  5
2351
 10
92.7847
 20
154.687
 30
0.00000
  70
    32
  0
VERTEX
  8
0
  5
2352
 10
92.8017
 20
154.694
 30
0.00000
  70
    32
  0
VERTEX
  8
0
  5
2353
 10
92.8187
 20
154.701
 30
0.00000
  70
    32
  0
VERTEX
  8
0
  5
2354
 10
92.8356
 20
154.707
 30
0.00000
  70
    32
  0
VERTEX
  8
0
  5
2355
 10
92.8525
 20
154.714
 30
0.00000
  70
    32
  0
VERTEX
  8
0
  5
2356
 10
92.8694
 20
154.721
 30
0.00000
  70
    32
  0
VERTEX
  8
0
  5
2357
 10
92.8862
 20
154.728
 30
0.00000
  70
    32
  0
VERTEX
  8
0
  5
2358
 10
92.9030
 20
154.735
 30
0.00000
  70
    32
  0
VERTEX
  8
0
  5
2359
 10
92.9198
 20
154.742
 30
0.00000
  70
    32
  0
VERTEX
  8
0
  5
235A
 10
92.9365
 20
154.749
 30
0.00000
  70
    32
  0
VERTEX
  8
0
  5
235B
 10
92.9532
 20
154.756
 30
0.00000
  70
    32
  0
VERTEX
  8
0
  5
235C
 10
92.9699
 20
154.763
 30
0.00000
  70
    32
  0
VERTEX
  8
0
  5
235D
 10
92.9865
 20
154.771
 30
0.00000
  70
    32
  0
VERTEX
  8
0
  5
235E
 10
93.0031
 20
154.778
 30
0.00000
  70
    32
  0
VERTEX
  8
0
  5
235F
 10
93.0196
 20
154.785
 30
0.00000
  70
    32
  0
VERTEX
  8
0
  5
2360
 10
93.0362
 20
154.792
 30
0.00000
  70
    32
  0
VERTEX
  8
0
  5
2361
 10
93.0527
 20
154.800
 30
0.00000
  70
    32
  0
VERTEX
  8
0
  5
2362
 10
93.0691
 20
154.807
 30
0.00000
  70
    32
  0
VERTEX
  8
0
  5
2363
 10
93.0855
 20
154.815
 30
0.00000
  70
    32
  0
VERTEX
  8
0
  5
2364
 10
93.1019
 20
154.822
 30
0.00000
  70
    32
  0
VERTEX
  8
0
  5
2365
 10
93.1183
 20
154.830
 30
0.00000
  70
    32
  0
VERTEX
  8
0
  5
2366
 10
93.1346
 20
154.837
 30
0.00000
  70
    32
  0
VERTEX
  8
0
  5
2367
 10
93.1508
 20
154.845
 30
0.00000
  70
    32
  0
VERTEX
  8
0
  5
2368
 10
93.1671
 20
154.852
 30
0.00000
  70
    32
  0
VERTEX
  8
0
  5
2369
 10
93.1833
 20
154.860
 30
0.00000
  70
    32
  0
VERTEX
  8
0
  5
236A
 10
93.1994
 20
154.868
 30
0.00000
  70
    32
  0
VERTEX
  8
0
  5
236B
 10
93.2155
 20
154.876
 30
0.00000
  70
    32
  0
VERTEX
  8
0
  5
236C
 10
93.2316
 20
154.883
 30
0.00000
  70
    32
  0
VERTEX
  8
0
  5
236D
 10
93.2477
 20
154.891
 30
0.00000
  70
    32
  0
VERTEX
  8
0
  5
236E
 10
93.2637
 20
154.899
 30
0.00000
  70
    32
  0
VERTEX
  8
0
  5
236F
 10
93.2797
 20
154.907
 30
0.00000
  70
    32
  0
VERTEX
  8
0
  5
2370
 10
93.2956
 20
154.915
 30
0.00000
  70
    32
  0
VERTEX
  8
0
  5
2371
 10
93.3115
 20
154.923
 30
0.00000
  70
    32
  0
VERTEX
  8
0
  5
2372
 10
93.3273
 20
154.931
 30
0.00000
  70
    32
  0
VERTEX
  8
0
  5
2373
 10
93.3432
 20
154.939
 30
0.00000
  70
    32
  0
VERTEX
  8
0
  5
2374
 10
93.3589
 20
154.947
 30
0.00000
  70
    32
  0
VERTEX
  8
0
  5
2375
 10
93.3747
 20
154.956
 30
0.00000
  70
    32
  0
VERTEX
  8
0
  5
2376
 10
93.3904
 20
154.964
 30
0.00000
  70
    32
  0
VERTEX
  8
0
  5
2377
 10
93.4060
 20
154.972
 30
0.00000
  70
    32
  0
VERTEX
  8
0
  5
2378
 10
93.4216
 20
154.980
 30
0.00000
  70
    32
  0
VERTEX
  8
0
  5
2379
 10
93.4372
 20
154.989
 30
0.00000
  70
    32
  0
VERTEX
  8
0
  5
237A
 10
93.4528
 20
154.997
 30
0.00000
  70
    32
  0
VERTEX
  8
0
  5
237B
 10
93.4683
 20
155.006
 30
0.00000
  70
    32
  0
VERTEX
  8
0
  5
237C
 10
93.4837
 20
155.014
 30
0.00000
  70
    32
  0
VERTEX
  8
0
  5
237D
 10
93.4991
 20
155.022
 30
0.00000
  70
    32
  0
VERTEX
  8
0
  5
237E
 10
93.5145
 20
155.031
 30
0.00000
  70
    32
  0
VERTEX
  8
0
  5
237F
 10
93.5298
 20
155.040
 30
0.00000
  70
    32
  0
VERTEX
  8
0
  5
2380
 10
93.5451
 20
155.048
 30
0.00000
  70
    32
  0
VERTEX
  8
0
  5
2381
 10
93.5604
 20
155.057
 30
0.00000
  70
    32
  0
VERTEX
  8
0
  5
2382
 10
93.5756
 20
155.066
 30
0.00000
  70
    32
  0
VERTEX
  8
0
  5
2383
 10
93.5907
 20
155.074
 30
0.00000
  70
    32
  0
VERTEX
  8
0
  5
2384
 10
93.6059
 20
155.083
 30
0.00000
  70
    32
  0
VERTEX
  8
0
  5
2385
 10
93.6209
 20
155.092
 30
0.00000
  70
    32
  0
VERTEX
  8
0
  5
2386
 10
93.6360
 20
155.101
 30
0.00000
  70
    32
  0
VERTEX
  8
0
  5
2387
 10
93.6510
 20
155.110
 30
0.00000
  70
    32
  0
VERTEX
  8
0
  5
2388
 10
93.6659
 20
155.119
 30
0.00000
  70
    32
  0
VERTEX
  8
0
  5
2389
 10
93.6808
 20
155.128
 30
0.00000
  70
    32
  0
VERTEX
  8
0
  5
238A
 10
93.6957
 20
155.137
 30
0.00000
  70
    32
  0
VERTEX
  8
0
  5
238B
 10
93.7105
 20
155.146
 30
0.00000
  70
    32
  0
VERTEX
  8
0
  5
238C
 10
93.7253
 20
155.155
 30
0.00000
  70
    32
  0
VERTEX
  8
0
  5
238D
 10
93.7400
 20
155.164
 30
0.00000
  70
    32
  0
SEQEND
  8
0
  5
238E
  0
ARC
  5
1EDD
  8
0
 10
86.880819918935444
 20
158.5091733909181073
 30
0.0
 40
5.8850954672725901
 50
20.859141291299089
 51
37.2705635372649198
  0
ARC
  5
1EDE
  8
0
 10
86.4672020121673768
 20
158.1242619577836024
 30
0.0
 40
6.3503405488567601
 50
323.38067282670238
 51
338.5759583698645088
  0
POLYLINE
  5
1EDF
  8
0
 66
     1
 10
0.0
 20
0.0
 30
0.0
 70
   128
  0
VERTEX
  5
2177
  8
0
 10
93.7400225131449361
 20
161.2456416961032915
 30
0.0
  0
VERTEX
  5
2178
  8
0
 10
93.916519354645402
 20
160.774565442570804
 30
0.0
  0
VERTEX
  5
2179
  8
0
 10
93.9672982027353783
 20
160.6046893957725956
 30
0.0
  0
SEQEND
  5
217A
  8
0
  0
POLYLINE
  5
1EE0
  8
0
 66
     1
 10
0.0
 20
0.0
 30
0.0
 70
   128
  0
VERTEX
  5
217B
  8
0
 10
93.9682772917952889
 20
155.8046893957726979
 30
0.0
  0
VERTEX
  5
217C
  8
0
 10
93.8622024431875843
 20
155.4799284645023931
 30
0.0
  0
VERTEX
  5
217D
  8
0
 10
93.7400225948151729
 20
155.1637372770323111
 30
0.0
  0
SEQEND
  5
217E
  8
0
  0
LINE
  5
1EE1
  8
0
 10
91.8396127556404736
 20
160.6046893957725956
 30
0.0
 11
123.9405219216935023
 21
160.6046893957725956
 31
0.0
  0
LINE
  5
1EE2
  8
0
 10
123.9405219216935023
 20
155.8046893957726979
 30
0.0
 11
91.8396127556404736
 21
155.8046893957726979
 31
0.0
  0
ARC
  5
1EE3
  8
0
 10
89.3163289647965257
 20
156.5771864155350954
 30
0.0
 40
2.7560486366959949
 50
356.6437368826778993
 51
36.1939470142162918
  0
ARC
  5
1EE4
  8
0
 10
89.3163902772033538
 20
159.8321741965721117
 30
0.0
 40
2.755988420946561
 50
323.8056052824853737
 51
3.3567216879122408
  0
ARC
  5
1EE5
  8
0
 10
86.3405219216934938
 20
158.2046893957727036
 30
0.0
 40
6.0000000000000107
 50
17.3460648927216496
 51
342.653938038119577
  0
ARC
  5
1EE6
  8
0
 10
123.9405219216935023
 20
158.2046893957727036
 30
0.0
 40
2.4000000000000048
 50
270.0
 51
90.0
  0
CIRCLE
  5
1EE7
  8
3
 10
86.3405219216934938
 20
28.1468939385711714
 30
0.0
 40
7.0800000000000116
  0
CIRCLE
  5
1EE8
  8
0
 10
86.3405219216934938
 20
28.1468939385711714
 30
0.0
 40
4.999999999999992
  0
CIRCLE
  5
1EE9
  8
0
 10
86.3405219216934938
 20
28.1468939385711714
 30
0.0
 40
8.0
  0
CIRCLE
  5
1EEA
  8
0
 10
86.3405219216934938
 20
28.1468939385711394
 30
0.0
 40
3.0119496504917711
  0
CIRCLE
  5
1EEB
  8
0
 10
86.3405219216934938
 20
28.1468939385711394
 30
0.0
 40
4.0
  0
LINE
  5
1EEC
  8
0
 10
123.9405219216935023
 20
30.5468939385713192
 30
0.0
 11
98.8112877361892288
 21
30.5468939385713192
 31
0.0
  0
LINE
  5
1EED
  8
0
 10
98.8112877361895698
 20
25.7468939385713114
 30
0.0
 11
123.9405219216935023
 21
25.7468939385713114
 31
0.0
  0
ARC
  5
1EEE
  8
0
 10
123.9405219216935023
 20
28.1468939385713099
 30
0.0
 40
2.4000000000000048
 50
270.0
 51
90.0
  0
LINE
  5
1EEF
  8
0
 10
31.1655038379835787
 20
72.4501526130939624
 30
0.0
 11
31.1655038379836
 21
79.6226526130940044
 31
0.0
  0
LINE
  5
1EF0
  8
0
 10
15.1655038379836906
 20
114.8006261810590019
 30
0.0
 11
15.1655038379836196
 21
87.6226526130940044
 31
0.0
  0
LINE
  5
1EF1
  8
0
 10
15.1655038379835805
 20
72.4501526130940192
 30
0.0
 11
16.3925038379835506
 21
71.2231526130940154
 31
0.0
  0
LINE
  5
1EF2
  8
0
 10
29.9385038379835997
 20
71.2231526130939443
 30
0.0
 11
31.1655038379835787
 21
72.4501526130939624
 31
0.0
  0
ARC
  5
1EF3
  8
0
 10
28.3655038379832902
 20
121.6231526130938931
 30
0.0
 40
0.8000000000005101
 50
0.0000266593315818
 51
90.0
  0
ARC
  5
1EF4
  8
0
 10
17.9655038379842082
 20
121.6231526130940068
 30
0.0
 40
0.8000000000005101
 50
90.0
 51
179.9999733406675944
  0
LINE
  5
1EF5
  8
0
 10
29.1655038379837492
 20
118.6451278730878016
 30
0.0
 11
29.1655038379837492
 21
121.623152985328403
 31
0.0
  0
LINE
  5
1EF6
  8
0
 10
17.1655038379837492
 20
121.6231529853285025
 30
0.0
 11
17.1655038379837492
 21
118.6451278730878016
 31
0.0
  0
LINE
  5
1F00
  8
0
 10
27.8291935352199289
 20
119.5231526130938988
 30
0.0
 11
26.2880028371829511
 21
119.5231526130938988
 31
0.0
  0
POLYLINE
  5
1F01
  8
0
 10
31.1655038379836888
 20
114.8006261810589734
 30
0.0
 66
     1
 70
     8
  0
VERTEX
  8
0
  5
238F
 10
31.1655
 20
114.801
 30
0.00000
  70
    32
  0
VERTEX
  8
0
  5
2390
 10
31.1653
 20
114.844
 30
0.00000
  70
    32
  0
VERTEX
  8
0
  5
2391
 10
31.1646
 20
114.887
 30
0.00000
  70
    32
  0
VERTEX
  8
0
  5
2392
 10
31.1635
 20
114.930
 30
0.00000
  70
    32
  0
VERTEX
  8
0
  5
2393
 10
31.1620
 20
114.973
 30
0.00000
  70
    32
  0
VERTEX
  8
0
  5
2394
 10
31.1600
 20
115.016
 30
0.00000
  70
    32
  0
VERTEX
  8
0
  5
2395
 10
31.1576
 20
115.059
 30
0.00000
  70
    32
  0
VERTEX
  8
0
  5
2396
 10
31.1547
 20
115.102
 30
0.00000
  70
    32
  0
VERTEX
  8
0
  5
2397
 10
31.1515
 20
115.145
 30
0.00000
  70
    32
  0
VERTEX
  8
0
  5
2398
 10
31.1477
 20
115.188
 30
0.00000
  70
    32
  0
VERTEX
  8
0
  5
2399
 10
31.1436
 20
115.231
 30
0.00000
  70
    32
  0
VERTEX
  8
0
  5
239A
 10
31.1389
 20
115.274
 30
0.00000
  70
    32
  0
VERTEX
  8
0
  5
239B
 10
31.1339
 20
115.317
 30
0.00000
  70
    32
  0
VERTEX
  8
0
  5
239C
 10
31.1284
 20
115.360
 30
0.00000
  70
    32
  0
VERTEX
  8
0
  5
239D
 10
31.1225
 20
115.402
 30
0.00000
  70
    32
  0
VERTEX
  8
0
  5
239E
 10
31.1161
 20
115.445
 30
0.00000
  70
    32
  0
VERTEX
  8
0
  5
239F
 10
31.1093
 20
115.488
 30
0.00000
  70
    32
  0
VERTEX
  8
0
  5
23A0
 10
31.1021
 20
115.531
 30
0.00000
  70
    32
  0
VERTEX
  8
0
  5
23A1
 10
31.0945
 20
115.574
 30
0.00000
  70
    32
  0
VERTEX
  8
0
  5
23A2
 10
31.0864
 20
115.616
 30
0.00000
  70
    32
  0
VERTEX
  8
0
  5
23A3
 10
31.0778
 20
115.659
 30
0.00000
  70
    32
  0
VERTEX
  8
0
  5
23A4
 10
31.0689
 20
115.701
 30
0.00000
  70
    32
  0
VERTEX
  8
0
  5
23A5
 10
31.0594
 20
115.744
 30
0.00000
  70
    32
  0
VERTEX
  8
0
  5
23A6
 10
31.0496
 20
115.786
 30
0.00000
  70
    32
  0
VERTEX
  8
0
  5
23A7
 10
31.0393
 20
115.829
 30
0.00000
  70
    32
  0
VERTEX
  8
0
  5
23A8
 10
31.0286
 20
115.871
 30
0.00000
  70
    32
  0
VERTEX
  8
0
  5
23A9
 10
31.0175
 20
115.913
 30
0.00000
  70
    32
  0
VERTEX
  8
0
  5
23AA
 10
31.0059
 20
115.956
 30
0.00000
  70
    32
  0
VERTEX
  8
0
  5
23AB
 10
30.9939
 20
115.998
 30
0.00000
  70
    32
  0
VERTEX
  8
0
  5
23AC
 10
30.9815
 20
116.040
 30
0.00000
  70
    32
  0
VERTEX
  8
0
  5
23AD
 10
30.9687
 20
116.082
 30
0.00000
  70
    32
  0
VERTEX
  8
0
  5
23AE
 10
30.9554
 20
116.124
 30
0.00000
  70
    32
  0
VERTEX
  8
0
  5
23AF
 10
30.9417
 20
116.166
 30
0.00000
  70
    32
  0
VERTEX
  8
0
  5
23B0
 10
30.9275
 20
116.208
 30
0.00000
  70
    32
  0
VERTEX
  8
0
  5
23B1
 10
30.9130
 20
116.249
 30
0.00000
  70
    32
  0
VERTEX
  8
0
  5
23B2
 10
30.8980
 20
116.291
 30
0.00000
  70
    32
  0
VERTEX
  8
0
  5
23B3
 10
30.8826
 20
116.333
 30
0.00000
  70
    32
  0
VERTEX
  8
0
  5
23B4
 10
30.8667
 20
116.374
 30
0.00000
  70
    32
  0
VERTEX
  8
0
  5
23B5
 10
30.8505
 20
116.416
 30
0.00000
  70
    32
  0
VERTEX
  8
0
  5
23B6
 10
30.8338
 20
116.457
 30
0.00000
  70
    32
  0
VERTEX
  8
0
  5
23B7
 10
30.8167
 20
116.498
 30
0.00000
  70
    32
  0
VERTEX
  8
0
  5
23B8
 10
30.7992
 20
116.539
 30
0.00000
  70
    32
  0
VERTEX
  8
0
  5
23B9
 10
30.7812
 20
116.580
 30
0.00000
  70
    32
  0
VERTEX
  8
0
  5
23BA
 10
30.7629
 20
116.621
 30
0.00000
  70
    32
  0
VERTEX
  8
0
  5
23BB
 10
30.7441
 20
116.662
 30
0.00000
  70
    32
  0
VERTEX
  8
0
  5
23BC
 10
30.7249
 20
116.703
 30
0.00000
  70
    32
  0
VERTEX
  8
0
  5
23BD
 10
30.7053
 20
116.744
 30
0.00000
  70
    32
  0
VERTEX
  8
0
  5
23BE
 10
30.6853
 20
116.784
 30
0.00000
  70
    32
  0
VERTEX
  8
0
  5
23BF
 10
30.6648
 20
116.825
 30
0.00000
  70
    32
  0
VERTEX
  8
0
  5
23C0
 10
30.6440
 20
116.865
 30
0.00000
  70
    32
  0
VERTEX
  8
0
  5
23C1
 10
30.6227
 20
116.905
 30
0.00000
  70
    32
  0
VERTEX
  8
0
  5
23C2
 10
30.6011
 20
116.945
 30
0.00000
  70
    32
  0
VERTEX
  8
0
  5
23C3
 10
30.5790
 20
116.985
 30
0.00000
  70
    32
  0
VERTEX
  8
0
  5
23C4
 10
30.5565
 20
117.025
 30
0.00000
  70
    32
  0
VERTEX
  8
0
  5
23C5
 10
30.5336
 20
117.065
 30
0.00000
  70
    32
  0
VERTEX
  8
0
  5
23C6
 10
30.5103
 20
117.104
 30
0.00000
  70
    32
  0
VERTEX
  8
0
  5
23C7
 10
30.4866
 20
117.144
 30
0.00000
  70
    32
  0
VERTEX
  8
0
  5
23C8
 10
30.4625
 20
117.183
 30
0.00000
  70
    32
  0
VERTEX
  8
0
  5
23C9
 10
30.4380
 20
117.222
 30
0.00000
  70
    32
  0
VERTEX
  8
0
  5
23CA
 10
30.4131
 20
117.261
 30
0.00000
  70
    32
  0
VERTEX
  8
0
  5
23CB
 10
30.3879
 20
117.300
 30
0.00000
  70
    32
  0
VERTEX
  8
0
  5
23CC
 10
30.3622
 20
117.339
 30
0.00000
  70
    32
  0
VERTEX
  8
0
  5
23CD
 10
30.3361
 20
117.378
 30
0.00000
  70
    32
  0
VERTEX
  8
0
  5
23CE
 10
30.3096
 20
117.416
 30
0.00000
  70
    32
  0
VERTEX
  8
0
  5
23CF
 10
30.2827
 20
117.455
 30
0.00000
  70
    32
  0
VERTEX
  8
0
  5
23D0
 10
30.2555
 20
117.493
 30
0.00000
  70
    32
  0
VERTEX
  8
0
  5
23D1
 10
30.2278
 20
117.531
 30
0.00000
  70
    32
  0
VERTEX
  8
0
  5
23D2
 10
30.1998
 20
117.569
 30
0.00000
  70
    32
  0
VERTEX
  8
0
  5
23D3
 10
30.1713
 20
117.607
 30
0.00000
  70
    32
  0
VERTEX
  8
0
  5
23D4
 10
30.1425
 20
117.644
 30
0.00000
  70
    32
  0
VERTEX
  8
0
  5
23D5
 10
30.1133
 20
117.682
 30
0.00000
  70
    32
  0
VERTEX
  8
0
  5
23D6
 10
30.0838
 20
117.719
 30
0.00000
  70
    32
  0
VERTEX
  8
0
  5
23D7
 10
30.0538
 20
117.756
 30
0.00000
  70
    32
  0
VERTEX
  8
0
  5
23D8
 10
30.0235
 20
117.793
 30
0.00000
  70
    32
  0
VERTEX
  8
0
  5
23D9
 10
29.9928
 20
117.830
 30
0.00000
  70
    32
  0
VERTEX
  8
0
  5
23DA
 10
29.9617
 20
117.867
 30
0.00000
  70
    32
  0
VERTEX
  8
0
  5
23DB
 10
29.9302
 20
117.903
 30
0.00000
  70
    32
  0
VERTEX
  8
0
  5
23DC
 10
29.8984
 20
117.940
 30
0.00000
  70
    32
  0
VERTEX
  8
0
  5
23DD
 10
29.8662
 20
117.976
 30
0.00000
  70
    32
  0
VERTEX
  8
0
  5
23DE
 10
29.8336
 20
118.012
 30
0.00000
  70
    32
  0
VERTEX
  8
0
  5
23DF
 10
29.8007
 20
118.048
 30
0.00000
  70
    32
  0
VERTEX
  8
0
  5
23E0
 10
29.7674
 20
118.083
 30
0.00000
  70
    32
  0
VERTEX
  8
0
  5
23E1
 10
29.7337
 20
118.119
 30
0.00000
  70
    32
  0
VERTEX
  8
0
  5
23E2
 10
29.6997
 20
118.154
 30
0.00000
  70
    32
  0
VERTEX
  8
0
  5
23E3
 10
29.6653
 20
118.189
 30
0.00000
  70
    32
  0
VERTEX
  8
0
  5
23E4
 10
29.6306
 20
118.224
 30
0.00000
  70
    32
  0
VERTEX
  8
0
  5
23E5
 10
29.5955
 20
118.259
 30
0.00000
  70
    32
  0
VERTEX
  8
0
  5
23E6
 10
29.5601
 20
118.293
 30
0.00000
  70
    32
  0
VERTEX
  8
0
  5
23E7
 10
29.5243
 20
118.328
 30
0.00000
  70
    32
  0
VERTEX
  8
0
  5
23E8
 10
29.4881
 20
118.362
 30
0.00000
  70
    32
  0
VERTEX
  8
0
  5
23E9
 10
29.4516
 20
118.396
 30
0.00000
  70
    32
  0
VERTEX
  8
0
  5
23EA
 10
29.4148
 20
118.429
 30
0.00000
  70
    32
  0
VERTEX
  8
0
  5
23EB
 10
29.3776
 20
118.463
 30
0.00000
  70
    32
  0
VERTEX
  8
0
  5
23EC
 10
29.3401
 20
118.496
 30
0.00000
  70
    32
  0
VERTEX
  8
0
  5
23ED
 10
29.3022
 20
118.529
 30
0.00000
  70
    32
  0
VERTEX
  8
0
  5
23EE
 10
29.2640
 20
118.562
 30
0.00000
  70
    32
  0
VERTEX
  8
0
  5
23EF
 10
29.2255
 20
118.595
 30
0.00000
  70
    32
  0
VERTEX
  8
0
  5
23F0
 10
29.1866
 20
118.628
 30
0.00000
  70
    32
  0
VERTEX
  8
0
  5
23F1
 10
29.1474
 20
118.660
 30
0.00000
  70
    32
  0
VERTEX
  8
0
  5
23F2
 10
29.1079
 20
118.692
 30
0.00000
  70
    32
  0
VERTEX
  8
0
  5
23F3
 10
29.0681
 20
118.724
 30
0.00000
  70
    32
  0
VERTEX
  8
0
  5
23F4
 10
29.0279
 20
118.756
 30
0.00000
  70
    32
  0
VERTEX
  8
0
  5
23F5
 10
28.9874
 20
118.787
 30
0.00000
  70
    32
  0
VERTEX
  8
0
  5
23F6
 10
28.9466
 20
118.818
 30
0.00000
  70
    32
  0
VERTEX
  8
0
  5
23F7
 10
28.9055
 20
118.849
 30
0.00000
  70
    32
  0
VERTEX
  8
0
  5
23F8
 10
28.8640
 20
118.880
 30
0.00000
  70
    32
  0
VERTEX
  8
0
  5
23F9
 10
28.8223
 20
118.911
 30
0.00000
  70
    32
  0
VERTEX
  8
0
  5
23FA
 10
28.7802
 20
118.941
 30
0.00000
  70
    32
  0
VERTEX
  8
0
  5
23FB
 10
28.7378
 20
118.971
 30
0.00000
  70
    32
  0
VERTEX
  8
0
  5
23FC
 10
28.6951
 20
119.001
 30
0.00000
  70
    32
  0
VERTEX
  8
0
  5
23FD
 10
28.6521
 20
119.031
 30
0.00000
  70
    32
  0
VERTEX
  8
0
  5
23FE
 10
28.6088
 20
119.060
 30
0.00000
  70
    32
  0
VERTEX
  8
0
  5
23FF
 10
28.5653
 20
119.089
 30
0.00000
  70
    32
  0
VERTEX
  8
0
  5
2400
 10
28.5214
 20
119.118
 30
0.00000
  70
    32
  0
VERTEX
  8
0
  5
2401
 10
28.4772
 20
119.147
 30
0.00000
  70
    32
  0
VERTEX
  8
0
  5
2402
 10
28.4327
 20
119.175
 30
0.00000
  70
    32
  0
VERTEX
  8
0
  5
2403
 10
28.3880
 20
119.204
 30
0.00000
  70
    32
  0
VERTEX
  8
0
  5
2404
 10
28.3429
 20
119.232
 30
0.00000
  70
    32
  0
VERTEX
  8
0
  5
2405
 10
28.2976
 20
119.259
 30
0.00000
  70
    32
  0
VERTEX
  8
0
  5
2406
 10
28.2520
 20
119.287
 30
0.00000
  70
    32
  0
VERTEX
  8
0
  5
2407
 10
28.2061
 20
119.314
 30
0.00000
  70
    32
  0
VERTEX
  8
0
  5
2408
 10
28.1599
 20
119.341
 30
0.00000
  70
    32
  0
VERTEX
  8
0
  5
2409
 10
28.1135
 20
119.368
 30
0.00000
  70
    32
  0
VERTEX
  8
0
  5
240A
 10
28.0667
 20
119.394
 30
0.00000
  70
    32
  0
VERTEX
  8
0
  5
240B
 10
28.0198
 20
119.421
 30
0.00000
  70
    32
  0
VERTEX
  8
0
  5
240C
 10
27.9725
 20
119.447
 30
0.00000
  70
    32
  0
VERTEX
  8
0
  5
240D
 10
27.9250
 20
119.472
 30
0.00000
  70
    32
  0
VERTEX
  8
0
  5
240E
 10
27.8772
 20
119.498
 30
0.00000
  70
    32
  0
VERTEX
  8
0
  5
240F
 10
27.8292
 20
119.523
 30
0.00000
  70
    32
  0
SEQEND
  8
0
  5
2410
  0
POLYLINE
  5
1F02
  8
0
 10
18.5018143114392828
 20
119.5231526130939699
 30
0.0
 66
     1
 70
     8
  0
VERTEX
  8
0
  5
2411
 10
18.5018
 20
119.523
 30
0.00000
  70
    32
  0
VERTEX
  8
0
  5
2412
 10
18.4538
 20
119.498
 30
0.00000
  70
    32
  0
VERTEX
  8
0
  5
2413
 10
18.4060
 20
119.472
 30
0.00000
  70
    32
  0
VERTEX
  8
0
  5
2414
 10
18.3585
 20
119.447
 30
0.00000
  70
    32
  0
VERTEX
  8
0
  5
2415
 10
18.3112
 20
119.421
 30
0.00000
  70
    32
  0
VERTEX
  8
0
  5
2416
 10
18.2643
 20
119.394
 30
0.00000
  70
    32
  0
VERTEX
  8
0
  5
2417
 10
18.2175
 20
119.368
 30
0.00000
  70
    32
  0
VERTEX
  8
0
  5
2418
 10
18.1711
 20
119.341
 30
0.00000
  70
    32
  0
VERTEX
  8
0
  5
2419
 10
18.1249
 20
119.314
 30
0.00000
  70
    32
  0
VERTEX
  8
0
  5
241A
 10
18.0790
 20
119.287
 30
0.00000
  70
    32
  0
VERTEX
  8
0
  5
241B
 10
18.0334
 20
119.259
 30
0.00000
  70
    32
  0
VERTEX
  8
0
  5
241C
 10
17.9881
 20
119.232
 30
0.00000
  70
    32
  0
VERTEX
  8
0
  5
241D
 10
17.9431
 20
119.204
 30
0.00000
  70
    32
  0
VERTEX
  8
0
  5
241E
 10
17.8983
 20
119.175
 30
0.00000
  70
    32
  0
VERTEX
  8
0
  5
241F
 10
17.8538
 20
119.147
 30
0.00000
  70
    32
  0
VERTEX
  8
0
  5
2420
 10
17.8096
 20
119.118
 30
0.00000
  70
    32
  0
VERTEX
  8
0
  5
2421
 10
17.7658
 20
119.089
 30
0.00000
  70
    32
  0
VERTEX
  8
0
  5
2422
 10
17.7222
 20
119.060
 30
0.00000
  70
    32
  0
VERTEX
  8
0
  5
2423
 10
17.6789
 20
119.031
 30
0.00000
  70
    32
  0
VERTEX
  8
0
  5
2424
 10
17.6359
 20
119.001
 30
0.00000
  70
    32
  0
VERTEX
  8
0
  5
2425
 10
17.5932
 20
118.971
 30
0.00000
  70
    32
  0
VERTEX
  8
0
  5
2426
 10
17.5508
 20
118.941
 30
0.00000
  70
    32
  0
VERTEX
  8
0
  5
2427
 10
17.5088
 20
118.911
 30
0.00000
  70
    32
  0
VERTEX
  8
0
  5
2428
 10
17.4670
 20
118.880
 30
0.00000
  70
    32
  0
VERTEX
  8
0
  5
2429
 10
17.4255
 20
118.849
 30
0.00000
  70
    32
  0
VERTEX
  8
0
  5
242A
 10
17.3844
 20
118.818
 30
0.00000
  70
    32
  0
VERTEX
  8
0
  5
242B
 10
17.3436
 20
118.787
 30
0.00000
  70
    32
  0
VERTEX
  8
0
  5
242C
 10
17.3031
 20
118.756
 30
0.00000
  70
    32
  0
VERTEX
  8
0
  5
242D
 10
17.2629
 20
118.724
 30
0.00000
  70
    32
  0
VERTEX
  8
0
  5
242E
 10
17.2231
 20
118.692
 30
0.00000
  70
    32
  0
VERTEX
  8
0
  5
242F
 10
17.1836
 20
118.660
 30
0.00000
  70
    32
  0
VERTEX
  8
0
  5
2430
 10
17.1444
 20
118.628
 30
0.00000
  70
    32
  0
VERTEX
  8
0
  5
2431
 10
17.1055
 20
118.595
 30
0.00000
  70
    32
  0
VERTEX
  8
0
  5
2432
 10
17.0670
 20
118.562
 30
0.00000
  70
    32
  0
VERTEX
  8
0
  5
2433
 10
17.0288
 20
118.529
 30
0.00000
  70
    32
  0
VERTEX
  8
0
  5
2434
 10
16.9909
 20
118.496
 30
0.00000
  70
    32
  0
VERTEX
  8
0
  5
2435
 10
16.9534
 20
118.463
 30
0.00000
  70
    32
  0
VERTEX
  8
0
  5
2436
 10
16.9162
 20
118.429
 30
0.00000
  70
    32
  0
VERTEX
  8
0
  5
2437
 10
16.8794
 20
118.396
 30
0.00000
  70
    32
  0
VERTEX
  8
0
  5
2438
 10
16.8429
 20
118.362
 30
0.00000
  70
    32
  0
VERTEX
  8
0
  5
2439
 10
16.8067
 20
118.328
 30
0.00000
  70
    32
  0
VERTEX
  8
0
  5
243A
 10
16.7709
 20
118.293
 30
0.00000
  70
    32
  0
VERTEX
  8
0
  5
243B
 10
16.7355
 20
118.259
 30
0.00000
  70
    32
  0
VERTEX
  8
0
  5
243C
 10
16.7004
 20
118.224
 30
0.00000
  70
    32
  0
VERTEX
  8
0
  5
243D
 10
16.6657
 20
118.189
 30
0.00000
  70
    32
  0
VERTEX
  8
0
  5
243E
 10
16.6313
 20
118.154
 30
0.00000
  70
    32
  0
VERTEX
  8
0
  5
243F
 10
16.5973
 20
118.119
 30
0.00000
  70
    32
  0
VERTEX
  8
0
  5
2440
 10
16.5636
 20
118.083
 30
0.00000
  70
    32
  0
VERTEX
  8
0
  5
2441
 10
16.5303
 20
118.048
 30
0.00000
  70
    32
  0
VERTEX
  8
0
  5
2442
 10
16.4974
 20
118.012
 30
0.00000
  70
    32
  0
VERTEX
  8
0
  5
2443
 10
16.4648
 20
117.976
 30
0.00000
  70
    32
  0
VERTEX
  8
0
  5
2444
 10
16.4326
 20
117.940
 30
0.00000
  70
    32
  0
VERTEX
  8
0
  5
2445
 10
16.4008
 20
117.903
 30
0.00000
  70
    32
  0
VERTEX
  8
0
  5
2446
 10
16.3693
 20
117.867
 30
0.00000
  70
    32
  0
VERTEX
  8
0
  5
2447
 10
16.3383
 20
117.830
 30
0.00000
  70
    32
  0
VERTEX
  8
0
  5
2448
 10
16.3075
 20
117.793
 30
0.00000
  70
    32
  0
VERTEX
  8
0
  5
2449
 10
16.2772
 20
117.756
 30
0.00000
  70
    32
  0
VERTEX
  8
0
  5
244A
 10
16.2473
 20
117.719
 30
0.00000
  70
    32
  0
VERTEX
  8
0
  5
244B
 10
16.2177
 20
117.682
 30
0.00000
  70
    32
  0
VERTEX
  8
0
  5
244C
 10
16.1885
 20
117.644
 30
0.00000
  70
    32
  0
VERTEX
  8
0
  5
244D
 10
16.1597
 20
117.607
 30
0.00000
  70
    32
  0
VERTEX
  8
0
  5
244E
 10
16.1312
 20
117.569
 30
0.00000
  70
    32
  0
VERTEX
  8
0
  5
244F
 10
16.1032
 20
117.531
 30
0.00000
  70
    32
  0
VERTEX
  8
0
  5
2450
 10
16.0756
 20
117.493
 30
0.00000
  70
    32
  0
VERTEX
  8
0
  5
2451
 10
16.0483
 20
117.455
 30
0.00000
  70
    32
  0
VERTEX
  8
0
  5
2452
 10
16.0214
 20
117.416
 30
0.00000
  70
    32
  0
VERTEX
  8
0
  5
2453
 10
15.9949
 20
117.378
 30
0.00000
  70
    32
  0
VERTEX
  8
0
  5
2454
 10
15.9688
 20
117.339
 30
0.00000
  70
    32
  0
VERTEX
  8
0
  5
2455
 10
15.9432
 20
117.300
 30
0.00000
  70
    32
  0
VERTEX
  8
0
  5
2456
 10
15.9179
 20
117.261
 30
0.00000
  70
    32
  0
VERTEX
  8
0
  5
2457
 10
15.8930
 20
117.222
 30
0.00000
  70
    32
  0
VERTEX
  8
0
  5
2458
 10
15.8685
 20
117.183
 30
0.00000
  70
    32
  0
VERTEX
  8
0
  5
2459
 10
15.8444
 20
117.144
 30
0.00000
  70
    32
  0
VERTEX
  8
0
  5
245A
 10
15.8207
 20
117.104
 30
0.00000
  70
    32
  0
VERTEX
  8
0
  5
245B
 10
15.7974
 20
117.065
 30
0.00000
  70
    32
  0
VERTEX
  8
0
  5
245C
 10
15.7745
 20
117.025
 30
0.00000
  70
    32
  0
VERTEX
  8
0
  5
245D
 10
15.7520
 20
116.985
 30
0.00000
  70
    32
  0
VERTEX
  8
0
  5
245E
 10
15.7299
 20
116.945
 30
0.00000
  70
    32
  0
VERTEX
  8
0
  5
245F
 10
15.7083
 20
116.905
 30
0.00000
  70
    32
  0
VERTEX
  8
0
  5
2460
 10
15.6870
 20
116.865
 30
0.00000
  70
    32
  0
VERTEX
  8
0
  5
2461
 10
15.6662
 20
116.825
 30
0.00000
  70
    32
  0
VERTEX
  8
0
  5
2462
 10
15.6457
 20
116.784
 30
0.00000
  70
    32
  0
VERTEX
  8
0
  5
2463
 10
15.6257
 20
116.744
 30
0.00000
  70
    32
  0
VERTEX
  8
0
  5
2464
 10
15.6061
 20
116.703
 30
0.00000
  70
    32
  0
VERTEX
  8
0
  5
2465
 10
15.5869
 20
116.662
 30
0.00000
  70
    32
  0
VERTEX
  8
0
  5
2466
 10
15.5681
 20
116.621
 30
0.00000
  70
    32
  0
VERTEX
  8
0
  5
2467
 10
15.5498
 20
116.580
 30
0.00000
  70
    32
  0
VERTEX
  8
0
  5
2468
 10
15.5318
 20
116.539
 30
0.00000
  70
    32
  0
VERTEX
  8
0
  5
2469
 10
15.5143
 20
116.498
 30
0.00000
  70
    32
  0
VERTEX
  8
0
  5
246A
 10
15.4972
 20
116.457
 30
0.00000
  70
    32
  0
VERTEX
  8
0
  5
246B
 10
15.4805
 20
116.416
 30
0.00000
  70
    32
  0
VERTEX
  8
0
  5
246C
 10
15.4643
 20
116.374
 30
0.00000
  70
    32
  0
VERTEX
  8
0
  5
246D
 10
15.4484
 20
116.333
 30
0.00000
  70
    32
  0
VERTEX
  8
0
  5
246E
 10
15.4330
 20
116.291
 30
0.00000
  70
    32
  0
VERTEX
  8
0
  5
246F
 10
15.4180
 20
116.249
 30
0.00000
  70
    32
  0
VERTEX
  8
0
  5
2470
 10
15.4035
 20
116.208
 30
0.00000
  70
    32
  0
VERTEX
  8
0
  5
2471
 10
15.3893
 20
116.166
 30
0.00000
  70
    32
  0
VERTEX
  8
0
  5
2472
 10
15.3756
 20
116.124
 30
0.00000
  70
    32
  0
VERTEX
  8
0
  5
2473
 10
15.3623
 20
116.082
 30
0.00000
  70
    32
  0
VERTEX
  8
0
  5
2474
 10
15.3495
 20
116.040
 30
0.00000
  70
    32
  0
VERTEX
  8
0
  5
2475
 10
15.3371
 20
115.998
 30
0.00000
  70
    32
  0
VERTEX
  8
0
  5
2476
 10
15.3251
 20
115.956
 30
0.00000
  70
    32
  0
VERTEX
  8
0
  5
2477
 10
15.3135
 20
115.913
 30
0.00000
  70
    32
  0
VERTEX
  8
0
  5
2478
 10
15.3024
 20
115.871
 30
0.00000
  70
    32
  0
VERTEX
  8
0
  5
2479
 10
15.2917
 20
115.829
 30
0.00000
  70
    32
  0
VERTEX
  8
0
  5
247A
 10
15.2814
 20
115.786
 30
0.00000
  70
    32
  0
VERTEX
  8
0
  5
247B
 10
15.2716
 20
115.744
 30
0.00000
  70
    32
  0
VERTEX
  8
0
  5
247C
 10
15.2622
 20
115.701
 30
0.00000
  70
    32
  0
VERTEX
  8
0
  5
247D
 10
15.2532
 20
115.659
 30
0.00000
  70
    32
  0
VERTEX
  8
0
  5
247E
 10
15.2447
 20
115.616
 30
0.00000
  70
    32
  0
VERTEX
  8
0
  5
247F
 10
15.2366
 20
115.574
 30
0.00000
  70
    32
  0
VERTEX
  8
0
  5
2480
 10
15.2289
 20
115.531
 30
0.00000
  70
    32
  0
VERTEX
  8
0
  5
2481
 10
15.2217
 20
115.488
 30
0.00000
  70
    32
  0
VERTEX
  8
0
  5
2482
 10
15.2149
 20
115.445
 30
0.00000
  70
    32
  0
VERTEX
  8
0
  5
2483
 10
15.2085
 20
115.402
 30
0.00000
  70
    32
  0
VERTEX
  8
0
  5
2484
 10
15.2026
 20
115.360
 30
0.00000
  70
    32
  0
VERTEX
  8
0
  5
2485
 10
15.1971
 20
115.317
 30
0.00000
  70
    32
  0
VERTEX
  8
0
  5
2486
 10
15.1921
 20
115.274
 30
0.00000
  70
    32
  0
VERTEX
  8
0
  5
2487
 10
15.1875
 20
115.231
 30
0.00000
  70
    32
  0
VERTEX
  8
0
  5
2488
 10
15.1833
 20
115.188
 30
0.00000
  70
    32
  0
VERTEX
  8
0
  5
2489
 10
15.1796
 20
115.145
 30
0.00000
  70
    32
  0
VERTEX
  8
0
  5
248A
 10
15.1763
 20
115.102
 30
0.00000
  70
    32
  0
VERTEX
  8
0
  5
248B
 10
15.1734
 20
115.059
 30
0.00000
  70
    32
  0
VERTEX
  8
0
  5
248C
 10
15.1710
 20
115.016
 30
0.00000
  70
    32
  0
VERTEX
  8
0
  5
248D
 10
15.1690
 20
114.973
 30
0.00000
  70
    32
  0
VERTEX
  8
0
  5
248E
 10
15.1675
 20
114.930
 30
0.00000
  70
    32
  0
VERTEX
  8
0
  5
248F
 10
15.1664
 20
114.887
 30
0.00000
  70
    32
  0
VERTEX
  8
0
  5
2490
 10
15.1657
 20
114.844
 30
0.00000
  70
    32
  0
VERTEX
  8
0
  5
2491
 10
15.1655
 20
114.801
 30
0.00000
  70
    32
  0
SEQEND
  8
0
  5
2492
  0
LINE
  5
1F03
  8
0
 10
20.0430048387845616
 20
119.5231526130939983
 30
0.0
 11
18.5018143114393183
 21
119.5231526130939983
 31
0.0
  0
ARC
  5
1F04
  8
0
 10
23.1655038379837492
 20
122.0231526130939983
 30
0.0
 40
4.0000000000000364
 50
218.6821874534888934
 51
321.317812546511675
  0
LINE
  5
1F05
  8
0
 10
15.1655038379835805
 20
72.4501526130940192
 30
0.0
 11
31.1655038379835787
 21
72.4501526130939624
 31
0.0
  0
LINE
  5
1F06
  8
0
 10
16.3925038379835506
 20
71.2231526130940154
 30
0.0
 11
29.9385038379835997
 21
71.2231526130939443
 31
0.0
  0
LINE
  5
1F07
  8
0
 10
28.3655042682115699
 20
122.4231526130939045
 30
0.0
 11
17.9655034077559286
 21
122.423152613094004
 31
0.0
  0
LINE
  5
1F0C
  8
0
 10
29.1655038379836888
 20
121.623152985328403
 30
0.0
 11
17.165503837983799
 21
121.6231529853285025
 31
0.0
  0
LINE
  5
1F0D
  8
0
 10
160.4773215042228003
 20
72.450152613093934
 30
0.0
 11
161.7043215042228042
 21
71.2231526130939301
 31
0.0
  0
LINE
  5
1F0E
  8
0
 10
175.2503215042227964
 20
71.2231526130939869
 30
0.0
 11
176.4773215042228003
 21
72.4501526130939908
 31
0.0
  0
LINE
  5
1F0F
  8
0
 10
176.4773215042228003
 20
72.4501526130939908
 30
0.0
 11
176.4773215042226866
 21
79.6226526130940044
 31
0.0
  0
LINE
  5
1F10
  8
0
 10
160.4773215042226866
 20
114.8006261810590019
 30
0.0
 11
160.4773215042228003
 21
87.6226526130940044
 31
0.0
  0
ARC
  5
1F11
  8
0
 10
173.6773215042221068
 20
121.6231526130938931
 30
0.0
 40
0.8000000000005243
 50
0.0000266593315818
 51
90.0
  0
ARC
  5
1F12
  8
0
 10
163.2773215042230959
 20
121.6231526130938931
 30
0.0
 40
0.8000000000004959
 50
90.0
 51
179.9999733406675944
  0
LINE
  5
1F13
  8
0
 10
174.4773215042226866
 20
112.984269861045604
 30
0.0
 11
174.4773215042226866
 21
121.623152985328403
 31
0.0
  0
LINE
  5
1F14
  8
0
 10
162.4773215042226866
 20
121.623152985328403
 30
0.0
 11
162.4773215042226866
 21
112.9842698610455045
 31
0.0
  0
LINE
  5
1F1E
  8
0
 10
161.7043215042228042
 20
71.2231526130939301
 30
0.0
 11
175.2503215042227964
 21
71.2231526130939869
 31
0.0
  0
LINE
  5
1F1F
  8
0
 10
160.4773215042228003
 20
72.450152613093934
 30
0.0
 11
176.4773215042228003
 21
72.4501526130939908
 31
0.0
  0
POLYLINE
  5
1F20
  8
0
 10
162.4773215042226582
 20
118.6451278730877732
 30
0.0
 66
     1
 70
     8
  0
VERTEX
  8
0
  5
2493
 10
162.477
 20
118.645
 30
0.00000
  70
    32
  0
VERTEX
  8
0
  5
2494
 10
162.399
 20
118.580
 30
0.00000
  70
    32
  0
VERTEX
  8
0
  5
2495
 10
162.323
 20
118.514
 30
0.00000
  70
    32
  0
VERTEX
  8
0
  5
2496
 10
162.247
 20
118.447
 30
0.00000
  70
    32
  0
VERTEX
  8
0
  5
2497
 10
162.173
 20
118.379
 30
0.00000
  70
    32
  0
VERTEX
  8
0
  5
2498
 10
162.101
 20
118.311
 30
0.00000
  70
    32
  0
VERTEX
  8
0
  5
2499
 10
162.030
 20
118.241
 30
0.00000
  70
    32
  0
VERTEX
  8
0
  5
249A
 10
161.960
 20
118.171
 30
0.00000
  70
    32
  0
VERTEX
  8
0
  5
249B
 10
161.892
 20
118.101
 30
0.00000
  70
    32
  0
VERTEX
  8
0
  5
249C
 10
161.825
 20
118.029
 30
0.00000
  70
    32
  0
VERTEX
  8
0
  5
249D
 10
161.760
 20
117.957
 30
0.00000
  70
    32
  0
VERTEX
  8
0
  5
249E
 10
161.696
 20
117.884
 30
0.00000
  70
    32
  0
VERTEX
  8
0
  5
249F
 10
161.633
 20
117.810
 30
0.00000
  70
    32
  0
VERTEX
  8
0
  5
24A0
 10
161.572
 20
117.736
 30
0.00000
  70
    32
  0
VERTEX
  8
0
  5
24A1
 10
161.513
 20
117.661
 30
0.00000
  70
    32
  0
VERTEX
  8
0
  5
24A2
 10
161.455
 20
117.585
 30
0.00000
  70
    32
  0
VERTEX
  8
0
  5
24A3
 10
161.399
 20
117.509
 30
0.00000
  70
    32
  0
VERTEX
  8
0
  5
24A4
 10
161.344
 20
117.432
 30
0.00000
  70
    32
  0
VERTEX
  8
0
  5
24A5
 10
161.291
 20
117.355
 30
0.00000
  70
    32
  0
VERTEX
  8
0
  5
24A6
 10
161.240
 20
117.277
 30
0.00000
  70
    32
  0
VERTEX
  8
0
  5
24A7
 10
161.190
 20
117.199
 30
0.00000
  70
    32
  0
VERTEX
  8
0
  5
24A8
 10
161.142
 20
117.120
 30
0.00000
  70
    32
  0
VERTEX
  8
0
  5
24A9
 10
161.095
 20
117.040
 30
0.00000
  70
    32
  0
VERTEX
  8
0
  5
24AA
 10
161.050
 20
116.960
 30
0.00000
  70
    32
  0
VERTEX
  8
0
  5
24AB
 10
161.007
 20
116.880
 30
0.00000
  70
    32
  0
VERTEX
  8
0
  5
24AC
 10
160.965
 20
116.799
 30
0.00000
  70
    32
  0
VERTEX
  8
0
  5
24AD
 10
160.925
 20
116.717
 30
0.00000
  70
    32
  0
VERTEX
  8
0
  5
24AE
 10
160.886
 20
116.636
 30
0.00000
  70
    32
  0
VERTEX
  8
0
  5
24AF
 10
160.850
 20
116.553
 30
0.00000
  70
    32
  0
VERTEX
  8
0
  5
24B0
 10
160.815
 20
116.471
 30
0.00000
  70
    32
  0
VERTEX
  8
0
  5
24B1
 10
160.781
 20
116.388
 30
0.00000
  70
    32
  0
VERTEX
  8
0
  5
24B2
 10
160.750
 20
116.304
 30
0.00000
  70
    32
  0
VERTEX
  8
0
  5
24B3
 10
160.720
 20
116.221
 30
0.00000
  70
    32
  0
VERTEX
  8
0
  5
24B4
 10
160.692
 20
116.137
 30
0.00000
  70
    32
  0
VERTEX
  8
0
  5
24B5
 10
160.665
 20
116.053
 30
0.00000
  70
    32
  0
VERTEX
  8
0
  5
24B6
 10
160.640
 20
115.968
 30
0.00000
  70
    32
  0
VERTEX
  8
0
  5
24B7
 10
160.617
 20
115.883
 30
0.00000
  70
    32
  0
VERTEX
  8
0
  5
24B8
 10
160.596
 20
115.798
 30
0.00000
  70
    32
  0
VERTEX
  8
0
  5
24B9
 10
160.576
 20
115.713
 30
0.00000
  70
    32
  0
VERTEX
  8
0
  5
24BA
 10
160.559
 20
115.627
 30
0.00000
  70
    32
  0
VERTEX
  8
0
  5
24BB
 10
160.543
 20
115.542
 30
0.00000
  70
    32
  0
VERTEX
  8
0
  5
24BC
 10
160.528
 20
115.456
 30
0.00000
  70
    32
  0
VERTEX
  8
0
  5
24BD
 10
160.516
 20
115.370
 30
0.00000
  70
    32
  0
VERTEX
  8
0
  5
24BE
 10
160.505
 20
115.284
 30
0.00000
  70
    32
  0
VERTEX
  8
0
  5
24BF
 10
160.496
 20
115.198
 30
0.00000
  70
    32
  0
VERTEX
  8
0
  5
24C0
 10
160.489
 20
115.111
 30
0.00000
  70
    32
  0
VERTEX
  8
0
  5
24C1
 10
160.483
 20
115.025
 30
0.00000
  70
    32
  0
VERTEX
  8
0
  5
24C2
 10
160.480
 20
114.939
 30
0.00000
  70
    32
  0
VERTEX
  8
0
  5
24C3
 10
160.478
 20
114.852
 30
0.00000
  70
    32
  0
VERTEX
  8
0
  5
24C4
 10
160.477
 20
114.766
 30
0.00000
  70
    32
  0
VERTEX
  8
0
  5
24C5
 10
160.479
 20
114.679
 30
0.00000
  70
    32
  0
VERTEX
  8
0
  5
24C6
 10
160.482
 20
114.593
 30
0.00000
  70
    32
  0
VERTEX
  8
0
  5
24C7
 10
160.488
 20
114.507
 30
0.00000
  70
    32
  0
VERTEX
  8
0
  5
24C8
 10
160.494
 20
114.420
 30
0.00000
  70
    32
  0
VERTEX
  8
0
  5
24C9
 10
160.503
 20
114.334
 30
0.00000
  70
    32
  0
VERTEX
  8
0
  5
24CA
 10
160.514
 20
114.248
 30
0.00000
  70
    32
  0
VERTEX
  8
0
  5
24CB
 10
160.526
 20
114.162
 30
0.00000
  70
    32
  0
VERTEX
  8
0
  5
24CC
 10
160.540
 20
114.076
 30
0.00000
  70
    32
  0
VERTEX
  8
0
  5
24CD
 10
160.555
 20
113.990
 30
0.00000
  70
    32
  0
VERTEX
  8
0
  5
24CE
 10
160.573
 20
113.905
 30
0.00000
  70
    32
  0
VERTEX
  8
0
  5
24CF
 10
160.592
 20
113.820
 30
0.00000
  70
    32
  0
VERTEX
  8
0
  5
24D0
 10
160.613
 20
113.735
 30
0.00000
  70
    32
  0
VERTEX
  8
0
  5
24D1
 10
160.636
 20
113.650
 30
0.00000
  70
    32
  0
VERTEX
  8
0
  5
24D2
 10
160.660
 20
113.565
 30
0.00000
  70
    32
  0
VERTEX
  8
0
  5
24D3
 10
160.686
 20
113.481
 30
0.00000
  70
    32
  0
VERTEX
  8
0
  5
24D4
 10
160.714
 20
113.397
 30
0.00000
  70
    32
  0
VERTEX
  8
0
  5
24D5
 10
160.744
 20
113.313
 30
0.00000
  70
    32
  0
VERTEX
  8
0
  5
24D6
 10
160.775
 20
113.230
 30
0.00000
  70
    32
  0
VERTEX
  8
0
  5
24D7
 10
160.808
 20
113.147
 30
0.00000
  70
    32
  0
VERTEX
  8
0
  5
24D8
 10
160.843
 20
113.064
 30
0.00000
  70
    32
  0
VERTEX
  8
0
  5
24D9
 10
160.879
 20
112.982
 30
0.00000
  70
    32
  0
VERTEX
  8
0
  5
24DA
 10
160.917
 20
112.900
 30
0.00000
  70
    32
  0
VERTEX
  8
0
  5
24DB
 10
160.957
 20
112.818
 30
0.00000
  70
    32
  0
VERTEX
  8
0
  5
24DC
 10
160.998
 20
112.737
 30
0.00000
  70
    32
  0
VERTEX
  8
0
  5
24DD
 10
161.041
 20
112.657
 30
0.00000
  70
    32
  0
VERTEX
  8
0
  5
24DE
 10
161.086
 20
112.577
 30
0.00000
  70
    32
  0
VERTEX
  8
0
  5
24DF
 10
161.133
 20
112.497
 30
0.00000
  70
    32
  0
VERTEX
  8
0
  5
24E0
 10
161.180
 20
112.418
 30
0.00000
  70
    32
  0
VERTEX
  8
0
  5
24E1
 10
161.230
 20
112.339
 30
0.00000
  70
    32
  0
VERTEX
  8
0
  5
24E2
 10
161.281
 20
112.261
 30
0.00000
  70
    32
  0
VERTEX
  8
0
  5
24E3
 10
161.334
 20
112.184
 30
0.00000
  70
    32
  0
VERTEX
  8
0
  5
24E4
 10
161.388
 20
112.107
 30
0.00000
  70
    32
  0
VERTEX
  8
0
  5
24E5
 10
161.444
 20
112.031
 30
0.00000
  70
    32
  0
VERTEX
  8
0
  5
24E6
 10
161.502
 20
111.955
 30
0.00000
  70
    32
  0
VERTEX
  8
0
  5
24E7
 10
161.561
 20
111.880
 30
0.00000
  70
    32
  0
VERTEX
  8
0
  5
24E8
 10
161.621
 20
111.805
 30
0.00000
  70
    32
  0
VERTEX
  8
0
  5
24E9
 10
161.683
 20
111.732
 30
0.00000
  70
    32
  0
VERTEX
  8
0
  5
24EA
 10
161.747
 20
111.659
 30
0.00000
  70
    32
  0
VERTEX
  8
0
  5
24EB
 10
161.812
 20
111.586
 30
0.00000
  70
    32
  0
VERTEX
  8
0
  5
24EC
 10
161.879
 20
111.515
 30
0.00000
  70
    32
  0
VERTEX
  8
0
  5
24ED
 10
161.947
 20
111.444
 30
0.00000
  70
    32
  0
VERTEX
  8
0
  5
24EE
 10
162.016
 20
111.373
 30
0.00000
  70
    32
  0
VERTEX
  8
0
  5
24EF
 10
162.087
 20
111.304
 30
0.00000
  70
    32
  0
VERTEX
  8
0
  5
24F0
 10
162.159
 20
111.235
 30
0.00000
  70
    32
  0
VERTEX
  8
0
  5
24F1
 10
162.233
 20
111.167
 30
0.00000
  70
    32
  0
VERTEX
  8
0
  5
24F2
 10
162.308
 20
111.100
 30
0.00000
  70
    32
  0
VERTEX
  8
0
  5
24F3
 10
162.384
 20
111.034
 30
0.00000
  70
    32
  0
VERTEX
  8
0
  5
24F4
 10
162.462
 20
110.969
 30
0.00000
  70
    32
  0
VERTEX
  8
0
  5
24F5
 10
162.541
 20
110.904
 30
0.00000
  70
    32
  0
VERTEX
  8
0
  5
24F6
 10
162.622
 20
110.840
 30
0.00000
  70
    32
  0
VERTEX
  8
0
  5
24F7
 10
162.703
 20
110.778
 30
0.00000
  70
    32
  0
VERTEX
  8
0
  5
24F8
 10
162.786
 20
110.716
 30
0.00000
  70
    32
  0
VERTEX
  8
0
  5
24F9
 10
162.870
 20
110.655
 30
0.00000
  70
    32
  0
VERTEX
  8
0
  5
24FA
 10
162.956
 20
110.595
 30
0.00000
  70
    32
  0
VERTEX
  8
0
  5
24FB
 10
163.043
 20
110.535
 30
0.00000
  70
    32
  0
VERTEX
  8
0
  5
24FC
 10
163.131
 20
110.477
 30
0.00000
  70
    32
  0
VERTEX
  8
0
  5
24FD
 10
163.220
 20
110.420
 30
0.00000
  70
    32
  0
VERTEX
  8
0
  5
24FE
 10
163.310
 20
110.363
 30
0.00000
  70
    32
  0
VERTEX
  8
0
  5
24FF
 10
163.401
 20
110.308
 30
0.00000
  70
    32
  0
VERTEX
  8
0
  5
2500
 10
163.494
 20
110.254
 30
0.00000
  70
    32
  0
VERTEX
  8
0
  5
2501
 10
163.587
 20
110.200
 30
0.00000
  70
    32
  0
VERTEX
  8
0
  5
2502
 10
163.682
 20
110.148
 30
0.00000
  70
    32
  0
VERTEX
  8
0
  5
2503
 10
163.778
 20
110.097
 30
0.00000
  70
    32
  0
VERTEX
  8
0
  5
2504
 10
163.875
 20
110.047
 30
0.00000
  70
    32
  0
VERTEX
  8
0
  5
2505
 10
163.973
 20
109.997
 30
0.00000
  70
    32
  0
VERTEX
  8
0
  5
2506
 10
164.071
 20
109.949
 30
0.00000
  70
    32
  0
VERTEX
  8
0
  5
2507
 10
164.171
 20
109.902
 30
0.00000
  70
    32
  0
VERTEX
  8
0
  5
2508
 10
164.272
 20
109.856
 30
0.00000
  70
    32
  0
VERTEX
  8
0
  5
2509
 10
164.374
 20
109.811
 30
0.00000
  70
    32
  0
VERTEX
  8
0
  5
250A
 10
164.476
 20
109.767
 30
0.00000
  70
    32
  0
VERTEX
  8
0
  5
250B
 10
164.580
 20
109.725
 30
0.00000
  70
    32
  0
VERTEX
  8
0
  5
250C
 10
164.684
 20
109.683
 30
0.00000
  70
    32
  0
VERTEX
  8
0
  5
250D
 10
164.789
 20
109.643
 30
0.00000
  70
    32
  0
VERTEX
  8
0
  5
250E
 10
164.895
 20
109.604
 30
0.00000
  70
    32
  0
VERTEX
  8
0
  5
250F
 10
165.002
 20
109.565
 30
0.00000
  70
    32
  0
VERTEX
  8
0
  5
2510
 10
165.109
 20
109.528
 30
0.00000
  70
    32
  0
VERTEX
  8
0
  5
2511
 10
165.218
 20
109.493
 30
0.00000
  70
    32
  0
VERTEX
  8
0
  5
2512
 10
165.327
 20
109.458
 30
0.00000
  70
    32
  0
VERTEX
  8
0
  5
2513
 10
165.436
 20
109.425
 30
0.00000
  70
    32
  0
SEQEND
  8
0
  5
2514
  0
ARC
  5
1F21
  8
0
 10
168.5486498593722899
 20
111.9130140229355987
 30
0.0
 40
3.8744029790963239
 50
273.2768479004914184
 51
320.0381846030994097
  0
ARC
  5
1F22
  8
0
 10
168.4460164104534101
 20
111.9761251489324962
 30
0.0
 40
3.9456796492413391
 50
220.2909711830533013
 51
274.0513794099738902
  0
POLYLINE
  5
1F23
  8
0
 10
171.5182737987565815
 20
109.4245743085210023
 30
0.0
 66
     1
 70
     8
  0
VERTEX
  8
0
  5
2515
 10
171.518
 20
109.425
 30
0.00000
  70
    32
  0
VERTEX
  8
0
  5
2516
 10
171.628
 20
109.458
 30
0.00000
  70
    32
  0
VERTEX
  8
0
  5
2517
 10
171.737
 20
109.493
 30
0.00000
  70
    32
  0
VERTEX
  8
0
  5
2518
 10
171.845
 20
109.528
 30
0.00000
  70
    32
  0
VERTEX
  8
0
  5
2519
 10
171.953
 20
109.565
 30
0.00000
  70
    32
  0
VERTEX
  8
0
  5
251A
 10
172.060
 20
109.604
 30
0.00000
  70
    32
  0
VERTEX
  8
0
  5
251B
 10
172.166
 20
109.643
 30
0.00000
  70
    32
  0
VERTEX
  8
0
  5
251C
 10
172.271
 20
109.683
 30
0.00000
  70
    32
  0
VERTEX
  8
0
  5
251D
 10
172.375
 20
109.725
 30
0.00000
  70
    32
  0
VERTEX
  8
0
  5
251E
 10
172.479
 20
109.767
 30
0.00000
  70
    32
  0
VERTEX
  8
0
  5
251F
 10
172.581
 20
109.811
 30
0.00000
  70
    32
  0
VERTEX
  8
0
  5
2520
 10
172.683
 20
109.856
 30
0.00000
  70
    32
  0
VERTEX
  8
0
  5
2521
 10
172.784
 20
109.902
 30
0.00000
  70
    32
  0
VERTEX
  8
0
  5
2522
 10
172.883
 20
109.949
 30
0.00000
  70
    32
  0
VERTEX
  8
0
  5
2523
 10
172.982
 20
109.997
 30
0.00000
  70
    32
  0
VERTEX
  8
0
  5
2524
 10
173.080
 20
110.047
 30
0.00000
  70
    32
  0
VERTEX
  8
0
  5
2525
 10
173.177
 20
110.097
 30
0.00000
  70
    32
  0
VERTEX
  8
0
  5
2526
 10
173.272
 20
110.148
 30
0.00000
  70
    32
  0
VERTEX
  8
0
  5
2527
 10
173.367
 20
110.200
 30
0.00000
  70
    32
  0
VERTEX
  8
0
  5
2528
 10
173.461
 20
110.254
 30
0.00000
  70
    32
  0
VERTEX
  8
0
  5
2529
 10
173.553
 20
110.308
 30
0.00000
  70
    32
  0
VERTEX
  8
0
  5
252A
 10
173.645
 20
110.363
 30
0.00000
  70
    32
  0
VERTEX
  8
0
  5
252B
 10
173.735
 20
110.420
 30
0.00000
  70
    32
  0
VERTEX
  8
0
  5
252C
 10
173.824
 20
110.477
 30
0.00000
  70
    32
  0
VERTEX
  8
0
  5
252D
 10
173.912
 20
110.535
 30
0.00000
  70
    32
  0
VERTEX
  8
0
  5
252E
 10
173.999
 20
110.595
 30
0.00000
  70
    32
  0
VERTEX
  8
0
  5
252F
 10
174.084
 20
110.655
 30
0.00000
  70
    32
  0
VERTEX
  8
0
  5
2530
 10
174.168
 20
110.716
 30
0.00000
  70
    32
  0
VERTEX
  8
0
  5
2531
 10
174.251
 20
110.778
 30
0.00000
  70
    32
  0
VERTEX
  8
0
  5
2532
 10
174.333
 20
110.840
 30
0.00000
  70
    32
  0
VERTEX
  8
0
  5
2533
 10
174.414
 20
110.904
 30
0.00000
  70
    32
  0
VERTEX
  8
0
  5
2534
 10
174.493
 20
110.969
 30
0.00000
  70
    32
  0
VERTEX
  8
0
  5
2535
 10
174.570
 20
111.034
 30
0.00000
  70
    32
  0
VERTEX
  8
0
  5
2536
 10
174.647
 20
111.100
 30
0.00000
  70
    32
  0
VERTEX
  8
0
  5
2537
 10
174.722
 20
111.167
 30
0.00000
  70
    32
  0
VERTEX
  8
0
  5
2538
 10
174.796
 20
111.235
 30
0.00000
  70
    32
  0
VERTEX
  8
0
  5
2539
 10
174.868
 20
111.304
 30
0.00000
  70
    32
  0
VERTEX
  8
0
  5
253A
 10
174.939
 20
111.373
 30
0.00000
  70
    32
  0
VERTEX
  8
0
  5
253B
 10
175.008
 20
111.444
 30
0.00000
  70
    32
  0
VERTEX
  8
0
  5
253C
 10
175.076
 20
111.515
 30
0.00000
  70
    32
  0
VERTEX
  8
0
  5
253D
 10
175.143
 20
111.586
 30
0.00000
  70
    32
  0
VERTEX
  8
0
  5
253E
 10
175.208
 20
111.659
 30
0.00000
  70
    32
  0
VERTEX
  8
0
  5
253F
 10
175.271
 20
111.732
 30
0.00000
  70
    32
  0
VERTEX
  8
0
  5
2540
 10
175.333
 20
111.805
 30
0.00000
  70
    32
  0
VERTEX
  8
0
  5
2541
 10
175.394
 20
111.880
 30
0.00000
  70
    32
  0
VERTEX
  8
0
  5
2542
 10
175.453
 20
111.955
 30
0.00000
  70
    32
  0
VERTEX
  8
0
  5
2543
 10
175.510
 20
112.031
 30
0.00000
  70
    32
  0
VERTEX
  8
0
  5
2544
 10
175.566
 20
112.107
 30
0.00000
  70
    32
  0
VERTEX
  8
0
  5
2545
 10
175.621
 20
112.184
 30
0.00000
  70
    32
  0
VERTEX
  8
0
  5
2546
 10
175.673
 20
112.261
 30
0.00000
  70
    32
  0
VERTEX
  8
0
  5
2547
 10
175.725
 20
112.339
 30
0.00000
  70
    32
  0
VERTEX
  8
0
  5
2548
 10
175.774
 20
112.418
 30
0.00000
  70
    32
  0
VERTEX
  8
0
  5
2549
 10
175.822
 20
112.497
 30
0.00000
  70
    32
  0
VERTEX
  8
0
  5
254A
 10
175.868
 20
112.577
 30
0.00000
  70
    32
  0
VERTEX
  8
0
  5
254B
 10
175.913
 20
112.657
 30
0.00000
  70
    32
  0
VERTEX
  8
0
  5
254C
 10
175.956
 20
112.737
 30
0.00000
  70
    32
  0
VERTEX
  8
0
  5
254D
 10
175.998
 20
112.818
 30
0.00000
  70
    32
  0
VERTEX
  8
0
  5
254E
 10
176.037
 20
112.900
 30
0.00000
  70
    32
  0
VERTEX
  8
0
  5
254F
 10
176.075
 20
112.982
 30
0.00000
  70
    32
  0
VERTEX
  8
0
  5
2550
 10
176.112
 20
113.064
 30
0.00000
  70
    32
  0
VERTEX
  8
0
  5
2551
 10
176.147
 20
113.147
 30
0.00000
  70
    32
  0
VERTEX
  8
0
  5
2552
 10
176.180
 20
113.230
 30
0.00000
  70
    32
  0
VERTEX
  8
0
  5
2553
 10
176.211
 20
113.313
 30
0.00000
  70
    32
  0
VERTEX
  8
0
  5
2554
 10
176.240
 20
113.397
 30
0.00000
  70
    32
  0
VERTEX
  8
0
  5
2555
 10
176.268
 20
113.481
 30
0.00000
  70
    32
  0
VERTEX
  8
0
  5
2556
 10
176.295
 20
113.565
 30
0.00000
  70
    32
  0
VERTEX
  8
0
  5
2557
 10
176.319
 20
113.650
 30
0.00000
  70
    32
  0
VERTEX
  8
0
  5
2558
 10
176.342
 20
113.735
 30
0.00000
  70
    32
  0
VERTEX
  8
0
  5
2559
 10
176.363
 20
113.820
 30
0.00000
  70
    32
  0
VERTEX
  8
0
  5
255A
 10
176.382
 20
113.905
 30
0.00000
  70
    32
  0
VERTEX
  8
0
  5
255B
 10
176.399
 20
113.990
 30
0.00000
  70
    32
  0
VERTEX
  8
0
  5
255C
 10
176.415
 20
114.076
 30
0.00000
  70
    32
  0
VERTEX
  8
0
  5
255D
 10
176.429
 20
114.162
 30
0.00000
  70
    32
  0
VERTEX
  8
0
  5
255E
 10
176.441
 20
114.248
 30
0.00000
  70
    32
  0
VERTEX
  8
0
  5
255F
 10
176.452
 20
114.334
 30
0.00000
  70
    32
  0
VERTEX
  8
0
  5
2560
 10
176.460
 20
114.420
 30
0.00000
  70
    32
  0
VERTEX
  8
0
  5
2561
 10
176.467
 20
114.507
 30
0.00000
  70
    32
  0
VERTEX
  8
0
  5
2562
 10
176.472
 20
114.593
 30
0.00000
  70
    32
  0
VERTEX
  8
0
  5
2563
 10
176.476
 20
114.679
 30
0.00000
  70
    32
  0
VERTEX
  8
0
  5
2564
 10
176.477
 20
114.766
 30
0.00000
  70
    32
  0
VERTEX
  8
0
  5
2565
 10
176.477
 20
114.852
 30
0.00000
  70
    32
  0
VERTEX
  8
0
  5
2566
 10
176.475
 20
114.939
 30
0.00000
  70
    32
  0
VERTEX
  8
0
  5
2567
 10
176.471
 20
115.025
 30
0.00000
  70
    32
  0
VERTEX
  8
0
  5
2568
 10
176.466
 20
115.111
 30
0.00000
  70
    32
  0
VERTEX
  8
0
  5
2569
 10
176.459
 20
115.198
 30
0.00000
  70
    32
  0
VERTEX
  8
0
  5
256A
 10
176.450
 20
115.284
 30
0.00000
  70
    32
  0
VERTEX
  8
0
  5
256B
 10
176.439
 20
115.370
 30
0.00000
  70
    32
  0
VERTEX
  8
0
  5
256C
 10
176.426
 20
115.456
 30
0.00000
  70
    32
  0
VERTEX
  8
0
  5
256D
 10
176.412
 20
115.542
 30
0.00000
  70
    32
  0
VERTEX
  8
0
  5
256E
 10
176.396
 20
115.627
 30
0.00000
  70
    32
  0
VERTEX
  8
0
  5
256F
 10
176.378
 20
115.713
 30
0.00000
  70
    32
  0
VERTEX
  8
0
  5
2570
 10
176.359
 20
115.798
 30
0.00000
  70
    32
  0
VERTEX
  8
0
  5
2571
 10
176.337
 20
115.883
 30
0.00000
  70
    32
  0
VERTEX
  8
0
  5
2572
 10
176.314
 20
115.968
 30
0.00000
  70
    32
  0
VERTEX
  8
0
  5
2573
 10
176.290
 20
116.053
 30
0.00000
  70
    32
  0
VERTEX
  8
0
  5
2574
 10
176.263
 20
116.137
 30
0.00000
  70
    32
  0
VERTEX
  8
0
  5
2575
 10
176.235
 20
116.221
 30
0.00000
  70
    32
  0
VERTEX
  8
0
  5
2576
 10
176.205
 20
116.304
 30
0.00000
  70
    32
  0
VERTEX
  8
0
  5
2577
 10
176.173
 20
116.388
 30
0.00000
  70
    32
  0
VERTEX
  8
0
  5
2578
 10
176.140
 20
116.471
 30
0.00000
  70
    32
  0
VERTEX
  8
0
  5
2579
 10
176.105
 20
116.553
 30
0.00000
  70
    32
  0
VERTEX
  8
0
  5
257A
 10
176.068
 20
116.636
 30
0.00000
  70
    32
  0
VERTEX
  8
0
  5
257B
 10
176.030
 20
116.717
 30
0.00000
  70
    32
  0
VERTEX
  8
0
  5
257C
 10
175.990
 20
116.799
 30
0.00000
  70
    32
  0
VERTEX
  8
0
  5
257D
 10
175.948
 20
116.880
 30
0.00000
  70
    32
  0
VERTEX
  8
0
  5
257E
 10
175.905
 20
116.960
 30
0.00000
  70
    32
  0
VERTEX
  8
0
  5
257F
 10
175.860
 20
117.040
 30
0.00000
  70
    32
  0
VERTEX
  8
0
  5
2580
 10
175.813
 20
117.120
 30
0.00000
  70
    32
  0
VERTEX
  8
0
  5
2581
 10
175.765
 20
117.199
 30
0.00000
  70
    32
  0
VERTEX
  8
0
  5
2582
 10
175.715
 20
117.277
 30
0.00000
  70
    32
  0
VERTEX
  8
0
  5
2583
 10
175.663
 20
117.355
 30
0.00000
  70
    32
  0
VERTEX
  8
0
  5
2584
 10
175.610
 20
117.432
 30
0.00000
  70
    32
  0
VERTEX
  8
0
  5
2585
 10
175.556
 20
117.509
 30
0.00000
  70
    32
  0
VERTEX
  8
0
  5
2586
 10
175.499
 20
117.585
 30
0.00000
  70
    32
  0
VERTEX
  8
0
  5
2587
 10
175.442
 20
117.661
 30
0.00000
  70
    32
  0
VERTEX
  8
0
  5
2588
 10
175.382
 20
117.736
 30
0.00000
  70
    32
  0
VERTEX
  8
0
  5
2589
 10
175.321
 20
117.810
 30
0.00000
  70
    32
  0
VERTEX
  8
0
  5
258A
 10
175.259
 20
117.884
 30
0.00000
  70
    32
  0
VERTEX
  8
0
  5
258B
 10
175.195
 20
117.957
 30
0.00000
  70
    32
  0
VERTEX
  8
0
  5
258C
 10
175.130
 20
118.029
 30
0.00000
  70
    32
  0
VERTEX
  8
0
  5
258D
 10
175.063
 20
118.101
 30
0.00000
  70
    32
  0
VERTEX
  8
0
  5
258E
 10
174.995
 20
118.171
 30
0.00000
  70
    32
  0
VERTEX
  8
0
  5
258F
 10
174.925
 20
118.241
 30
0.00000
  70
    32
  0
VERTEX
  8
0
  5
2590
 10
174.854
 20
118.311
 30
0.00000
  70
    32
  0
VERTEX
  8
0
  5
2591
 10
174.781
 20
118.379
 30
0.00000
  70
    32
  0
VERTEX
  8
0
  5
2592
 10
174.707
 20
118.447
 30
0.00000
  70
    32
  0
VERTEX
  8
0
  5
2593
 10
174.632
 20
118.514
 30
0.00000
  70
    32
  0
VERTEX
  8
0
  5
2594
 10
174.555
 20
118.580
 30
0.00000
  70
    32
  0
VERTEX
  8
0
  5
2595
 10
174.477
 20
118.645
 30
0.00000
  70
    32
  0
SEQEND
  8
0
  5
2596
  0
POLYLINE
  5
1F24
  8
0
 10
162.4773215042226866
 20
116.6169825010724139
 30
0.0
 66
     1
 70
     8
  0
VERTEX
  8
0
  5
2597
 10
162.477
 20
116.617
 30
0.00000
  70
    32
  0
VERTEX
  8
0
  5
2598
 10
162.452
 20
116.572
 30
0.00000
  70
    32
  0
VERTEX
  8
0
  5
2599
 10
162.427
 20
116.526
 30
0.00000
  70
    32
  0
VERTEX
  8
0
  5
259A
 10
162.402
 20
116.480
 30
0.00000
  70
    32
  0
VERTEX
  8
0
  5
259B
 10
162.379
 20
116.435
 30
0.00000
  70
    32
  0
VERTEX
  8
0
  5
259C
 10
162.356
 20
116.388
 30
0.00000
  70
    32
  0
VERTEX
  8
0
  5
259D
 10
162.333
 20
116.342
 30
0.00000
  70
    32
  0
VERTEX
  8
0
  5
259E
 10
162.312
 20
116.296
 30
0.00000
  70
    32
  0
VERTEX
  8
0
  5
259F
 10
162.291
 20
116.249
 30
0.00000
  70
    32
  0
VERTEX
  8
0
  5
25A0
 10
162.270
 20
116.203
 30
0.00000
  70
    32
  0
VERTEX
  8
0
  5
25A1
 10
162.251
 20
116.156
 30
0.00000
  70
    32
  0
VERTEX
  8
0
  5
25A2
 10
162.232
 20
116.109
 30
0.00000
  70
    32
  0
VERTEX
  8
0
  5
25A3
 10
162.213
 20
116.062
 30
0.00000
  70
    32
  0
VERTEX
  8
0
  5
25A4
 10
162.196
 20
116.014
 30
0.00000
  70
    32
  0
VERTEX
  8
0
  5
25A5
 10
162.179
 20
115.967
 30
0.00000
  70
    32
  0
VERTEX
  8
0
  5
25A6
 10
162.162
 20
115.919
 30
0.00000
  70
    32
  0
VERTEX
  8
0
  5
25A7
 10
162.147
 20
115.872
 30
0.00000
  70
    32
  0
VERTEX
  8
0
  5
25A8
 10
162.132
 20
115.824
 30
0.00000
  70
    32
  0
VERTEX
  8
0
  5
25A9
 10
162.117
 20
115.776
 30
0.00000
  70
    32
  0
VERTEX
  8
0
  5
25AA
 10
162.104
 20
115.728
 30
0.00000
  70
    32
  0
VERTEX
  8
0
  5
25AB
 10
162.091
 20
115.680
 30
0.00000
  70
    32
  0
VERTEX
  8
0
  5
25AC
 10
162.079
 20
115.632
 30
0.00000
  70
    32
  0
VERTEX
  8
0
  5
25AD
 10
162.067
 20
115.583
 30
0.00000
  70
    32
  0
VERTEX
  8
0
  5
25AE
 10
162.056
 20
115.535
 30
0.00000
  70
    32
  0
VERTEX
  8
0
  5
25AF
 10
162.046
 20
115.487
 30
0.00000
  70
    32
  0
VERTEX
  8
0
  5
25B0
 10
162.037
 20
115.438
 30
0.00000
  70
    32
  0
VERTEX
  8
0
  5
25B1
 10
162.028
 20
115.389
 30
0.00000
  70
    32
  0
VERTEX
  8
0
  5
25B2
 10
162.020
 20
115.341
 30
0.00000
  70
    32
  0
VERTEX
  8
0
  5
25B3
 10
162.013
 20
115.292
 30
0.00000
  70
    32
  0
VERTEX
  8
0
  5
25B4
 10
162.006
 20
115.243
 30
0.00000
  70
    32
  0
VERTEX
  8
0
  5
25B5
 10
162.000
 20
115.195
 30
0.00000
  70
    32
  0
VERTEX
  8
0
  5
25B6
 10
161.995
 20
115.146
 30
0.00000
  70
    32
  0
VERTEX
  8
0
  5
25B7
 10
161.990
 20
115.097
 30
0.00000
  70
    32
  0
VERTEX
  8
0
  5
25B8
 10
161.986
 20
115.048
 30
0.00000
  70
    32
  0
VERTEX
  8
0
  5
25B9
 10
161.983
 20
114.999
 30
0.00000
  70
    32
  0
VERTEX
  8
0
  5
25BA
 10
161.981
 20
114.950
 30
0.00000
  70
    32
  0
VERTEX
  8
0
  5
25BB
 10
161.979
 20
114.901
 30
0.00000
  70
    32
  0
VERTEX
  8
0
  5
25BC
 10
161.978
 20
114.852
 30
0.00000
  70
    32
  0
VERTEX
  8
0
  5
25BD
 10
161.977
 20
114.803
 30
0.00000
  70
    32
  0
VERTEX
  8
0
  5
25BE
 10
161.978
 20
114.754
 30
0.00000
  70
    32
  0
VERTEX
  8
0
  5
25BF
 10
161.979
 20
114.705
 30
0.00000
  70
    32
  0
VERTEX
  8
0
  5
25C0
 10
161.980
 20
114.656
 30
0.00000
  70
    32
  0
VERTEX
  8
0
  5
25C1
 10
161.983
 20
114.607
 30
0.00000
  70
    32
  0
VERTEX
  8
0
  5
25C2
 10
161.986
 20
114.558
 30
0.00000
  70
    32
  0
VERTEX
  8
0
  5
25C3
 10
161.990
 20
114.509
 30
0.00000
  70
    32
  0
VERTEX
  8
0
  5
25C4
 10
161.994
 20
114.460
 30
0.00000
  70
    32
  0
VERTEX
  8
0
  5
25C5
 10
161.999
 20
114.411
 30
0.00000
  70
    32
  0
VERTEX
  8
0
  5
25C6
 10
162.005
 20
114.363
 30
0.00000
  70
    32
  0
VERTEX
  8
0
  5
25C7
 10
162.012
 20
114.314
 30
0.00000
  70
    32
  0
VERTEX
  8
0
  5
25C8
 10
162.019
 20
114.265
 30
0.00000
  70
    32
  0
VERTEX
  8
0
  5
25C9
 10
162.027
 20
114.216
 30
0.00000
  70
    32
  0
VERTEX
  8
0
  5
25CA
 10
162.036
 20
114.168
 30
0.00000
  70
    32
  0
VERTEX
  8
0
  5
25CB
 10
162.045
 20
114.119
 30
0.00000
  70
    32
  0
VERTEX
  8
0
  5
25CC
 10
162.055
 20
114.071
 30
0.00000
  70
    32
  0
VERTEX
  8
0
  5
25CD
 10
162.066
 20
114.023
 30
0.00000
  70
    32
  0
VERTEX
  8
0
  5
25CE
 10
162.078
 20
113.974
 30
0.00000
  70
    32
  0
VERTEX
  8
0
  5
25CF
 10
162.090
 20
113.926
 30
0.00000
  70
    32
  0
VERTEX
  8
0
  5
25D0
 10
162.103
 20
113.878
 30
0.00000
  70
    32
  0
VERTEX
  8
0
  5
25D1
 10
162.116
 20
113.830
 30
0.00000
  70
    32
  0
VERTEX
  8
0
  5
25D2
 10
162.130
 20
113.782
 30
0.00000
  70
    32
  0
VERTEX
  8
0
  5
25D3
 10
162.145
 20
113.734
 30
0.00000
  70
    32
  0
VERTEX
  8
0
  5
25D4
 10
162.161
 20
113.687
 30
0.00000
  70
    32
  0
VERTEX
  8
0
  5
25D5
 10
162.177
 20
113.639
 30
0.00000
  70
    32
  0
VERTEX
  8
0
  5
25D6
 10
162.194
 20
113.592
 30
0.00000
  70
    32
  0
VERTEX
  8
0
  5
25D7
 10
162.212
 20
113.544
 30
0.00000
  70
    32
  0
VERTEX
  8
0
  5
25D8
 10
162.230
 20
113.497
 30
0.00000
  70
    32
  0
VERTEX
  8
0
  5
25D9
 10
162.249
 20
113.450
 30
0.00000
  70
    32
  0
VERTEX
  8
0
  5
25DA
 10
162.268
 20
113.403
 30
0.00000
  70
    32
  0
VERTEX
  8
0
  5
25DB
 10
162.289
 20
113.356
 30
0.00000
  70
    32
  0
VERTEX
  8
0
  5
25DC
 10
162.310
 20
113.310
 30
0.00000
  70
    32
  0
VERTEX
  8
0
  5
25DD
 10
162.331
 20
113.263
 30
0.00000
  70
    32
  0
VERTEX
  8
0
  5
25DE
 10
162.354
 20
113.217
 30
0.00000
  70
    32
  0
VERTEX
  8
0
  5
25DF
 10
162.377
 20
113.171
 30
0.00000
  70
    32
  0
VERTEX
  8
0
  5
25E0
 10
162.400
 20
113.125
 30
0.00000
  70
    32
  0
VERTEX
  8
0
  5
25E1
 10
162.424
 20
113.079
 30
0.00000
  70
    32
  0
VERTEX
  8
0
  5
25E2
 10
162.449
 20
113.034
 30
0.00000
  70
    32
  0
VERTEX
  8
0
  5
25E3
 10
162.475
 20
112.989
 30
0.00000
  70
    32
  0
VERTEX
  8
0
  5
25E4
 10
162.501
 20
112.943
 30
0.00000
  70
    32
  0
VERTEX
  8
0
  5
25E5
 10
162.528
 20
112.898
 30
0.00000
  70
    32
  0
VERTEX
  8
0
  5
25E6
 10
162.555
 20
112.854
 30
0.00000
  70
    32
  0
VERTEX
  8
0
  5
25E7
 10
162.584
 20
112.809
 30
0.00000
  70
    32
  0
VERTEX
  8
0
  5
25E8
 10
162.612
 20
112.765
 30
0.00000
  70
    32
  0
VERTEX
  8
0
  5
25E9
 10
162.642
 20
112.721
 30
0.00000
  70
    32
  0
VERTEX
  8
0
  5
25EA
 10
162.672
 20
112.677
 30
0.00000
  70
    32
  0
VERTEX
  8
0
  5
25EB
 10
162.702
 20
112.633
 30
0.00000
  70
    32
  0
VERTEX
  8
0
  5
25EC
 10
162.734
 20
112.590
 30
0.00000
  70
    32
  0
VERTEX
  8
0
  5
25ED
 10
162.765
 20
112.547
 30
0.00000
  70
    32
  0
VERTEX
  8
0
  5
25EE
 10
162.798
 20
112.504
 30
0.00000
  70
    32
  0
VERTEX
  8
0
  5
25EF
 10
162.831
 20
112.461
 30
0.00000
  70
    32
  0
VERTEX
  8
0
  5
25F0
 10
162.865
 20
112.419
 30
0.00000
  70
    32
  0
VERTEX
  8
0
  5
25F1
 10
162.899
 20
112.376
 30
0.00000
  70
    32
  0
VERTEX
  8
0
  5
25F2
 10
162.934
 20
112.334
 30
0.00000
  70
    32
  0
VERTEX
  8
0
  5
25F3
 10
162.970
 20
112.293
 30
0.00000
  70
    32
  0
VERTEX
  8
0
  5
25F4
 10
163.006
 20
112.251
 30
0.00000
  70
    32
  0
VERTEX
  8
0
  5
25F5
 10
163.042
 20
112.210
 30
0.00000
  70
    32
  0
VERTEX
  8
0
  5
25F6
 10
163.080
 20
112.169
 30
0.00000
  70
    32
  0
VERTEX
  8
0
  5
25F7
 10
163.118
 20
112.129
 30
0.00000
  70
    32
  0
VERTEX
  8
0
  5
25F8
 10
163.156
 20
112.089
 30
0.00000
  70
    32
  0
VERTEX
  8
0
  5
25F9
 10
163.195
 20
112.049
 30
0.00000
  70
    32
  0
VERTEX
  8
0
  5
25FA
 10
163.235
 20
112.009
 30
0.00000
  70
    32
  0
VERTEX
  8
0
  5
25FB
 10
163.275
 20
111.970
 30
0.00000
  70
    32
  0
VERTEX
  8
0
  5
25FC
 10
163.315
 20
111.931
 30
0.00000
  70
    32
  0
VERTEX
  8
0
  5
25FD
 10
163.357
 20
111.892
 30
0.00000
  70
    32
  0
VERTEX
  8
0
  5
25FE
 10
163.398
 20
111.853
 30
0.00000
  70
    32
  0
VERTEX
  8
0
  5
25FF
 10
163.441
 20
111.815
 30
0.00000
  70
    32
  0
VERTEX
  8
0
  5
2600
 10
163.484
 20
111.777
 30
0.00000
  70
    32
  0
VERTEX
  8
0
  5
2601
 10
163.527
 20
111.740
 30
0.00000
  70
    32
  0
VERTEX
  8
0
  5
2602
 10
163.571
 20
111.703
 30
0.00000
  70
    32
  0
VERTEX
  8
0
  5
2603
 10
163.616
 20
111.666
 30
0.00000
  70
    32
  0
VERTEX
  8
0
  5
2604
 10
163.661
 20
111.630
 30
0.00000
  70
    32
  0
VERTEX
  8
0
  5
2605
 10
163.706
 20
111.593
 30
0.00000
  70
    32
  0
VERTEX
  8
0
  5
2606
 10
163.752
 20
111.558
 30
0.00000
  70
    32
  0
VERTEX
  8
0
  5
2607
 10
163.799
 20
111.522
 30
0.00000
  70
    32
  0
VERTEX
  8
0
  5
2608
 10
163.846
 20
111.487
 30
0.00000
  70
    32
  0
VERTEX
  8
0
  5
2609
 10
163.894
 20
111.452
 30
0.00000
  70
    32
  0
VERTEX
  8
0
  5
260A
 10
163.942
 20
111.418
 30
0.00000
  70
    32
  0
VERTEX
  8
0
  5
260B
 10
163.990
 20
111.384
 30
0.00000
  70
    32
  0
VERTEX
  8
0
  5
260C
 10
164.039
 20
111.350
 30
0.00000
  70
    32
  0
VERTEX
  8
0
  5
260D
 10
164.089
 20
111.317
 30
0.00000
  70
    32
  0
VERTEX
  8
0
  5
260E
 10
164.139
 20
111.284
 30
0.00000
  70
    32
  0
VERTEX
  8
0
  5
260F
 10
164.189
 20
111.252
 30
0.00000
  70
    32
  0
VERTEX
  8
0
  5
2610
 10
164.240
 20
111.219
 30
0.00000
  70
    32
  0
VERTEX
  8
0
  5
2611
 10
164.291
 20
111.188
 30
0.00000
  70
    32
  0
VERTEX
  8
0
  5
2612
 10
164.343
 20
111.156
 30
0.00000
  70
    32
  0
VERTEX
  8
0
  5
2613
 10
164.396
 20
111.125
 30
0.00000
  70
    32
  0
VERTEX
  8
0
  5
2614
 10
164.448
 20
111.095
 30
0.00000
  70
    32
  0
VERTEX
  8
0
  5
2615
 10
164.501
 20
111.065
 30
0.00000
  70
    32
  0
VERTEX
  8
0
  5
2616
 10
164.555
 20
111.035
 30
0.00000
  70
    32
  0
VERTEX
  8
0
  5
2617
 10
164.609
 20
111.005
 30
0.00000
  70
    32
  0
SEQEND
  8
0
  5
2618
  0
ARC
  5
1F25
  8
0
 10
168.4773215042226866
 20
112.0231526130938988
 30
0.0
 40
4.0000000000000062
 50
194.7390714135763119
 51
220.5148116596500074
  0
POLYLINE
  5
1F26
  8
0
 10
172.3456994512932852
 20
111.0054826177485552
 30
0.0
 66
     1
 70
     8
  0
VERTEX
  8
0
  5
2619
 10
172.346
 20
111.005
 30
0.00000
  70
    32
  0
VERTEX
  8
0
  5
261A
 10
172.400
 20
111.035
 30
0.00000
  70
    32
  0
VERTEX
  8
0
  5
261B
 10
172.453
 20
111.065
 30
0.00000
  70
    32
  0
VERTEX
  8
0
  5
261C
 10
172.506
 20
111.095
 30
0.00000
  70
    32
  0
VERTEX
  8
0
  5
261D
 10
172.559
 20
111.125
 30
0.00000
  70
    32
  0
VERTEX
  8
0
  5
261E
 10
172.611
 20
111.156
 30
0.00000
  70
    32
  0
VERTEX
  8
0
  5
261F
 10
172.663
 20
111.188
 30
0.00000
  70
    32
  0
VERTEX
  8
0
  5
2620
 10
172.715
 20
111.219
 30
0.00000
  70
    32
  0
VERTEX
  8
0
  5
2621
 10
172.765
 20
111.252
 30
0.00000
  70
    32
  0
VERTEX
  8
0
  5
2622
 10
172.816
 20
111.284
 30
0.00000
  70
    32
  0
VERTEX
  8
0
  5
2623
 10
172.866
 20
111.317
 30
0.00000
  70
    32
  0
VERTEX
  8
0
  5
2624
 10
172.915
 20
111.350
 30
0.00000
  70
    32
  0
VERTEX
  8
0
  5
2625
 10
172.964
 20
111.384
 30
0.00000
  70
    32
  0
VERTEX
  8
0
  5
2626
 10
173.013
 20
111.418
 30
0.00000
  70
    32
  0
VERTEX
  8
0
  5
2627
 10
173.061
 20
111.452
 30
0.00000
  70
    32
  0
VERTEX
  8
0
  5
2628
 10
173.109
 20
111.487
 30
0.00000
  70
    32
  0
VERTEX
  8
0
  5
2629
 10
173.156
 20
111.522
 30
0.00000
  70
    32
  0
VERTEX
  8
0
  5
262A
 10
173.202
 20
111.558
 30
0.00000
  70
    32
  0
VERTEX
  8
0
  5
262B
 10
173.248
 20
111.593
 30
0.00000
  70
    32
  0
VERTEX
  8
0
  5
262C
 10
173.294
 20
111.630
 30
0.00000
  70
    32
  0
VERTEX
  8
0
  5
262D
 10
173.339
 20
111.666
 30
0.00000
  70
    32
  0
VERTEX
  8
0
  5
262E
 10
173.383
 20
111.703
 30
0.00000
  70
    32
  0
VERTEX
  8
0
  5
262F
 10
173.427
 20
111.740
 30
0.00000
  70
    32
  0
VERTEX
  8
0
  5
2630
 10
173.471
 20
111.777
 30
0.00000
  70
    32
  0
VERTEX
  8
0
  5
2631
 10
173.514
 20
111.815
 30
0.00000
  70
    32
  0
VERTEX
  8
0
  5
2632
 10
173.556
 20
111.853
 30
0.00000
  70
    32
  0
VERTEX
  8
0
  5
2633
 10
173.598
 20
111.892
 30
0.00000
  70
    32
  0
VERTEX
  8
0
  5
2634
 10
173.639
 20
111.931
 30
0.00000
  70
    32
  0
VERTEX
  8
0
  5
2635
 10
173.680
 20
111.970
 30
0.00000
  70
    32
  0
VERTEX
  8
0
  5
2636
 10
173.720
 20
112.009
 30
0.00000
  70
    32
  0
VERTEX
  8
0
  5
2637
 10
173.760
 20
112.049
 30
0.00000
  70
    32
  0
VERTEX
  8
0
  5
2638
 10
173.799
 20
112.089
 30
0.00000
  70
    32
  0
VERTEX
  8
0
  5
2639
 10
173.837
 20
112.129
 30
0.00000
  70
    32
  0
VERTEX
  8
0
  5
263A
 10
173.875
 20
112.169
 30
0.00000
  70
    32
  0
VERTEX
  8
0
  5
263B
 10
173.912
 20
112.210
 30
0.00000
  70
    32
  0
VERTEX
  8
0
  5
263C
 10
173.949
 20
112.251
 30
0.00000
  70
    32
  0
VERTEX
  8
0
  5
263D
 10
173.985
 20
112.293
 30
0.00000
  70
    32
  0
VERTEX
  8
0
  5
263E
 10
174.021
 20
112.334
 30
0.00000
  70
    32
  0
VERTEX
  8
0
  5
263F
 10
174.056
 20
112.376
 30
0.00000
  70
    32
  0
VERTEX
  8
0
  5
2640
 10
174.090
 20
112.419
 30
0.00000
  70
    32
  0
VERTEX
  8
0
  5
2641
 10
174.124
 20
112.461
 30
0.00000
  70
    32
  0
VERTEX
  8
0
  5
2642
 10
174.157
 20
112.504
 30
0.00000
  70
    32
  0
VERTEX
  8
0
  5
2643
 10
174.189
 20
112.547
 30
0.00000
  70
    32
  0
VERTEX
  8
0
  5
2644
 10
174.221
 20
112.590
 30
0.00000
  70
    32
  0
VERTEX
  8
0
  5
2645
 10
174.252
 20
112.633
 30
0.00000
  70
    32
  0
VERTEX
  8
0
  5
2646
 10
174.283
 20
112.677
 30
0.00000
  70
    32
  0
VERTEX
  8
0
  5
2647
 10
174.313
 20
112.721
 30
0.00000
  70
    32
  0
VERTEX
  8
0
  5
2648
 10
174.342
 20
112.765
 30
0.00000
  70
    32
  0
VERTEX
  8
0
  5
2649
 10
174.371
 20
112.809
 30
0.00000
  70
    32
  0
VERTEX
  8
0
  5
264A
 10
174.399
 20
112.854
 30
0.00000
  70
    32
  0
VERTEX
  8
0
  5
264B
 10
174.427
 20
112.898
 30
0.00000
  70
    32
  0
VERTEX
  8
0
  5
264C
 10
174.454
 20
112.943
 30
0.00000
  70
    32
  0
VERTEX
  8
0
  5
264D
 10
174.480
 20
112.989
 30
0.00000
  70
    32
  0
VERTEX
  8
0
  5
264E
 10
174.505
 20
113.034
 30
0.00000
  70
    32
  0
VERTEX
  8
0
  5
264F
 10
174.530
 20
113.079
 30
0.00000
  70
    32
  0
VERTEX
  8
0
  5
2650
 10
174.555
 20
113.125
 30
0.00000
  70
    32
  0
VERTEX
  8
0
  5
2651
 10
174.578
 20
113.171
 30
0.00000
  70
    32
  0
VERTEX
  8
0
  5
2652
 10
174.601
 20
113.217
 30
0.00000
  70
    32
  0
VERTEX
  8
0
  5
2653
 10
174.623
 20
113.263
 30
0.00000
  70
    32
  0
VERTEX
  8
0
  5
2654
 10
174.645
 20
113.310
 30
0.00000
  70
    32
  0
VERTEX
  8
0
  5
2655
 10
174.666
 20
113.356
 30
0.00000
  70
    32
  0
VERTEX
  8
0
  5
2656
 10
174.686
 20
113.403
 30
0.00000
  70
    32
  0
VERTEX
  8
0
  5
2657
 10
174.706
 20
113.450
 30
0.00000
  70
    32
  0
VERTEX
  8
0
  5
2658
 10
174.725
 20
113.497
 30
0.00000
  70
    32
  0
VERTEX
  8
0
  5
2659
 10
174.743
 20
113.544
 30
0.00000
  70
    32
  0
VERTEX
  8
0
  5
265A
 10
174.761
 20
113.592
 30
0.00000
  70
    32
  0
VERTEX
  8
0
  5
265B
 10
174.778
 20
113.639
 30
0.00000
  70
    32
  0
VERTEX
  8
0
  5
265C
 10
174.794
 20
113.687
 30
0.00000
  70
    32
  0
VERTEX
  8
0
  5
265D
 10
174.809
 20
113.734
 30
0.00000
  70
    32
  0
VERTEX
  8
0
  5
265E
 10
174.824
 20
113.782
 30
0.00000
  70
    32
  0
VERTEX
  8
0
  5
265F
 10
174.839
 20
113.830
 30
0.00000
  70
    32
  0
VERTEX
  8
0
  5
2660
 10
174.852
 20
113.878
 30
0.00000
  70
    32
  0
VERTEX
  8
0
  5
2661
 10
174.865
 20
113.926
 30
0.00000
  70
    32
  0
VERTEX
  8
0
  5
2662
 10
174.877
 20
113.974
 30
0.00000
  70
    32
  0
VERTEX
  8
0
  5
2663
 10
174.888
 20
114.023
 30
0.00000
  70
    32
  0
VERTEX
  8
0
  5
2664
 10
174.899
 20
114.071
 30
0.00000
  70
    32
  0
VERTEX
  8
0
  5
2665
 10
174.909
 20
114.119
 30
0.00000
  70
    32
  0
VERTEX
  8
0
  5
2666
 10
174.919
 20
114.168
 30
0.00000
  70
    32
  0
VERTEX
  8
0
  5
2667
 10
174.927
 20
114.216
 30
0.00000
  70
    32
  0
VERTEX
  8
0
  5
2668
 10
174.935
 20
114.265
 30
0.00000
  70
    32
  0
VERTEX
  8
0
  5
2669
 10
174.943
 20
114.314
 30
0.00000
  70
    32
  0
VERTEX
  8
0
  5
266A
 10
174.949
 20
114.363
 30
0.00000
  70
    32
  0
VERTEX
  8
0
  5
266B
 10
174.955
 20
114.411
 30
0.00000
  70
    32
  0
VERTEX
  8
0
  5
266C
 10
174.960
 20
114.460
 30
0.00000
  70
    32
  0
VERTEX
  8
0
  5
266D
 10
174.965
 20
114.509
 30
0.00000
  70
    32
  0
VERTEX
  8
0
  5
266E
 10
174.969
 20
114.558
 30
0.00000
  70
    32
  0
VERTEX
  8
0
  5
266F
 10
174.972
 20
114.607
 30
0.00000
  70
    32
  0
VERTEX
  8
0
  5
2670
 10
174.974
 20
114.656
 30
0.00000
  70
    32
  0
VERTEX
  8
0
  5
2671
 10
174.976
 20
114.705
 30
0.00000
  70
    32
  0
VERTEX
  8
0
  5
2672
 10
174.977
 20
114.754
 30
0.00000
  70
    32
  0
VERTEX
  8
0
  5
2673
 10
174.977
 20
114.803
 30
0.00000
  70
    32
  0
VERTEX
  8
0
  5
2674
 10
174.977
 20
114.852
 30
0.00000
  70
    32
  0
VERTEX
  8
0
  5
2675
 10
174.976
 20
114.901
 30
0.00000
  70
    32
  0
VERTEX
  8
0
  5
2676
 10
174.974
 20
114.950
 30
0.00000
  70
    32
  0
VERTEX
  8
0
  5
2677
 10
174.972
 20
114.999
 30
0.00000
  70
    32
  0
VERTEX
  8
0
  5
2678
 10
174.968
 20
115.048
 30
0.00000
  70
    32
  0
VERTEX
  8
0
  5
2679
 10
174.965
 20
115.097
 30
0.00000
  70
    32
  0
VERTEX
  8
0
  5
267A
 10
174.960
 20
115.146
 30
0.00000
  70
    32
  0
VERTEX
  8
0
  5
267B
 10
174.955
 20
115.195
 30
0.00000
  70
    32
  0
VERTEX
  8
0
  5
267C
 10
174.949
 20
115.243
 30
0.00000
  70
    32
  0
VERTEX
  8
0
  5
267D
 10
174.942
 20
115.292
 30
0.00000
  70
    32
  0
VERTEX
  8
0
  5
267E
 10
174.935
 20
115.341
 30
0.00000
  70
    32
  0
VERTEX
  8
0
  5
267F
 10
174.927
 20
115.389
 30
0.00000
  70
    32
  0
VERTEX
  8
0
  5
2680
 10
174.918
 20
115.438
 30
0.00000
  70
    32
  0
VERTEX
  8
0
  5
2681
 10
174.908
 20
115.487
 30
0.00000
  70
    32
  0
VERTEX
  8
0
  5
2682
 10
174.898
 20
115.535
 30
0.00000
  70
    32
  0
VERTEX
  8
0
  5
2683
 10
174.887
 20
115.583
 30
0.00000
  70
    32
  0
VERTEX
  8
0
  5
2684
 10
174.876
 20
115.632
 30
0.00000
  70
    32
  0
VERTEX
  8
0
  5
2685
 10
174.864
 20
115.680
 30
0.00000
  70
    32
  0
VERTEX
  8
0
  5
2686
 10
174.851
 20
115.728
 30
0.00000
  70
    32
  0
VERTEX
  8
0
  5
2687
 10
174.837
 20
115.776
 30
0.00000
  70
    32
  0
VERTEX
  8
0
  5
2688
 10
174.823
 20
115.824
 30
0.00000
  70
    32
  0
VERTEX
  8
0
  5
2689
 10
174.808
 20
115.872
 30
0.00000
  70
    32
  0
VERTEX
  8
0
  5
268A
 10
174.792
 20
115.919
 30
0.00000
  70
    32
  0
VERTEX
  8
0
  5
268B
 10
174.776
 20
115.967
 30
0.00000
  70
    32
  0
VERTEX
  8
0
  5
268C
 10
174.759
 20
116.014
 30
0.00000
  70
    32
  0
VERTEX
  8
0
  5
268D
 10
174.741
 20
116.062
 30
0.00000
  70
    32
  0
VERTEX
  8
0
  5
268E
 10
174.723
 20
116.109
 30
0.00000
  70
    32
  0
VERTEX
  8
0
  5
268F
 10
174.704
 20
116.156
 30
0.00000
  70
    32
  0
VERTEX
  8
0
  5
2690
 10
174.684
 20
116.203
 30
0.00000
  70
    32
  0
VERTEX
  8
0
  5
2691
 10
174.664
 20
116.249
 30
0.00000
  70
    32
  0
VERTEX
  8
0
  5
2692
 10
174.643
 20
116.296
 30
0.00000
  70
    32
  0
VERTEX
  8
0
  5
2693
 10
174.621
 20
116.342
 30
0.00000
  70
    32
  0
VERTEX
  8
0
  5
2694
 10
174.599
 20
116.388
 30
0.00000
  70
    32
  0
VERTEX
  8
0
  5
2695
 10
174.576
 20
116.435
 30
0.00000
  70
    32
  0
VERTEX
  8
0
  5
2696
 10
174.552
 20
116.480
 30
0.00000
  70
    32
  0
VERTEX
  8
0
  5
2697
 10
174.528
 20
116.526
 30
0.00000
  70
    32
  0
VERTEX
  8
0
  5
2698
 10
174.503
 20
116.572
 30
0.00000
  70
    32
  0
VERTEX
  8
0
  5
2699
 10
174.477
 20
116.617
 30
0.00000
  70
    32
  0
SEQEND
  8
0
  5
269A
  0
ARC
  5
1F27
  8
0
 10
168.4773215042226866
 20
112.0231526130938988
 30
0.0
 40
4.0
 50
319.4851903403566098
 51
345.2609286175351144
  0
LINE
  5
1F28
  8
0
 10
166.0773215042227093
 20
116.823152613093896
 30
0.0
 11
166.0773215042225956
 21
120.0231526130938988
 31
0.0
  0
ARC
  5
1F29
  8
0
 10
168.4773215042226866
 20
120.0231526130938988
 30
0.0
 40
2.400000000000007
 50
0.0000000000097707
 51
180.0000126176938124
  0
LINE
  5
1F2A
  8
0
 10
170.877321504222607
 20
120.0231526130938988
 30
0.0
 11
170.877321504222607
 21
116.823152613094706
 31
0.0
  0
LINE
  5
1F2B
  8
0
 10
166.0773215042227093
 20
113.6231526130928984
 30
0.0
 11
166.0773215042227093
 21
110.4231526130939045
 31
0.0
  0
LINE
  5
1F2C
  8
0
 10
170.877321504222607
 20
110.4231526130939045
 30
0.0
 11
170.877321504222607
 21
113.6231526130938931
 31
0.0
  0
ARC
  5
1F2D
  8
0
 10
168.4773215042226866
 20
110.4231526130939045
 30
0.0
 40
2.4000000000000048
 50
180.0
 51
0.0
  0
LINE
  5
1F2E
  8
0
 10
166.0773215042227093
 20
113.6231526130928984
 30
0.0
 11
166.0773215042227093
 21
116.823152613093896
 31
0.0
  0
LINE
  5
1F2F
  8
0
 10
170.877321504222607
 20
116.823152613094706
 30
0.0
 11
170.877321504222607
 21
113.6231526130938931
 31
0.0
  0
LINE
  5
1F30
  8
0
 10
173.6773215042221068
 20
122.4231526130939045
 30
0.0
 11
163.2773210739948127
 21
122.4231526130939045
 31
0.0
  0
LINE
  5
1F35
  8
0
 10
174.4773215042224876
 20
121.6231529853285025
 30
0.0
 11
170.2661755532857057
 21
121.6231529853285025
 31
0.0
  0
LINE
  5
1F36
  8
0
 10
166.6884674551594969
 20
121.623152985328403
 30
0.0
 11
162.4773215042226866
 21
121.623152985328403
 31
0.0
  0
LINE
  5
1F37
  8
0
 10
166.6884671622005953
 20
108.8231526130943934
 30
0.0
 11
166.0779920765729969
 21
108.8231526130943934
 31
0.0
  0
LINE
  5
1F38
  8
0
 10
170.8608462473262932
 20
108.8231526130943934
 30
0.0
 11
170.2661755532955112
 21
108.8231526130943934
 31
0.0
  0
LINE
  5
1F39
  8
0
 10
94.3405219216934938
 20
72.4501526130940192
 30
0.0
 11
94.3405219216934938
 21
79.6226526130940044
 31
0.0
  0
LINE
  5
1F3A
  8
0
 10
78.3405219216934938
 20
118.0346625249308943
 30
0.0
 11
78.3405219216934938
 21
87.6226526130940044
 31
0.0
  0
LINE
  5
1F3B
  8
0
 10
78.3405219216934938
 20
72.4501526130940192
 30
0.0
 11
79.5675219216934551
 21
71.2231526130939869
 31
0.0
  0
LINE
  5
1F3C
  8
0
 10
93.1135219216935042
 20
71.2231526130939869
 30
0.0
 11
94.3405219216934938
 21
72.4501526130940192
 31
0.0
  0
ARC
  5
1F3D
  8
0
 10
81.1405219216940168
 20
121.6231526130938931
 30
0.0
 40
0.8000000000005243
 50
90.0
 51
179.9999733406675944
  0
LINE
  5
1F3E
  8
0
 10
80.3405219216934938
 20
121.6231529853285025
 30
0.0
 11
80.3405219216934938
 21
119.1598813490912931
 31
0.0
  0
LINE
  5
1F47
  8
0
 10
120.7405219216941958
 20
122.4231526130939045
 30
0.0
 11
81.1405219216940168
 21
122.4231526130939045
 31
0.0
  0
LINE
  5
1F48
  8
0
 10
94.3405219216934938
 20
108.0231526130939983
 30
0.0
 11
120.7405219216934
 21
108.0231526130939983
 31
0.0
  0
LINE
  5
1F49
  8
0
 10
126.3405219216934938
 20
113.6231526130949021
 30
0.0
 11
126.3405219216934938
 21
116.8231526130948055
 31
0.0
  0
ARC
  5
1F4A
  8
0
 10
120.7405219216945937
 20
116.8231526130951039
 30
0.0
 40
5.599999999998885
 50
359.9999999999976126
 51
90.0000000000032543
  0
ARC
  5
1F4B
  8
0
 10
120.7405219216945937
 20
113.6231526130927989
 30
0.0
 40
5.599999999998885
 50
269.9999999999902229
 51
0.0000000000211698
  0
LINE
  5
1F4D
  8
0
 10
79.8405220441632082
 20
119.5231526130938988
 30
0.0
 11
78.9750619903653615
 21
119.5231526130938988
 31
0.0
  0
LINE
  5
1F4E
  8
0
 10
93.740022566383459
 20
109.424574276688503
 30
0.0
 11
79.8405220297837559
 21
119.5231525345618024
 31
0.0
  0
ARC
  5
1F4F
  8
0
 10
105.3759822281225951
 20
113.581384739080903
 30
0.0
 40
12.35615762094627
 50
199.6586745908302873
 51
206.6999842973453951
  0
POLYLINE
  5
1F50
  8
0
 66
     1
 10
0.0
 20
0.0
 30
0.0
 70
   128
  0
VERTEX
  5
217F
  8
0
 10
78.9750619903653615
 20
119.5231526130938988
 30
0.0
  0
VERTEX
  5
2180
  8
0
 10
78.7968249483886893
 20
119.0386318768535006
 30
0.0
  0
VERTEX
  5
2181
  8
0
 10
78.6242616680032143
 20
118.625996110564202
 30
0.0
  0
VERTEX
  5
2182
  8
0
 10
78.484053095659533
 20
118.3185470450956984
 30
0.0
  0
VERTEX
  5
2183
  8
0
 10
78.3839635438292817
 20
118.1107593276020964
 30
0.0
  0
VERTEX
  5
2184
  8
0
 10
78.3429401270079779
 20
118.0279912192718967
 30
0.0
  0
VERTEX
  5
2185
  8
0
 10
78.3462656919693927
 20
118.0346625249308943
 30
0.0
  0
SEQEND
  5
2186
  8
0
  0
LINE
  5
1F51
  8
0
 10
78.3405219216934938
 20
72.4501526130940192
 30
0.0
 11
94.3405219216934938
 21
72.4501526130940192
 31
0.0
  0
LINE
  5
1F52
  8
0
 10
79.5675219216934551
 20
71.2231526130939869
 30
0.0
 11
93.1135219216935042
 21
71.2231526130939869
 31
0.0
  0
ARC
  5
1F53
  8
0
 10
91.5476792599119875
 20
121.8542034553607039
 30
0.0
 40
0.5689941645213656
 50
336.0419128877189792
 51
90.7206520013778288
  0
ARC
  5
1F54
  8
0
 10
97.8117591027949942
 20
119.9882318132313941
 30
0.0
 40
5.9722484409350534
 50
164.1122830674453041
 51
179.6649813693570081
  0
LINE
  5
1F55
  8
0
 10
91.8396127556404736
 20
110.8053028248319976
 30
0.0
 11
91.8396127556404736
 21
120.023152414895705
 31
0.0
  0
ARC
  5
1F56
  8
0
 10
105.5408776087413969
 20
115.2231526130940011
 30
0.0
 40
4.5166359302597412
 50
90.0045120676118842
 51
269.9954879323880732
  0
ARC
  5
1F5B
  8
0
 10
116.7242177452587981
 20
113.228068507253397
 30
0.0
 40
4.8163066852058458
 50
326.5011707409120163
 51
359.9415194971622896
  0
LINE
  5
1F5C
  8
0
 10
121.5405219216934967
 20
117.2231526130940011
 30
0.0
 11
121.5405219216934967
 21
113.2231526130940011
 31
0.0
  0
ARC
  5
1F5D
  8
0
 10
116.7242177452587981
 20
117.2182367189346053
 30
0.0
 40
4.8163066852058458
 50
0.0584805028376763
 51
33.4988292590887511
  0
LINE
  5
1F5E
  8
0
 10
110.7405219216934995
 20
119.8764524453780069
 30
0.0
 11
120.7405219216934
 21
119.8764524453780069
 31
0.0
  0
LINE
  5
1F5F
  8
0
 10
106.8405219216934938
 20
114.8231526130939955
 30
0.0
 11
110.7405219216934995
 21
119.8764524453780069
 31
0.0
  0
LINE
  5
1F60
  8
0
 10
110.7405219216934995
 20
110.5698527808098959
 30
0.0
 11
106.8405219216934938
 21
114.8231526130939955
 31
0.0
  0
LINE
  5
1F61
  8
0
 10
120.7405219216934
 20
110.5698527808098959
 30
0.0
 11
110.7405219216934995
 21
110.5698527808098959
 31
0.0
  0
LINE
  5
1F62
  8
0
 10
105.5405219216933972
 20
119.7397885293484023
 30
0.0
 11
105.5405219216933972
 21
110.7065166968395005
 31
0.0
  0
LINE
  5
1F63
  8
0
 10
92.0676504509958704
 20
121.6231529853285025
 30
0.0
 11
80.3405219216934938
 21
121.6231529853285025
 31
0.0
  0
LINE
  5
1F66
  8
0
 10
15.1650038379836491
 20
103.2226526130939988
 30
0.0
 11
31.1650038379836509
 21
103.2226526130939988
 31
0.0
  0
LINE
  5
1F67
  8
3
 10
30.2450038379836315
 20
103.2226526130939988
 30
0.0
 11
30.2450038379836315
 21
87.6226526130940044
 31
0.0
  0
LINE
  5
1F68
  8
3
 10
30.2450038379836315
 20
103.2226526130939988
 30
0.0
 11
31.1650038379836509
 21
104.8161393560574055
 31
0.0
  0
LINE
  5
1F69
  8
3
 10
16.0850038379835993
 20
103.2226526130939988
 30
0.0
 11
16.0850038379835993
 21
87.6226526130940044
 31
0.0
  0
LINE
  5
1F6A
  8
3
 10
16.0850038379835993
 20
103.2226526130939988
 30
0.0
 11
15.1650038379836491
 21
104.8161393560574055
 31
0.0
  0
LINE
  5
1F6B
  8
1
 10
23.1650038379835905
 20
125.423152613094004
 30
0.0
 11
23.1650038379835905
 21
58.2231526270121265
 31
0.0
  0
LINE
  5
1F6C
  8
0
 10
160.4768215042228121
 20
103.2226526130939988
 30
0.0
 11
176.4768215042228121
 21
103.2226526130939988
 31
0.0
  0
LINE
  5
1F6D
  8
3
 10
175.5568215042227962
 20
103.2226526130939988
 30
0.0
 11
175.5568215042227962
 21
87.6226526130940044
 31
0.0
  0
LINE
  5
1F6E
  8
3
 10
175.5568215042227962
 20
103.2226526130939988
 30
0.0
 11
176.4768215042228121
 21
104.816139356057306
 31
0.0
  0
LINE
  5
1F6F
  8
3
 10
161.3968215042226859
 20
103.2226526130939988
 30
0.0
 11
161.3968215042226859
 21
87.6226526130940044
 31
0.0
  0
LINE
  5
1F70
  8
3
 10
161.3968215042226859
 20
103.2226526130939988
 30
0.0
 11
160.4768215042228121
 21
104.816139356057306
 31
0.0
  0
LINE
  5
1F71
  8
1
 10
168.4768215042228121
 20
125.423152613094004
 30
0.0
 11
168.4768215042228121
 21
58.2231526270120909
 31
0.0
  0
LINE
  5
1F72
  8
0
 10
78.3405219216934938
 20
103.2226526130939988
 30
0.0
 11
94.3405219216934938
 21
103.2226526130939988
 31
0.0
  0
LINE
  5
1F73
  8
3
 10
93.4205219216935348
 20
103.2226526130939988
 30
0.0
 11
93.4205219216935348
 21
87.6226526130940044
 31
0.0
  0
LINE
  5
1F74
  8
3
 10
93.4205219216935348
 20
103.2226526130939988
 30
0.0
 11
94.3405219216934938
 21
104.8161393560574055
 31
0.0
  0
LINE
  5
1F75
  8
3
 10
79.2605219216934529
 20
103.2226526130939988
 30
0.0
 11
79.2605219216934529
 21
87.6226526130940044
 31
0.0
  0
LINE
  5
1F76
  8
3
 10
79.2605219216934529
 20
103.2226526130939988
 30
0.0
 11
78.3405219216934938
 21
104.8161393560574055
 31
0.0
  0
LINE
  5
1F77
  8
1
 10
86.3405219216934938
 20
125.423152613094004
 30
0.0
 11
86.3405219216934938
 21
58.2231526270121265
 31
0.0
  0
LINE
  5
2026
  8
0
 10
11.6650038379505006
 20
87.6231526131138878
 30
0.0
 11
34.665003838016851
 21
87.6231526130754901
 31
0.0
  0
LINE
  5
2027
  8
0
 10
34.665003838016851
 20
79.6231526131132057
 30
0.0
 11
11.6650038379505006
 21
79.6231526130747795
 31
0.0
  0
ARC
  5
2028
  8
0
 10
29.1650038379504508
 20
97.2419547650115987
 30
0.0
 40
17.3301270173332789
 50
249.7438419976460011
 51
290.2561580023540273
  0
ARC
  5
2029
  8
0
 10
29.1650038379504508
 20
70.0043504611771823
 30
0.0
 40
17.3301270173332789
 50
69.743841997646058
 51
110.2561580023538994
  0
LINE
  5
202A
  8
0
 10
23.1650038379504508
 20
86.262680708681259
 30
0.0
 11
23.1650038379504508
 21
80.9836245175074794
 31
0.0
  0
LINE
  5
202B
  8
0
 10
11.1650038379354406
 20
79.9118277476782737
 30
0.0
 11
11.1650038379505094
 21
87.3344774785192044
 31
0.0
  0
ARC
  5
202C
  8
0
 10
17.1650038379505006
 20
70.0043504611771823
 30
0.0
 40
17.3301270173332789
 50
69.743841997646058
 51
110.2561580023538994
  0
LINE
  5
202D
  8
0
 10
11.1650038379354406
 20
87.3344774785104789
 30
0.0
 11
11.6650038379505006
 21
87.6231526131138878
 31
0.0
  0
ARC
  5
202E
  8
0
 10
17.1650038379505006
 20
97.2419547650115987
 30
0.0
 40
17.3301270173332789
 50
249.7438419976460011
 51
290.2561580023540273
  0
LINE
  5
202F
  8
0
 10
11.1650038379354406
 20
79.9118277476781884
 30
0.0
 11
11.6650038379505006
 21
79.6231526130747795
 31
0.0
  0
LINE
  5
2030
  8
0
 10
35.1650038379655712
 20
79.9118277476781884
 30
0.0
 11
35.1650038379504508
 21
87.3344774785192044
 31
0.0
  0
LINE
  5
2031
  8
0
 10
35.1650038379655214
 20
87.3344774785104789
 30
0.0
 11
34.6650038379504508
 21
87.6231526131138878
 31
0.0
  0
LINE
  5
2032
  8
0
 10
35.1650038379655214
 20
79.9118277476781884
 30
0.0
 11
34.6650038379504508
 21
79.6231526130747795
 31
0.0
  0
LINE
  5
2033
  8
0
 10
156.9768215041897008
 20
87.6231526131138452
 30
0.0
 11
179.9768215042560087
 21
87.6231526130754759
 31
0.0
  0
LINE
  5
2034
  8
0
 10
179.9768215042560087
 20
79.6231526131131631
 30
0.0
 11
156.9768215041897008
 21
79.6231526130747511
 31
0.0
  0
ARC
  5
2035
  8
0
 10
174.4768215041895871
 20
97.2419547650115845
 30
0.0
 40
17.3301270173332789
 50
249.7438419976460011
 51
290.2561580023540273
  0
ARC
  5
2036
  8
0
 10
174.4768215041895871
 20
70.0043504611771539
 30
0.0
 40
17.3301270173332789
 50
69.743841997646058
 51
110.2561580023538994
  0
LINE
  5
2037
  8
0
 10
168.4768215041895871
 20
86.2626807086812448
 30
0.0
 11
168.4768215041895871
 21
80.9836245175074509
 31
0.0
  0
LINE
  5
2038
  8
0
 10
156.4768215041746089
 20
79.9118277476782453
 30
0.0
 11
156.4768215041895871
 21
87.334477478519176
 31
0.0
  0
ARC
  5
2039
  8
0
 10
162.4768215041895871
 20
70.0043504611771539
 30
0.0
 40
17.3301270173332789
 50
69.743841997646058
 51
110.2561580023538994
  0
LINE
  5
203A
  8
0
 10
156.4768215041746089
 20
87.3344774785104505
 30
0.0
 11
156.9768215041897008
 21
87.6231526131138452
 31
0.0
  0
ARC
  5
203B
  8
0
 10
162.4768215041895871
 20
97.2419547650115845
 30
0.0
 40
17.3301270173332789
 50
249.7438419976460011
 51
290.2561580023540273
  0
LINE
  5
203C
  8
0
 10
156.4768215041746089
 20
79.91182774767816
 30
0.0
 11
156.9768215041897008
 21
79.6231526130747511
 31
0.0
  0
LINE
  5
203D
  8
0
 10
180.4768215042047075
 20
79.91182774767816
 30
0.0
 11
180.4768215041895871
 21
87.334477478519176
 31
0.0
  0
LINE
  5
203E
  8
0
 10
180.4768215042047075
 20
87.3344774785104505
 30
0.0
 11
179.9768215041895871
 21
87.6231526131138452
 31
0.0
  0
LINE
  5
203F
  8
0
 10
180.4768215042047075
 20
79.91182774767816
 30
0.0
 11
179.9768215041895871
 21
79.6231526130747511
 31
0.0
  0
LINE
  5
2040
  8
0
 10
100.1969283709611034
 20
86.5508558498839733
 30
0.0
 11
100.1969283709612029
 21
80.6944493763039787
 31
0.0
  0
LINE
  5
2041
  8
0
 10
93.268725146325778
 20
80.6944493763053856
 30
0.0
 11
93.268725146325778
 21
86.5508558498824669
 31
0.0
  0
LINE
  5
2042
  8
0
 10
72.4841154724153967
 20
86.5508558498777774
 30
0.0
 11
72.4841154724155103
 21
80.6944493763101036
 31
0.0
  0
LINE
  5
2043
  8
0
 10
79.4123186970625738
 20
80.6944493763097057
 30
0.0
 11
79.4123186970625738
 21
86.5508558498793832
 31
0.0
  0
LINE
  5
2044
  8
0
 10
98.3405219216936075
 20
87.6226526130940044
 30
0.0
 11
74.3405219216934938
 21
87.6226526130940044
 31
0.0
  0
ARC
  5
2045
  8
0
 10
86.3405219217009972
 20
64.6944492865285667
 30
0.0
 40
22.9282033265653915
 50
72.4120463170921624
 51
107.5879536829420005
  0
ARC
  5
2046
  8
0
 10
75.9482170847401221
 20
81.4886779952313987
 30
0.0
 40
6.1339746178626706
 50
55.6157527021881393
 51
89.9999718303940881
  0
LINE
  5
2047
  8
0
 10
74.3405219216934938
 20
87.6226526130940044
 30
0.0
 11
72.4841154724153967
 21
86.5508558498777774
 31
0.0
  0
ARC
  5
2048
  8
0
 10
96.7328159690686817
 20
81.4886779952313987
 30
0.0
 40
6.1339746178626706
 50
90.0000281696026576
 51
124.3842472978117968
  0
LINE
  5
2049
  8
0
 10
98.3405219216936075
 20
87.6226526130940044
 30
0.0
 11
100.1969283709611034
 21
86.5508558498839733
 31
0.0
  0
ARC
  5
204A
  8
0
 10
86.3405219217009972
 20
102.5508559396593995
 30
0.0
 40
22.9282033265653915
 50
252.4120463170580138
 51
287.5879536829078233
  0
LINE
  5
204B
  8
0
 10
98.3405219216936075
 20
79.6226526130940044
 30
0.0
 11
74.3405219216934938
 21
79.6226526130940044
 31
0.0
  0
ARC
  5
204C
  8
0
 10
75.9482170847401221
 20
85.756627230956596
 30
0.0
 40
6.1339746178626706
 50
270.0000281696026718
 51
304.3842472978118963
  0
LINE
  5
204D
  8
0
 10
74.3405219216934938
 20
79.6226526130940044
 30
0.0
 11
72.4841154724153967
 21
80.6944493763101036
 31
0.0
  0
ARC
  5
204E
  8
0
 10
96.7328159690686817
 20
85.756627230956596
 30
0.0
 40
6.1339746178626706
 50
235.615752702188189
 51
269.9999718303940881
  0
LINE
  5
204F
  8
0
 10
98.3405219216936075
 20
79.6226526130940044
 30
0.0
 11
100.1969283709611034
 21
80.6944493763039787
 31
0.0
  0
LINE
  5
2059
  8
0
 10
176.4773215042226866
 20
87.6226526130940044
 30
0.0
 11
176.4773215042226866
 21
114.8006261810590019
 31
0.0
  0
LINE
  5
205C
  8
3
 10
175.5568215042227962
 20
79.6226526130940044
 30
0.0
 11
175.5568215042227962
 21
71.5296526130939583
 31
0.0
  0
LINE
  5
205D
  8
3
 10
161.3968215042226859
 20
79.6226526130940044
 30
0.0
 11
161.3968215042226859
 21
71.5306526130939346
 31
0.0
  0
LINE
  5
205E
  8
0
 10
160.4773215042228003
 20
79.6226526130940044
 30
0.0
 11
160.4773215042228003
 21
72.450152613093934
 31
0.0
  0
LINE
  5
205F
  8
0
 10
94.3405219216934938
 20
87.6226526130940044
 30
0.0
 11
94.3405219216934938
 21
108.0231526130939983
 31
0.0
  0
LINE
  5
2060
  8
3
 10
93.4205219216935348
 20
79.6226526130940044
 30
0.0
 11
93.4205219216935348
 21
71.5296526130940151
 31
0.0
  0
LINE
  5
2061
  8
3
 10
79.2605219216934529
 20
79.6226526130940044
 30
0.0
 11
79.2605219216934529
 21
71.5306526130939915
 31
0.0
  0
LINE
  5
2062
  8
0
 10
78.3405219216934938
 20
79.6226526130940044
 30
0.0
 11
78.3405219216934938
 21
72.4501526130940192
 31
0.0
  0
LINE
  5
2063
  8
0
 10
31.1655038379836213
 20
87.6226526130940044
 30
0.0
 11
31.1655038379836888
 21
114.8006261810590019
 31
0.0
  0
LINE
  5
2064
  8
3
 10
30.2450038379836315
 20
79.6226526130940044
 30
0.0
 11
30.2450038379836315
 21
71.5296526130939867
 31
0.0
  0
LINE
  5
2065
  8
3
 10
16.0850038379835993
 20
79.6226526130940044
 30
0.0
 11
16.0850038379835993
 21
71.5306526130939631
 31
0.0
  0
LINE
  5
2066
  8
0
 10
15.1655038379836
 20
79.6226526130940044
 30
0.0
 11
15.1655038379835805
 21
72.4501526130940192
 31
0.0
  0
LINE
  5
2067
  8
1
 10
86.3405219216934938
 20
173.2046893957725899
 30
0.0
 11
86.3405219216934938
 21
143.2046893957725899
 31
0.0
  0
LINE
  5
2068
  8
1
 10
129.3405219216934938
 20
158.2046893957725899
 30
0.0
 11
69.484115472414004
 21
158.2046893957725899
 31
0.0
  0
LINE
  5
2069
  8
0
 10
98.8112877361893851
 20
160.6046893957725956
 30
0.0
 11
93.2687251519689653
 21
170.2046893957725899
 31
0.0
  0
LINE
  5
206A
  8
0
 10
79.4123186914179655
 20
170.2046893957725899
 30
0.0
 11
72.4841154611423804
 21
158.2046893957725899
 31
0.0
  0
ARC
  5
206B
  8
0
 10
86.3405219216934938
 20
158.2046893957725899
 30
0.0
 40
12.0
 50
11.5369590328157408
 51
348.4630409671843267
  0
LINE
  5
206C
  8
0
 10
79.4123186914179655
 20
146.2046893957725899
 30
0.0
 11
93.2687251519689653
 21
146.2046893957725899
 31
0.0
  0
LINE
  5
206D
  8
0
 10
72.4841154611423804
 20
158.2046893957725899
 30
0.0
 11
79.4123186914179655
 21
146.2046893957725899
 31
0.0
  0
LINE
  5
206E
  8
0
 10
93.2687251519689653
 20
146.2046893957725899
 30
0.0
 11
98.8112877361894704
 21
155.8046893957726127
 31
0.0
  0
LINE
  5
206F
  8
0
 10
93.2687251519689653
 20
170.2046893957725899
 30
0.0
 11
79.4123186914179655
 21
170.2046893957725899
 31
0.0
  0
LINE
  5
2072
  8
0
 10
100.1969283822443941
 20
28.1468939385711394
 30
0.0
 11
93.2687251519689653
 21
40.1468939385710826
 31
0.0
  0
LINE
  5
2073
  8
0
 10
79.4123186914179655
 20
40.1468939385710826
 30
0.0
 11
72.4841154611423804
 21
28.146893938571079
 31
0.0
  0
LINE
  5
2075
  8
0
 10
79.4123186914179655
 20
16.146893938571079
 30
0.0
 11
93.2687251519689653
 21
16.146893938571079
 31
0.0
  0
LINE
  5
2076
  8
0
 10
72.4841154611423804
 20
28.146893938571079
 30
0.0
 11
79.4123186914179655
 21
16.146893938571079
 31
0.0
  0
LINE
  5
2077
  8
0
 10
93.2687251519689653
 20
16.146893938571079
 30
0.0
 11
100.1969283822445931
 21
28.1468939385711394
 31
0.0
  0
LINE
  5
2078
  8
0
 10
93.2687251519689653
 20
40.1468939385710826
 30
0.0
 11
79.4123186914179655
 21
40.1468939385710826
 31
0.0
  0
LINE
  5
2085
  8
1
 10
86.3405219216934938
 20
43.1468939385711394
 30
0.0
 11
86.3405219216934938
 21
13.1468939385711394
 31
0.0
  0
LINE
  5
2086
  8
1
 10
129.3405219216934938
 20
28.1468939385711394
 30
0.0
 11
69.484115472414004
 21
28.1468939385711394
 31
0.0
  0
LINE
  5
20B8
  8
0
 10
172.4773215042264098
 20
70.7231526130489243
 30
0.0
 11
172.3773215042074867
 21
70.9979003550394054
 31
0.0
  0
LINE
  5
20B9
  8
0
 10
164.5773215042380002
 20
70.9979003550394054
 30
0.0
 11
164.4773215042191055
 21
70.7231526130489243
 31
0.0
  0
LINE
  5
20BA
  8
0
 10
172.4773215042228003
 20
63.5231526130939628
 30
0.0
 11
172.4773215042228003
 21
70.7231526130489243
 31
0.0
  0
LINE
  5
20BB
  8
0
 10
164.4773215042228003
 20
70.7231526130489243
 30
0.0
 11
164.4773215042228003
 21
63.5231526130939628
 31
0.0
  0
LINE
  5
20BC
  8
0
 10
164.4773215041950039
 20
63.5231526130939628
 30
0.0
 11
165.4653718536337124
 21
61.811799207440707
 31
0.0
  0
LINE
  5
20BD
  8
0
 10
171.4892711548118882
 20
61.811799207440707
 30
0.0
 11
172.4773215042505967
 21
63.5231526130939628
 31
0.0
  0
LINE
  5
20BE
  8
0
 10
172.377321504222806
 20
70.9979003550394054
 30
0.0
 11
172.377321504222806
 21
71.2231526130939443
 31
0.0
  0
LINE
  5
20BF
  8
0
 10
164.5773215042227946
 20
71.2231526130939443
 30
0.0
 11
164.5773215042227946
 21
70.9979003550394054
 31
0.0
  0
ARC
  5
20C0
  8
0
 10
168.4773215042226866
 20
69.2231526130939585
 30
0.0
 40
8.0000000000366391
 50
247.8833368686186134
 51
292.1166631313845983
  0
LINE
  5
20C1
  8
0
 10
164.4773215042131937
 20
70.7231526130489243
 30
0.0
 11
172.4773215042322931
 21
70.7231526130489243
 31
0.0
  0
LINE
  5
20C2
  8
0
 10
164.5773215042380002
 20
70.9979003550394054
 30
0.0
 11
172.3773215042074867
 21
70.9979003550394054
 31
0.0
  0
LINE
  5
20C3
  8
0
 10
164.4773215042226866
 20
63.5231526130939628
 30
0.0
 11
172.477321504222914
 21
63.5231526130939628
 31
0.0
  0
LINE
  5
20C4
  8
0
 10
165.4653718536337124
 20
61.811799207440707
 30
0.0
 11
171.4892711548118029
 21
61.8117992074406715
 31
0.0
  0
LINE
  5
20D8
  8
0
 10
90.3405219216971318
 20
70.7231526130489243
 30
0.0
 11
90.240521921678237
 21
70.9979003550394054
 31
0.0
  0
LINE
  5
20D9
  8
0
 10
82.4405219217087364
 20
70.9979003550394054
 30
0.0
 11
82.3405219216898558
 21
70.7231526130489243
 31
0.0
  0
LINE
  5
20DA
  8
0
 10
90.3405219216934938
 20
63.5231526130939628
 30
0.0
 11
90.3405219216934938
 21
70.7231526130489243
 31
0.0
  0
LINE
  5
20DB
  8
0
 10
82.3405219216934938
 20
70.7231526130489243
 30
0.0
 11
82.3405219216934938
 21
63.5231526130939628
 31
0.0
  0
LINE
  5
20DC
  8
0
 10
82.3405219216656974
 20
63.5231526130939628
 30
0.0
 11
83.3285722711044059
 21
61.811799207440707
 31
0.0
  0
LINE
  5
20DD
  8
0
 10
89.352471572282596
 20
61.811799207440707
 30
0.0
 11
90.3405219217212903
 21
63.5231526130939628
 31
0.0
  0
LINE
  5
20DE
  8
0
 10
90.2405219216934853
 20
70.9979003550394054
 30
0.0
 11
90.2405219216934853
 21
71.2231526130939443
 31
0.0
  0
LINE
  5
20DF
  8
0
 10
82.4405219216935166
 20
71.2231526130939443
 30
0.0
 11
82.4405219216935166
 21
70.9979003550394054
 31
0.0
  0
ARC
  5
20E0
  8
0
 10
86.3405219216933801
 20
69.2231526130939585
 30
0.0
 40
8.0000000000366391
 50
247.8833368686186134
 51
292.1166631313845983
  0
LINE
  5
20E1
  8
0
 10
82.3405219216839441
 20
70.7231526130489243
 30
0.0
 11
90.3405219217030435
 21
70.7231526130489243
 31
0.0
  0
LINE
  5
20E2
  8
0
 10
82.4405219217087364
 20
70.9979003550394054
 30
0.0
 11
90.240521921678237
 21
70.9979003550394054
 31
0.0
  0
LINE
  5
20E3
  8
0
 10
82.3405219216933801
 20
63.5231526130939628
 30
0.0
 11
90.3405219216935933
 21
63.5231526130939628
 31
0.0
  0
LINE
  5
20E4
  8
0
 10
83.3285722711044059
 20
61.811799207440707
 30
0.0
 11
89.3524715722825249
 21
61.8117992074406715
 31
0.0
  0
LINE
  5
20F8
  8
0
 10
27.1655038379872202
 20
70.7231526130489669
 30
0.0
 11
27.0655038379683184
 21
70.9979003550394339
 31
0.0
  0
LINE
  5
20F9
  8
0
 10
19.2655038379988284
 20
70.9979003550394339
 30
0.0
 11
19.1655038379799407
 21
70.7231526130489669
 31
0.0
  0
LINE
  5
20FA
  8
0
 10
27.1655038379835787
 20
63.523152613093977
 30
0.0
 11
27.1655038379835787
 21
70.7231526130489669
 31
0.0
  0
LINE
  5
20FB
  8
0
 10
19.1655038379835787
 20
70.7231526130489669
 30
0.0
 11
19.1655038379835787
 21
63.523152613093977
 31
0.0
  0
LINE
  5
20FC
  8
0
 10
19.1655038379557787
 20
63.523152613093977
 30
0.0
 11
20.1535541873944908
 21
61.8117992074407425
 31
0.0
  0
LINE
  5
20FD
  8
0
 10
26.1774534885726702
 20
61.8117992074407425
 30
0.0
 11
27.1655038380113787
 21
63.523152613093977
 31
0.0
  0
LINE
  5
20FE
  8
0
 10
27.0655038379835808
 20
70.9979003550394339
 30
0.0
 11
27.0655038379835808
 21
71.2231526130939869
 31
0.0
  0
LINE
  5
20FF
  8
0
 10
19.2655038379836014
 20
71.2231526130939869
 30
0.0
 11
19.2655038379836014
 21
70.9979003550394339
 31
0.0
  0
ARC
  5
2100
  8
0
 10
23.1655038379834686
 20
69.2231526130939869
 30
0.0
 40
8.0000000000366391
 50
247.8833368686184997
 51
292.1166631313845983
  0
LINE
  5
2101
  8
0
 10
19.165503837974029
 20
70.7231526130489669
 30
0.0
 11
27.1655038379931284
 21
70.7231526130489669
 31
0.0
  0
LINE
  5
2102
  8
0
 10
19.2655038379988284
 20
70.9979003550394339
 30
0.0
 11
27.0655038379683184
 21
70.9979003550394339
 31
0.0
  0
LINE
  5
2103
  8
0
 10
19.1655038379834615
 20
63.523152613093977
 30
0.0
 11
27.1655038379836888
 21
63.523152613093977
 31
0.0
  0
LINE
  5
2104
  8
0
 10
20.1535541873944908
 20
61.8117992074407425
 30
0.0
 11
26.1774534885726098
 21
61.811799207440707
 31
0.0
  0
CIRCLE
  5
211A
  8
0
 10
86.3405219216934938
 20
28.146893938571079
 30
0.0
 40
12.0
  0
ENDSEC
  0
EOF
