  0
SECTION
  2
HEADER
  9
$ACADVER
  1
AC1009
  9
$INSBASE
 10
0.0
 20
0.0
 30
0.0
  9
$EXTMIN
 10
0.0
 20
-1.4802182810368341
 30
0.0
  9
$EXTMAX
 10
176.4773215042228003
 20
169.2046893957725899
 30
0.0
  9
$LIMMIN
 10
0.0
 20
0.0
  9
$LIMMAX
 10
187.5
 20
135.0
  9
$ORTHOMODE
 70
     0
  9
$REGENMODE
 70
     1
  9
$FILLMODE
 70
     1
  9
$QTEXTMODE
 70
     0
  9
$MIRRTEXT
 70
     0
  9
$DRAGMODE
 70
     2
  9
$LTSCALE
 40
5.0
  9
$OSMODE
 70
    37
  9
$ATTMODE
 70
     1
  9
$TEXTSIZE
 40
4.0
  9
$TRACEWID
 40
0.05
  9
$TEXTSTYLE
  7
STANDARD
  9
$CLAYER
  8
0
  9
$CELTYPE
  6
BYLAYER
  9
$CECOLOR
 62
   256
  9
$DIMSCALE
 40
0.5
  9
$DIMASZ
 40
3.0
  9
$DIMEXO
 40
2.0
  9
$DIMDLI
 40
0.38
  9
$DIMRND
 40
0.0
  9
$DIMDLE
 40
0.0
  9
$DIMEXE
 40
2.0
  9
$DIMTP
 40
0.0
  9
$DIMTM
 40
0.0
  9
$DIMTXT
 40
3.0
  9
$DIMCEN
 40
0.0
  9
$DIMTSZ
 40
0.0
  9
$DIMTOL
 70
     0
  9
$DIMLIM
 70
     0
  9
$DIMTIH
 70
     0
  9
$DIMTOH
 70
     0
  9
$DIMSE1
 70
     0
  9
$DIMSE2
 70
     0
  9
$DIMTAD
 70
     1
  9
$DIMZIN
 70
     0
  9
$DIMBLK
  1

  9
$DIMASO
 70
     0
  9
$DIMSHO
 70
     0
  9
$DIMPOST
  1

  9
$DIMAPOST
  1

  9
$DIMALT
 70
     0
  9
$DIMALTD
 70
     2
  9
$DIMALTF
 40
25.3999999999999986
  9
$DIMLFAC
 40
1.0
  9
$DIMTOFL
 70
     0
  9
$DIMTVP
 40
1.6000000000000001
  9
$DIMTIX
 70
     1
  9
$DIMSOXD
 70
     0
  9
$DIMSAH
 70
     0
  9
$DIMBLK1
  1

  9
$DIMBLK2
  1

  9
$DIMSTYLE
  2
STANDARD
  9
$DIMCLRD
 70
     0
  9
$DIMCLRE
 70
     0
  9
$DIMCLRT
 70
     0
  9
$DIMTFAC
 40
1.0
  9
$DIMGAP
 40
0.09
  9
$LUNITS
 70
     2
  9
$LUPREC
 70
     1
  9
$SKETCHINC
 40
0.1
  9
$FILLETRAD
 40
1.0
  9
$AUNITS
 70
     0
  9
$AUPREC
 70
     0
  9
$MENU
  1
E:\r13\win\SUPPORT\ACAD
  9
$ELEVATION
 40
0.0
  9
$PELEVATION
 40
0.0
  9
$THICKNESS
 40
0.0
  9
$LIMCHECK
 70
     0
  9
$BLIPMODE
 70
     0
  9
$CHAMFERA
 40
0.0
  9
$CHAMFERB
 40
0.0
  9
$SKPOLY
 70
     0
  9
$TDCREATE
 40
2449840.6143865738995373
  9
$TDUPDATE
 40
2460516.6897106477990746
  9
$TDINDWG
 40
0.4373489236
  9
$TDUSRTIMER
 40
0.4373489236
  9
$USRTIMER
 70
     1
  9
$ANGBASE
 50
0.0
  9
$ANGDIR
 70
     0
  9
$PDMODE
 70
     0
  9
$PDSIZE
 40
0.0
  9
$PLINEWID
 40
0.0
  9
$COORDS
 70
     1
  9
$SPLFRAME
 70
     0
  9
$SPLINETYPE
 70
     6
  9
$SPLINESEGS
 70
     8
  9
$ATTDIA
 70
     1
  9
$ATTREQ
 70
     1
  9
$HANDLING
 70
     1
  9
$HANDSEED
  5
2FF2
  9
$SURFTAB1
 70
     6
  9
$SURFTAB2
 70
     6
  9
$SURFTYPE
 70
     6
  9
$SURFU
 70
     6
  9
$SURFV
 70
     6
  9
$UCSNAME
  2

  9
$UCSORG
 10
0.0
 20
0.0
 30
0.0
  9
$UCSXDIR
 10
1.0
 20
0.0
 30
0.0
  9
$UCSYDIR
 10
0.0
 20
1.0
 30
0.0
  9
$PUCSNAME
  2

  9
$PUCSORG
 10
0.0
 20
0.0
 30
0.0
  9
$PUCSXDIR
 10
1.0
 20
0.0
 30
0.0
  9
$PUCSYDIR
 10
0.0
 20
1.0
 30
0.0
  9
$USERI1
 70
     0
  9
$USERI2
 70
     1
  9
$USERI3
 70
     1
  9
$USERI4
 70
     0
  9
$USERI5
 70
     0
  9
$USERR1
 40
0.0
  9
$USERR2
 40
0.0
  9
$USERR3
 40
0.0
  9
$USERR4
 40
0.0
  9
$USERR5
 40
0.0
  9
$WORLDVIEW
 70
     1
  9
$SHADEDGE
 70
     3
  9
$SHADEDIF
 70
    70
  9
$TILEMODE
 70
     1
  9
$MAXACTVP
 70
    16
  9
$PLIMCHECK
 70
     0
  9
$PEXTMIN
 10
1.0000000000000000E+20
 20
1.0000000000000000E+20
 30
1.0000000000000000E+20
  9
$PEXTMAX
 10
-1.0000000000000000E+20
 20
-1.0000000000000000E+20
 30
-1.0000000000000000E+20
  9
$PLIMMIN
 10
0.0
 20
0.0
  9
$PLIMMAX
 10
12.0
 20
9.0
  9
$UNITMODE
 70
     0
  9
$VISRETAIN
 70
     0
  9
$PLINEGEN
 70
     0
  9
$PSLTSCALE
 70
     0
  0
ENDSEC
  0
SECTION
  2
TABLES
  0
TABLE
  2
VPORT
 70
     1
  0
VPORT
  2
*ACTIVE
 70
     0
 10
0.0
 20
0.0
 11
1.0
 21
1.0
 12
270.0936741511403056
 22
115.0
 13
0.0
 23
0.0
 14
5.0
 24
5.0
 15
5.0
 25
5.0
 16
0.0
 26
0.0
 36
1.0
 17
0.0
 27
0.0
 37
0.0
 40
230.0599998120719079
 41
2.3485221674876842
 42
50.0
 43
0.0
 44
0.0
 50
0.0
 51
0.0
 71
     0
 72
   100
 73
     1
 74
     0
 75
     0
 76
     0
 77
     0
 78
     0
  0
ENDTAB
  0
TABLE
  2
LTYPE
 70
     2
  0
LTYPE
  2
CONTINUOUS
 70
     0
  3
Solid Line
 72
    65
 73
     0
 40
0.0
  0
LTYPE
  2
CENTER
 70
     0
  3
____ _ ____ _ ____ _ ____ _ ____ _ ____ _ ____
 72
    65
 73
     4
 40
2.0
 49
1.25
 49
-0.25
 49
0.25
 49
-0.25
  0
ENDTAB
  0
TABLE
  2
LAYER
 70
     4
  0
LAYER
  2
0
 70
     0
 62
     7
  6
CONTINUOUS
  0
LAYER
  2
1
 70
     0
 62
     1
  6
CENTER
  0
LAYER
  2
3
 70
     0
 62
     3
  6
CONTINUOUS
  0
LAYER
  2
ITTEN
 70
     0
 62
     1
  6
CENTER
  0
ENDTAB
  0
TABLE
  2
STYLE
 70
     2
  0
STYLE
  2
STANDARD
 70
     0
 40
0.0
 41
1.0
 50
0.0
 71
     0
 42
4.0
  3
TXT
  4
BIGFONT
  0
STYLE
  2
STANDARD1
 70
     0
 40
0.0
 41
1.0
 50
0.0
 71
     0
 42
3.0
  3
txt
  4

  0
ENDTAB
  0
TABLE
  2
VIEW
 70
     1
  0
VIEW
  2
ALL
 70
     0
 40
179.6615229999999883
 10
141.9039180000000044
 20
89.8307609999999954
 41
0.0
 11
0.0
 21
0.0
 31
1.0
 12
0.0
 22
0.0
 32
0.0
 42
0.0
 43
0.0
 44
0.0
 50
0.0
 71
     0
  0
ENDTAB
  0
TABLE
  2
UCS
 70
     0
  0
ENDTAB
  0
TABLE
  2
APPID
 70
     7
  0
APPID
  2
ACAD
 70
     0
  0
APPID
  2
DCO15
 70
     0
  0
APPID
  2
ACAD_MLEADERVER
 70
     0
  0
APPID
  2
ACAD_NAV_VCDISPLAY
 70
     0
  0
APPID
  2
ACAD_EXEMPT_FROM_CAD_STANDARDS
 70
     0
  0
APPID
  2
ACAD_DSTYLE_DIMJAG
 70
     0
  0
APPID
  2
ACAD_DSTYLE_DIMTALN
 70
     0
  0
ENDTAB
  0
TABLE
  2
DIMSTYLE
 70
     2
  0
DIMSTYLE
  2
STANDARD
 70
     0
  3

  4

  5

  6

  7

 40
1.0
 41
0.18
 42
0.0625
 43
0.38
 44
0.18
 45
0.0
 46
0.0
 47
0.0
 48
0.0
140
0.18
141
0.09
142
0.0
143
25.3999999999999986
144
1.0
145
0.0
146
1.0
147
0.09
 71
     0
 72
     0
 73
     1
 74
     1
 75
     0
 76
     0
 77
     0
 78
     0
170
     0
171
     2
172
     0
173
     0
174
     0
175
     0
176
     0
177
     0
178
     0
  0
DIMSTYLE
  2
ISO-25
 70
     0
  3

  4

  5

  6

  7

 40
1.0
 41
2.5
 42
0.625
 43
3.75
 44
1.25
 45
0.0
 46
0.0
 47
0.0
 48
0.0
140
2.5
141
2.5
142
0.0
143
0.03937007874016
144
1.0
145
0.0
146
1.0
147
0.625
 71
     0
 72
     0
 73
     0
 74
     0
 75
     0
 76
     0
 77
     1
 78
     8
170
     0
171
     3
172
     1
173
     0
174
     0
175
     0
176
     0
177
     0
178
     0
  0
ENDTAB
  0
ENDSEC
  0
SECTION
  2
BLOCKS
  0
BLOCK
  8
0
  2
$MODEL_SPACE
 70
     0
 10
0.0
 20
0.0
 30
0.0
  3
$MODEL_SPACE
  1

  0
ENDBLK
  5
1BD
  8
0
  0
BLOCK
 67
     1
  8
0
  2
$PAPER_SPACE
 70
     0
 10
0.0
 20
0.0
 30
0.0
  3
$PAPER_SPACE
  1

  0
ENDBLK
  5
1BB
 67
     1
  8
0
  0
ENDSEC
  0
SECTION
  2
ENTITIES
  0
TEXT
  5
1928
  8
0
 62
     3
 10
0.0
 20
0.0
 30
0.0
 40
5.0
  1
GDX16L-8N-SUS
  7
STANDARD1
  0
LINE
  5
22A7
  8
1
 10
86.3405219216934654
 20
169.2046893957725899
 30
0.0
 11
86.3405219216934654
 21
147.2046893957725899
 31
0.0
  0
LINE
  5
22A8
  8
1
 10
129.3405219216934938
 20
158.2046893957727036
 30
0.0
 11
75.3405219216933659
 21
158.2046893957727036
 31
0.0
  0
LINE
  5
24F6
  8
0
 10
78.975061990365333
 20
161.3271883949718131
 30
0.0
 11
79.8405219216934654
 21
161.3271883949718131
 31
0.0
  0
POLYLINE
  5
24F7
  8
0
 10
80.4368090113649288
 20
160.9242801578776323
 30
0.0
 66
     1
 70
     8
  0
VERTEX
  8
0
  5
2ADE
 10
80.4368
 20
160.924
 30
0.00000
  70
    32
  0
VERTEX
  8
0
  5
2ADF
 10
80.4325
 20
160.928
 30
0.00000
  70
    32
  0
VERTEX
  8
0
  5
2AE0
 10
80.4281
 20
160.931
 30
0.00000
  70
    32
  0
VERTEX
  8
0
  5
2AE1
 10
80.4238
 20
160.934
 30
0.00000
  70
    32
  0
VERTEX
  8
0
  5
2AE2
 10
80.4194
 20
160.938
 30
0.00000
  70
    32
  0
VERTEX
  8
0
  5
2AE3
 10
80.4151
 20
160.941
 30
0.00000
  70
    32
  0
VERTEX
  8
0
  5
2AE4
 10
80.4107
 20
160.945
 30
0.00000
  70
    32
  0
VERTEX
  8
0
  5
2AE5
 10
80.4064
 20
160.948
 30
0.00000
  70
    32
  0
VERTEX
  8
0
  5
2AE6
 10
80.4020
 20
160.951
 30
0.00000
  70
    32
  0
VERTEX
  8
0
  5
2AE7
 10
80.3976
 20
160.955
 30
0.00000
  70
    32
  0
VERTEX
  8
0
  5
2AE8
 10
80.3932
 20
160.958
 30
0.00000
  70
    32
  0
VERTEX
  8
0
  5
2AE9
 10
80.3889
 20
160.961
 30
0.00000
  70
    32
  0
VERTEX
  8
0
  5
2AEA
 10
80.3845
 20
160.965
 30
0.00000
  70
    32
  0
VERTEX
  8
0
  5
2AEB
 10
80.3801
 20
160.968
 30
0.00000
  70
    32
  0
VERTEX
  8
0
  5
2AEC
 10
80.3757
 20
160.971
 30
0.00000
  70
    32
  0
VERTEX
  8
0
  5
2AED
 10
80.3713
 20
160.975
 30
0.00000
  70
    32
  0
VERTEX
  8
0
  5
2AEE
 10
80.3669
 20
160.978
 30
0.00000
  70
    32
  0
VERTEX
  8
0
  5
2AEF
 10
80.3624
 20
160.981
 30
0.00000
  70
    32
  0
VERTEX
  8
0
  5
2AF0
 10
80.3580
 20
160.985
 30
0.00000
  70
    32
  0
VERTEX
  8
0
  5
2AF1
 10
80.3536
 20
160.988
 30
0.00000
  70
    32
  0
VERTEX
  8
0
  5
2AF2
 10
80.3492
 20
160.991
 30
0.00000
  70
    32
  0
VERTEX
  8
0
  5
2AF3
 10
80.3447
 20
160.995
 30
0.00000
  70
    32
  0
VERTEX
  8
0
  5
2AF4
 10
80.3403
 20
160.998
 30
0.00000
  70
    32
  0
VERTEX
  8
0
  5
2AF5
 10
80.3358
 20
161.001
 30
0.00000
  70
    32
  0
VERTEX
  8
0
  5
2AF6
 10
80.3314
 20
161.005
 30
0.00000
  70
    32
  0
VERTEX
  8
0
  5
2AF7
 10
80.3269
 20
161.008
 30
0.00000
  70
    32
  0
VERTEX
  8
0
  5
2AF8
 10
80.3224
 20
161.011
 30
0.00000
  70
    32
  0
VERTEX
  8
0
  5
2AF9
 10
80.3180
 20
161.015
 30
0.00000
  70
    32
  0
VERTEX
  8
0
  5
2AFA
 10
80.3135
 20
161.018
 30
0.00000
  70
    32
  0
VERTEX
  8
0
  5
2AFB
 10
80.3090
 20
161.021
 30
0.00000
  70
    32
  0
VERTEX
  8
0
  5
2AFC
 10
80.3045
 20
161.024
 30
0.00000
  70
    32
  0
VERTEX
  8
0
  5
2AFD
 10
80.3000
 20
161.028
 30
0.00000
  70
    32
  0
VERTEX
  8
0
  5
2AFE
 10
80.2955
 20
161.031
 30
0.00000
  70
    32
  0
VERTEX
  8
0
  5
2AFF
 10
80.2910
 20
161.034
 30
0.00000
  70
    32
  0
VERTEX
  8
0
  5
2B00
 10
80.2865
 20
161.037
 30
0.00000
  70
    32
  0
VERTEX
  8
0
  5
2B01
 10
80.2820
 20
161.041
 30
0.00000
  70
    32
  0
VERTEX
  8
0
  5
2B02
 10
80.2775
 20
161.044
 30
0.00000
  70
    32
  0
VERTEX
  8
0
  5
2B03
 10
80.2730
 20
161.047
 30
0.00000
  70
    32
  0
VERTEX
  8
0
  5
2B04
 10
80.2685
 20
161.051
 30
0.00000
  70
    32
  0
VERTEX
  8
0
  5
2B05
 10
80.2639
 20
161.054
 30
0.00000
  70
    32
  0
VERTEX
  8
0
  5
2B06
 10
80.2594
 20
161.057
 30
0.00000
  70
    32
  0
VERTEX
  8
0
  5
2B07
 10
80.2548
 20
161.060
 30
0.00000
  70
    32
  0
VERTEX
  8
0
  5
2B08
 10
80.2503
 20
161.064
 30
0.00000
  70
    32
  0
VERTEX
  8
0
  5
2B09
 10
80.2457
 20
161.067
 30
0.00000
  70
    32
  0
VERTEX
  8
0
  5
2B0A
 10
80.2412
 20
161.070
 30
0.00000
  70
    32
  0
VERTEX
  8
0
  5
2B0B
 10
80.2366
 20
161.073
 30
0.00000
  70
    32
  0
VERTEX
  8
0
  5
2B0C
 10
80.2320
 20
161.076
 30
0.00000
  70
    32
  0
VERTEX
  8
0
  5
2B0D
 10
80.2275
 20
161.080
 30
0.00000
  70
    32
  0
VERTEX
  8
0
  5
2B0E
 10
80.2229
 20
161.083
 30
0.00000
  70
    32
  0
VERTEX
  8
0
  5
2B0F
 10
80.2183
 20
161.086
 30
0.00000
  70
    32
  0
VERTEX
  8
0
  5
2B10
 10
80.2137
 20
161.089
 30
0.00000
  70
    32
  0
VERTEX
  8
0
  5
2B11
 10
80.2091
 20
161.092
 30
0.00000
  70
    32
  0
VERTEX
  8
0
  5
2B12
 10
80.2045
 20
161.096
 30
0.00000
  70
    32
  0
VERTEX
  8
0
  5
2B13
 10
80.1999
 20
161.099
 30
0.00000
  70
    32
  0
VERTEX
  8
0
  5
2B14
 10
80.1953
 20
161.102
 30
0.00000
  70
    32
  0
VERTEX
  8
0
  5
2B15
 10
80.1907
 20
161.105
 30
0.00000
  70
    32
  0
VERTEX
  8
0
  5
2B16
 10
80.1861
 20
161.108
 30
0.00000
  70
    32
  0
VERTEX
  8
0
  5
2B17
 10
80.1814
 20
161.112
 30
0.00000
  70
    32
  0
VERTEX
  8
0
  5
2B18
 10
80.1768
 20
161.115
 30
0.00000
  70
    32
  0
VERTEX
  8
0
  5
2B19
 10
80.1722
 20
161.118
 30
0.00000
  70
    32
  0
VERTEX
  8
0
  5
2B1A
 10
80.1675
 20
161.121
 30
0.00000
  70
    32
  0
VERTEX
  8
0
  5
2B1B
 10
80.1629
 20
161.124
 30
0.00000
  70
    32
  0
VERTEX
  8
0
  5
2B1C
 10
80.1582
 20
161.127
 30
0.00000
  70
    32
  0
VERTEX
  8
0
  5
2B1D
 10
80.1536
 20
161.131
 30
0.00000
  70
    32
  0
VERTEX
  8
0
  5
2B1E
 10
80.1489
 20
161.134
 30
0.00000
  70
    32
  0
VERTEX
  8
0
  5
2B1F
 10
80.1443
 20
161.137
 30
0.00000
  70
    32
  0
VERTEX
  8
0
  5
2B20
 10
80.1396
 20
161.140
 30
0.00000
  70
    32
  0
VERTEX
  8
0
  5
2B21
 10
80.1349
 20
161.143
 30
0.00000
  70
    32
  0
VERTEX
  8
0
  5
2B22
 10
80.1302
 20
161.146
 30
0.00000
  70
    32
  0
VERTEX
  8
0
  5
2B23
 10
80.1256
 20
161.149
 30
0.00000
  70
    32
  0
VERTEX
  8
0
  5
2B24
 10
80.1209
 20
161.153
 30
0.00000
  70
    32
  0
VERTEX
  8
0
  5
2B25
 10
80.1162
 20
161.156
 30
0.00000
  70
    32
  0
VERTEX
  8
0
  5
2B26
 10
80.1115
 20
161.159
 30
0.00000
  70
    32
  0
VERTEX
  8
0
  5
2B27
 10
80.1068
 20
161.162
 30
0.00000
  70
    32
  0
VERTEX
  8
0
  5
2B28
 10
80.1021
 20
161.165
 30
0.00000
  70
    32
  0
VERTEX
  8
0
  5
2B29
 10
80.0973
 20
161.168
 30
0.00000
  70
    32
  0
VERTEX
  8
0
  5
2B2A
 10
80.0926
 20
161.171
 30
0.00000
  70
    32
  0
VERTEX
  8
0
  5
2B2B
 10
80.0879
 20
161.174
 30
0.00000
  70
    32
  0
VERTEX
  8
0
  5
2B2C
 10
80.0832
 20
161.177
 30
0.00000
  70
    32
  0
VERTEX
  8
0
  5
2B2D
 10
80.0784
 20
161.181
 30
0.00000
  70
    32
  0
VERTEX
  8
0
  5
2B2E
 10
80.0737
 20
161.184
 30
0.00000
  70
    32
  0
VERTEX
  8
0
  5
2B2F
 10
80.0689
 20
161.187
 30
0.00000
  70
    32
  0
VERTEX
  8
0
  5
2B30
 10
80.0642
 20
161.190
 30
0.00000
  70
    32
  0
VERTEX
  8
0
  5
2B31
 10
80.0594
 20
161.193
 30
0.00000
  70
    32
  0
VERTEX
  8
0
  5
2B32
 10
80.0547
 20
161.196
 30
0.00000
  70
    32
  0
VERTEX
  8
0
  5
2B33
 10
80.0499
 20
161.199
 30
0.00000
  70
    32
  0
VERTEX
  8
0
  5
2B34
 10
80.0451
 20
161.202
 30
0.00000
  70
    32
  0
VERTEX
  8
0
  5
2B35
 10
80.0404
 20
161.205
 30
0.00000
  70
    32
  0
VERTEX
  8
0
  5
2B36
 10
80.0356
 20
161.208
 30
0.00000
  70
    32
  0
VERTEX
  8
0
  5
2B37
 10
80.0308
 20
161.211
 30
0.00000
  70
    32
  0
VERTEX
  8
0
  5
2B38
 10
80.0260
 20
161.214
 30
0.00000
  70
    32
  0
VERTEX
  8
0
  5
2B39
 10
80.0212
 20
161.217
 30
0.00000
  70
    32
  0
VERTEX
  8
0
  5
2B3A
 10
80.0164
 20
161.220
 30
0.00000
  70
    32
  0
VERTEX
  8
0
  5
2B3B
 10
80.0116
 20
161.223
 30
0.00000
  70
    32
  0
VERTEX
  8
0
  5
2B3C
 10
80.0068
 20
161.226
 30
0.00000
  70
    32
  0
VERTEX
  8
0
  5
2B3D
 10
80.0020
 20
161.230
 30
0.00000
  70
    32
  0
VERTEX
  8
0
  5
2B3E
 10
79.9972
 20
161.233
 30
0.00000
  70
    32
  0
VERTEX
  8
0
  5
2B3F
 10
79.9924
 20
161.236
 30
0.00000
  70
    32
  0
VERTEX
  8
0
  5
2B40
 10
79.9875
 20
161.239
 30
0.00000
  70
    32
  0
VERTEX
  8
0
  5
2B41
 10
79.9827
 20
161.242
 30
0.00000
  70
    32
  0
VERTEX
  8
0
  5
2B42
 10
79.9779
 20
161.245
 30
0.00000
  70
    32
  0
VERTEX
  8
0
  5
2B43
 10
79.9730
 20
161.248
 30
0.00000
  70
    32
  0
VERTEX
  8
0
  5
2B44
 10
79.9682
 20
161.251
 30
0.00000
  70
    32
  0
VERTEX
  8
0
  5
2B45
 10
79.9633
 20
161.254
 30
0.00000
  70
    32
  0
VERTEX
  8
0
  5
2B46
 10
79.9585
 20
161.257
 30
0.00000
  70
    32
  0
VERTEX
  8
0
  5
2B47
 10
79.9536
 20
161.260
 30
0.00000
  70
    32
  0
VERTEX
  8
0
  5
2B48
 10
79.9488
 20
161.263
 30
0.00000
  70
    32
  0
VERTEX
  8
0
  5
2B49
 10
79.9439
 20
161.266
 30
0.00000
  70
    32
  0
VERTEX
  8
0
  5
2B4A
 10
79.9390
 20
161.269
 30
0.00000
  70
    32
  0
VERTEX
  8
0
  5
2B4B
 10
79.9341
 20
161.272
 30
0.00000
  70
    32
  0
VERTEX
  8
0
  5
2B4C
 10
79.9292
 20
161.274
 30
0.00000
  70
    32
  0
VERTEX
  8
0
  5
2B4D
 10
79.9244
 20
161.277
 30
0.00000
  70
    32
  0
VERTEX
  8
0
  5
2B4E
 10
79.9195
 20
161.280
 30
0.00000
  70
    32
  0
VERTEX
  8
0
  5
2B4F
 10
79.9146
 20
161.283
 30
0.00000
  70
    32
  0
VERTEX
  8
0
  5
2B50
 10
79.9097
 20
161.286
 30
0.00000
  70
    32
  0
VERTEX
  8
0
  5
2B51
 10
79.9047
 20
161.289
 30
0.00000
  70
    32
  0
VERTEX
  8
0
  5
2B52
 10
79.8998
 20
161.292
 30
0.00000
  70
    32
  0
VERTEX
  8
0
  5
2B53
 10
79.8949
 20
161.295
 30
0.00000
  70
    32
  0
VERTEX
  8
0
  5
2B54
 10
79.8900
 20
161.298
 30
0.00000
  70
    32
  0
VERTEX
  8
0
  5
2B55
 10
79.8851
 20
161.301
 30
0.00000
  70
    32
  0
VERTEX
  8
0
  5
2B56
 10
79.8801
 20
161.304
 30
0.00000
  70
    32
  0
VERTEX
  8
0
  5
2B57
 10
79.8752
 20
161.307
 30
0.00000
  70
    32
  0
VERTEX
  8
0
  5
2B58
 10
79.8703
 20
161.310
 30
0.00000
  70
    32
  0
VERTEX
  8
0
  5
2B59
 10
79.8653
 20
161.313
 30
0.00000
  70
    32
  0
VERTEX
  8
0
  5
2B5A
 10
79.8604
 20
161.316
 30
0.00000
  70
    32
  0
VERTEX
  8
0
  5
2B5B
 10
79.8554
 20
161.318
 30
0.00000
  70
    32
  0
VERTEX
  8
0
  5
2B5C
 10
79.8505
 20
161.321
 30
0.00000
  70
    32
  0
VERTEX
  8
0
  5
2B5D
 10
79.8455
 20
161.324
 30
0.00000
  70
    32
  0
VERTEX
  8
0
  5
2B5E
 10
79.8405
 20
161.327
 30
0.00000
  70
    32
  0
SEQEND
  8
0
  5
2B5F
  0
ARC
  5
24F8
  8
0
 10
86.3405219391088679
 20
158.2046893985908014
 30
0.0
 40
6.5000000169968652
 50
155.2664757741312087
 51
204.7335245212017867
  0
POLYLINE
  5
24F9
  8
0
 10
79.8405220276350605
 20
155.0821904581996478
 30
0.0
 66
     1
 70
     8
  0
VERTEX
  8
0
  5
2B60
 10
79.8405
 20
155.082
 30
0.00000
  70
    32
  0
VERTEX
  8
0
  5
2B61
 10
79.8455
 20
155.085
 30
0.00000
  70
    32
  0
VERTEX
  8
0
  5
2B62
 10
79.8505
 20
155.088
 30
0.00000
  70
    32
  0
VERTEX
  8
0
  5
2B63
 10
79.8554
 20
155.091
 30
0.00000
  70
    32
  0
VERTEX
  8
0
  5
2B64
 10
79.8604
 20
155.094
 30
0.00000
  70
    32
  0
VERTEX
  8
0
  5
2B65
 10
79.8653
 20
155.097
 30
0.00000
  70
    32
  0
VERTEX
  8
0
  5
2B66
 10
79.8703
 20
155.100
 30
0.00000
  70
    32
  0
VERTEX
  8
0
  5
2B67
 10
79.8752
 20
155.103
 30
0.00000
  70
    32
  0
VERTEX
  8
0
  5
2B68
 10
79.8801
 20
155.105
 30
0.00000
  70
    32
  0
VERTEX
  8
0
  5
2B69
 10
79.8851
 20
155.108
 30
0.00000
  70
    32
  0
VERTEX
  8
0
  5
2B6A
 10
79.8900
 20
155.111
 30
0.00000
  70
    32
  0
VERTEX
  8
0
  5
2B6B
 10
79.8949
 20
155.114
 30
0.00000
  70
    32
  0
VERTEX
  8
0
  5
2B6C
 10
79.8998
 20
155.117
 30
0.00000
  70
    32
  0
VERTEX
  8
0
  5
2B6D
 10
79.9047
 20
155.120
 30
0.00000
  70
    32
  0
VERTEX
  8
0
  5
2B6E
 10
79.9097
 20
155.123
 30
0.00000
  70
    32
  0
VERTEX
  8
0
  5
2B6F
 10
79.9146
 20
155.126
 30
0.00000
  70
    32
  0
VERTEX
  8
0
  5
2B70
 10
79.9195
 20
155.129
 30
0.00000
  70
    32
  0
VERTEX
  8
0
  5
2B71
 10
79.9244
 20
155.132
 30
0.00000
  70
    32
  0
VERTEX
  8
0
  5
2B72
 10
79.9292
 20
155.135
 30
0.00000
  70
    32
  0
VERTEX
  8
0
  5
2B73
 10
79.9341
 20
155.138
 30
0.00000
  70
    32
  0
VERTEX
  8
0
  5
2B74
 10
79.9390
 20
155.141
 30
0.00000
  70
    32
  0
VERTEX
  8
0
  5
2B75
 10
79.9439
 20
155.144
 30
0.00000
  70
    32
  0
VERTEX
  8
0
  5
2B76
 10
79.9488
 20
155.147
 30
0.00000
  70
    32
  0
VERTEX
  8
0
  5
2B77
 10
79.9536
 20
155.150
 30
0.00000
  70
    32
  0
VERTEX
  8
0
  5
2B78
 10
79.9585
 20
155.153
 30
0.00000
  70
    32
  0
VERTEX
  8
0
  5
2B79
 10
79.9633
 20
155.156
 30
0.00000
  70
    32
  0
VERTEX
  8
0
  5
2B7A
 10
79.9682
 20
155.159
 30
0.00000
  70
    32
  0
VERTEX
  8
0
  5
2B7B
 10
79.9730
 20
155.162
 30
0.00000
  70
    32
  0
VERTEX
  8
0
  5
2B7C
 10
79.9779
 20
155.165
 30
0.00000
  70
    32
  0
VERTEX
  8
0
  5
2B7D
 10
79.9827
 20
155.168
 30
0.00000
  70
    32
  0
VERTEX
  8
0
  5
2B7E
 10
79.9875
 20
155.171
 30
0.00000
  70
    32
  0
VERTEX
  8
0
  5
2B7F
 10
79.9924
 20
155.174
 30
0.00000
  70
    32
  0
VERTEX
  8
0
  5
2B80
 10
79.9972
 20
155.177
 30
0.00000
  70
    32
  0
VERTEX
  8
0
  5
2B81
 10
80.0020
 20
155.180
 30
0.00000
  70
    32
  0
VERTEX
  8
0
  5
2B82
 10
80.0068
 20
155.183
 30
0.00000
  70
    32
  0
VERTEX
  8
0
  5
2B83
 10
80.0116
 20
155.186
 30
0.00000
  70
    32
  0
VERTEX
  8
0
  5
2B84
 10
80.0164
 20
155.189
 30
0.00000
  70
    32
  0
VERTEX
  8
0
  5
2B85
 10
80.0212
 20
155.192
 30
0.00000
  70
    32
  0
VERTEX
  8
0
  5
2B86
 10
80.0260
 20
155.195
 30
0.00000
  70
    32
  0
VERTEX
  8
0
  5
2B87
 10
80.0308
 20
155.198
 30
0.00000
  70
    32
  0
VERTEX
  8
0
  5
2B88
 10
80.0356
 20
155.201
 30
0.00000
  70
    32
  0
VERTEX
  8
0
  5
2B89
 10
80.0404
 20
155.204
 30
0.00000
  70
    32
  0
VERTEX
  8
0
  5
2B8A
 10
80.0451
 20
155.207
 30
0.00000
  70
    32
  0
VERTEX
  8
0
  5
2B8B
 10
80.0499
 20
155.210
 30
0.00000
  70
    32
  0
VERTEX
  8
0
  5
2B8C
 10
80.0547
 20
155.213
 30
0.00000
  70
    32
  0
VERTEX
  8
0
  5
2B8D
 10
80.0594
 20
155.216
 30
0.00000
  70
    32
  0
VERTEX
  8
0
  5
2B8E
 10
80.0642
 20
155.220
 30
0.00000
  70
    32
  0
VERTEX
  8
0
  5
2B8F
 10
80.0689
 20
155.223
 30
0.00000
  70
    32
  0
VERTEX
  8
0
  5
2B90
 10
80.0737
 20
155.226
 30
0.00000
  70
    32
  0
VERTEX
  8
0
  5
2B91
 10
80.0784
 20
155.229
 30
0.00000
  70
    32
  0
VERTEX
  8
0
  5
2B92
 10
80.0832
 20
155.232
 30
0.00000
  70
    32
  0
VERTEX
  8
0
  5
2B93
 10
80.0879
 20
155.235
 30
0.00000
  70
    32
  0
VERTEX
  8
0
  5
2B94
 10
80.0926
 20
155.238
 30
0.00000
  70
    32
  0
VERTEX
  8
0
  5
2B95
 10
80.0973
 20
155.241
 30
0.00000
  70
    32
  0
VERTEX
  8
0
  5
2B96
 10
80.1021
 20
155.244
 30
0.00000
  70
    32
  0
VERTEX
  8
0
  5
2B97
 10
80.1068
 20
155.247
 30
0.00000
  70
    32
  0
VERTEX
  8
0
  5
2B98
 10
80.1115
 20
155.251
 30
0.00000
  70
    32
  0
VERTEX
  8
0
  5
2B99
 10
80.1162
 20
155.254
 30
0.00000
  70
    32
  0
VERTEX
  8
0
  5
2B9A
 10
80.1209
 20
155.257
 30
0.00000
  70
    32
  0
VERTEX
  8
0
  5
2B9B
 10
80.1256
 20
155.260
 30
0.00000
  70
    32
  0
VERTEX
  8
0
  5
2B9C
 10
80.1302
 20
155.263
 30
0.00000
  70
    32
  0
VERTEX
  8
0
  5
2B9D
 10
80.1349
 20
155.266
 30
0.00000
  70
    32
  0
VERTEX
  8
0
  5
2B9E
 10
80.1396
 20
155.269
 30
0.00000
  70
    32
  0
VERTEX
  8
0
  5
2B9F
 10
80.1443
 20
155.272
 30
0.00000
  70
    32
  0
VERTEX
  8
0
  5
2BA0
 10
80.1489
 20
155.276
 30
0.00000
  70
    32
  0
VERTEX
  8
0
  5
2BA1
 10
80.1536
 20
155.279
 30
0.00000
  70
    32
  0
VERTEX
  8
0
  5
2BA2
 10
80.1582
 20
155.282
 30
0.00000
  70
    32
  0
VERTEX
  8
0
  5
2BA3
 10
80.1629
 20
155.285
 30
0.00000
  70
    32
  0
VERTEX
  8
0
  5
2BA4
 10
80.1675
 20
155.288
 30
0.00000
  70
    32
  0
VERTEX
  8
0
  5
2BA5
 10
80.1722
 20
155.291
 30
0.00000
  70
    32
  0
VERTEX
  8
0
  5
2BA6
 10
80.1768
 20
155.295
 30
0.00000
  70
    32
  0
VERTEX
  8
0
  5
2BA7
 10
80.1814
 20
155.298
 30
0.00000
  70
    32
  0
VERTEX
  8
0
  5
2BA8
 10
80.1861
 20
155.301
 30
0.00000
  70
    32
  0
VERTEX
  8
0
  5
2BA9
 10
80.1907
 20
155.304
 30
0.00000
  70
    32
  0
VERTEX
  8
0
  5
2BAA
 10
80.1953
 20
155.307
 30
0.00000
  70
    32
  0
VERTEX
  8
0
  5
2BAB
 10
80.1999
 20
155.311
 30
0.00000
  70
    32
  0
VERTEX
  8
0
  5
2BAC
 10
80.2045
 20
155.314
 30
0.00000
  70
    32
  0
VERTEX
  8
0
  5
2BAD
 10
80.2091
 20
155.317
 30
0.00000
  70
    32
  0
VERTEX
  8
0
  5
2BAE
 10
80.2137
 20
155.320
 30
0.00000
  70
    32
  0
VERTEX
  8
0
  5
2BAF
 10
80.2183
 20
155.323
 30
0.00000
  70
    32
  0
VERTEX
  8
0
  5
2BB0
 10
80.2229
 20
155.327
 30
0.00000
  70
    32
  0
VERTEX
  8
0
  5
2BB1
 10
80.2275
 20
155.330
 30
0.00000
  70
    32
  0
VERTEX
  8
0
  5
2BB2
 10
80.2320
 20
155.333
 30
0.00000
  70
    32
  0
VERTEX
  8
0
  5
2BB3
 10
80.2366
 20
155.336
 30
0.00000
  70
    32
  0
VERTEX
  8
0
  5
2BB4
 10
80.2412
 20
155.339
 30
0.00000
  70
    32
  0
VERTEX
  8
0
  5
2BB5
 10
80.2457
 20
155.343
 30
0.00000
  70
    32
  0
VERTEX
  8
0
  5
2BB6
 10
80.2503
 20
155.346
 30
0.00000
  70
    32
  0
VERTEX
  8
0
  5
2BB7
 10
80.2548
 20
155.349
 30
0.00000
  70
    32
  0
VERTEX
  8
0
  5
2BB8
 10
80.2594
 20
155.352
 30
0.00000
  70
    32
  0
VERTEX
  8
0
  5
2BB9
 10
80.2639
 20
155.356
 30
0.00000
  70
    32
  0
VERTEX
  8
0
  5
2BBA
 10
80.2685
 20
155.359
 30
0.00000
  70
    32
  0
VERTEX
  8
0
  5
2BBB
 10
80.2730
 20
155.362
 30
0.00000
  70
    32
  0
VERTEX
  8
0
  5
2BBC
 10
80.2775
 20
155.365
 30
0.00000
  70
    32
  0
VERTEX
  8
0
  5
2BBD
 10
80.2820
 20
155.369
 30
0.00000
  70
    32
  0
VERTEX
  8
0
  5
2BBE
 10
80.2865
 20
155.372
 30
0.00000
  70
    32
  0
VERTEX
  8
0
  5
2BBF
 10
80.2910
 20
155.375
 30
0.00000
  70
    32
  0
VERTEX
  8
0
  5
2BC0
 10
80.2955
 20
155.378
 30
0.00000
  70
    32
  0
VERTEX
  8
0
  5
2BC1
 10
80.3000
 20
155.382
 30
0.00000
  70
    32
  0
VERTEX
  8
0
  5
2BC2
 10
80.3045
 20
155.385
 30
0.00000
  70
    32
  0
VERTEX
  8
0
  5
2BC3
 10
80.3090
 20
155.388
 30
0.00000
  70
    32
  0
VERTEX
  8
0
  5
2BC4
 10
80.3135
 20
155.392
 30
0.00000
  70
    32
  0
VERTEX
  8
0
  5
2BC5
 10
80.3180
 20
155.395
 30
0.00000
  70
    32
  0
VERTEX
  8
0
  5
2BC6
 10
80.3224
 20
155.398
 30
0.00000
  70
    32
  0
VERTEX
  8
0
  5
2BC7
 10
80.3269
 20
155.401
 30
0.00000
  70
    32
  0
VERTEX
  8
0
  5
2BC8
 10
80.3314
 20
155.405
 30
0.00000
  70
    32
  0
VERTEX
  8
0
  5
2BC9
 10
80.3358
 20
155.408
 30
0.00000
  70
    32
  0
VERTEX
  8
0
  5
2BCA
 10
80.3403
 20
155.411
 30
0.00000
  70
    32
  0
VERTEX
  8
0
  5
2BCB
 10
80.3447
 20
155.415
 30
0.00000
  70
    32
  0
VERTEX
  8
0
  5
2BCC
 10
80.3492
 20
155.418
 30
0.00000
  70
    32
  0
VERTEX
  8
0
  5
2BCD
 10
80.3536
 20
155.421
 30
0.00000
  70
    32
  0
VERTEX
  8
0
  5
2BCE
 10
80.3580
 20
155.425
 30
0.00000
  70
    32
  0
VERTEX
  8
0
  5
2BCF
 10
80.3624
 20
155.428
 30
0.00000
  70
    32
  0
VERTEX
  8
0
  5
2BD0
 10
80.3669
 20
155.431
 30
0.00000
  70
    32
  0
VERTEX
  8
0
  5
2BD1
 10
80.3713
 20
155.435
 30
0.00000
  70
    32
  0
VERTEX
  8
0
  5
2BD2
 10
80.3757
 20
155.438
 30
0.00000
  70
    32
  0
VERTEX
  8
0
  5
2BD3
 10
80.3801
 20
155.441
 30
0.00000
  70
    32
  0
VERTEX
  8
0
  5
2BD4
 10
80.3845
 20
155.445
 30
0.00000
  70
    32
  0
VERTEX
  8
0
  5
2BD5
 10
80.3889
 20
155.448
 30
0.00000
  70
    32
  0
VERTEX
  8
0
  5
2BD6
 10
80.3932
 20
155.451
 30
0.00000
  70
    32
  0
VERTEX
  8
0
  5
2BD7
 10
80.3976
 20
155.455
 30
0.00000
  70
    32
  0
VERTEX
  8
0
  5
2BD8
 10
80.4020
 20
155.458
 30
0.00000
  70
    32
  0
VERTEX
  8
0
  5
2BD9
 10
80.4064
 20
155.461
 30
0.00000
  70
    32
  0
VERTEX
  8
0
  5
2BDA
 10
80.4107
 20
155.465
 30
0.00000
  70
    32
  0
VERTEX
  8
0
  5
2BDB
 10
80.4151
 20
155.468
 30
0.00000
  70
    32
  0
VERTEX
  8
0
  5
2BDC
 10
80.4194
 20
155.472
 30
0.00000
  70
    32
  0
VERTEX
  8
0
  5
2BDD
 10
80.4238
 20
155.475
 30
0.00000
  70
    32
  0
VERTEX
  8
0
  5
2BDE
 10
80.4281
 20
155.478
 30
0.00000
  70
    32
  0
VERTEX
  8
0
  5
2BDF
 10
80.4325
 20
155.482
 30
0.00000
  70
    32
  0
VERTEX
  8
0
  5
2BE0
 10
80.4368
 20
155.485
 30
0.00000
  70
    32
  0
SEQEND
  8
0
  5
2BE1
  0
LINE
  5
24FA
  8
0
 10
79.8405220441632366
 20
155.0821904432010001
 30
0.0
 11
78.975061990365333
 21
155.0821903965735089
 31
0.0
  0
POLYLINE
  5
24FC
  8
0
 10
93.7400225125899311
 20
161.2456416862051469
 30
0.0
 66
     1
 70
     8
  0
VERTEX
  8
0
  5
2BE2
 10
93.7400
 20
161.246
 30
0.00000
  70
    32
  0
VERTEX
  8
0
  5
2BE3
 10
93.7253
 20
161.255
 30
0.00000
  70
    32
  0
VERTEX
  8
0
  5
2BE4
 10
93.7105
 20
161.264
 30
0.00000
  70
    32
  0
VERTEX
  8
0
  5
2BE5
 10
93.6957
 20
161.273
 30
0.00000
  70
    32
  0
VERTEX
  8
0
  5
2BE6
 10
93.6808
 20
161.282
 30
0.00000
  70
    32
  0
VERTEX
  8
0
  5
2BE7
 10
93.6659
 20
161.291
 30
0.00000
  70
    32
  0
VERTEX
  8
0
  5
2BE8
 10
93.6510
 20
161.300
 30
0.00000
  70
    32
  0
VERTEX
  8
0
  5
2BE9
 10
93.6360
 20
161.309
 30
0.00000
  70
    32
  0
VERTEX
  8
0
  5
2BEA
 10
93.6209
 20
161.317
 30
0.00000
  70
    32
  0
VERTEX
  8
0
  5
2BEB
 10
93.6059
 20
161.326
 30
0.00000
  70
    32
  0
VERTEX
  8
0
  5
2BEC
 10
93.5907
 20
161.335
 30
0.00000
  70
    32
  0
VERTEX
  8
0
  5
2BED
 10
93.5756
 20
161.344
 30
0.00000
  70
    32
  0
VERTEX
  8
0
  5
2BEE
 10
93.5604
 20
161.353
 30
0.00000
  70
    32
  0
VERTEX
  8
0
  5
2BEF
 10
93.5451
 20
161.361
 30
0.00000
  70
    32
  0
VERTEX
  8
0
  5
2BF0
 10
93.5298
 20
161.370
 30
0.00000
  70
    32
  0
VERTEX
  8
0
  5
2BF1
 10
93.5145
 20
161.378
 30
0.00000
  70
    32
  0
VERTEX
  8
0
  5
2BF2
 10
93.4991
 20
161.387
 30
0.00000
  70
    32
  0
VERTEX
  8
0
  5
2BF3
 10
93.4837
 20
161.395
 30
0.00000
  70
    32
  0
VERTEX
  8
0
  5
2BF4
 10
93.4683
 20
161.404
 30
0.00000
  70
    32
  0
VERTEX
  8
0
  5
2BF5
 10
93.4528
 20
161.412
 30
0.00000
  70
    32
  0
VERTEX
  8
0
  5
2BF6
 10
93.4372
 20
161.421
 30
0.00000
  70
    32
  0
VERTEX
  8
0
  5
2BF7
 10
93.4216
 20
161.429
 30
0.00000
  70
    32
  0
VERTEX
  8
0
  5
2BF8
 10
93.4060
 20
161.437
 30
0.00000
  70
    32
  0
VERTEX
  8
0
  5
2BF9
 10
93.3904
 20
161.446
 30
0.00000
  70
    32
  0
VERTEX
  8
0
  5
2BFA
 10
93.3747
 20
161.454
 30
0.00000
  70
    32
  0
VERTEX
  8
0
  5
2BFB
 10
93.3589
 20
161.462
 30
0.00000
  70
    32
  0
VERTEX
  8
0
  5
2BFC
 10
93.3432
 20
161.470
 30
0.00000
  70
    32
  0
VERTEX
  8
0
  5
2BFD
 10
93.3273
 20
161.478
 30
0.00000
  70
    32
  0
VERTEX
  8
0
  5
2BFE
 10
93.3115
 20
161.486
 30
0.00000
  70
    32
  0
VERTEX
  8
0
  5
2BFF
 10
93.2956
 20
161.494
 30
0.00000
  70
    32
  0
VERTEX
  8
0
  5
2C00
 10
93.2797
 20
161.502
 30
0.00000
  70
    32
  0
VERTEX
  8
0
  5
2C01
 10
93.2637
 20
161.510
 30
0.00000
  70
    32
  0
VERTEX
  8
0
  5
2C02
 10
93.2477
 20
161.518
 30
0.00000
  70
    32
  0
VERTEX
  8
0
  5
2C03
 10
93.2316
 20
161.526
 30
0.00000
  70
    32
  0
VERTEX
  8
0
  5
2C04
 10
93.2155
 20
161.534
 30
0.00000
  70
    32
  0
VERTEX
  8
0
  5
2C05
 10
93.1994
 20
161.542
 30
0.00000
  70
    32
  0
VERTEX
  8
0
  5
2C06
 10
93.1833
 20
161.549
 30
0.00000
  70
    32
  0
VERTEX
  8
0
  5
2C07
 10
93.1671
 20
161.557
 30
0.00000
  70
    32
  0
VERTEX
  8
0
  5
2C08
 10
93.1508
 20
161.565
 30
0.00000
  70
    32
  0
VERTEX
  8
0
  5
2C09
 10
93.1346
 20
161.572
 30
0.00000
  70
    32
  0
VERTEX
  8
0
  5
2C0A
 10
93.1183
 20
161.580
 30
0.00000
  70
    32
  0
VERTEX
  8
0
  5
2C0B
 10
93.1019
 20
161.587
 30
0.00000
  70
    32
  0
VERTEX
  8
0
  5
2C0C
 10
93.0855
 20
161.595
 30
0.00000
  70
    32
  0
VERTEX
  8
0
  5
2C0D
 10
93.0691
 20
161.602
 30
0.00000
  70
    32
  0
VERTEX
  8
0
  5
2C0E
 10
93.0527
 20
161.610
 30
0.00000
  70
    32
  0
VERTEX
  8
0
  5
2C0F
 10
93.0362
 20
161.617
 30
0.00000
  70
    32
  0
VERTEX
  8
0
  5
2C10
 10
93.0196
 20
161.624
 30
0.00000
  70
    32
  0
VERTEX
  8
0
  5
2C11
 10
93.0031
 20
161.632
 30
0.00000
  70
    32
  0
VERTEX
  8
0
  5
2C12
 10
92.9865
 20
161.639
 30
0.00000
  70
    32
  0
VERTEX
  8
0
  5
2C13
 10
92.9699
 20
161.646
 30
0.00000
  70
    32
  0
VERTEX
  8
0
  5
2C14
 10
92.9532
 20
161.653
 30
0.00000
  70
    32
  0
VERTEX
  8
0
  5
2C15
 10
92.9365
 20
161.660
 30
0.00000
  70
    32
  0
VERTEX
  8
0
  5
2C16
 10
92.9198
 20
161.667
 30
0.00000
  70
    32
  0
VERTEX
  8
0
  5
2C17
 10
92.9030
 20
161.674
 30
0.00000
  70
    32
  0
VERTEX
  8
0
  5
2C18
 10
92.8862
 20
161.681
 30
0.00000
  70
    32
  0
VERTEX
  8
0
  5
2C19
 10
92.8694
 20
161.688
 30
0.00000
  70
    32
  0
VERTEX
  8
0
  5
2C1A
 10
92.8525
 20
161.695
 30
0.00000
  70
    32
  0
VERTEX
  8
0
  5
2C1B
 10
92.8356
 20
161.702
 30
0.00000
  70
    32
  0
VERTEX
  8
0
  5
2C1C
 10
92.8187
 20
161.709
 30
0.00000
  70
    32
  0
VERTEX
  8
0
  5
2C1D
 10
92.8017
 20
161.715
 30
0.00000
  70
    32
  0
VERTEX
  8
0
  5
2C1E
 10
92.7847
 20
161.722
 30
0.00000
  70
    32
  0
VERTEX
  8
0
  5
2C1F
 10
92.7677
 20
161.729
 30
0.00000
  70
    32
  0
VERTEX
  8
0
  5
2C20
 10
92.7506
 20
161.736
 30
0.00000
  70
    32
  0
VERTEX
  8
0
  5
2C21
 10
92.7335
 20
161.742
 30
0.00000
  70
    32
  0
VERTEX
  8
0
  5
2C22
 10
92.7164
 20
161.749
 30
0.00000
  70
    32
  0
VERTEX
  8
0
  5
2C23
 10
92.6992
 20
161.755
 30
0.00000
  70
    32
  0
VERTEX
  8
0
  5
2C24
 10
92.6820
 20
161.762
 30
0.00000
  70
    32
  0
VERTEX
  8
0
  5
2C25
 10
92.6648
 20
161.768
 30
0.00000
  70
    32
  0
VERTEX
  8
0
  5
2C26
 10
92.6475
 20
161.774
 30
0.00000
  70
    32
  0
VERTEX
  8
0
  5
2C27
 10
92.6303
 20
161.781
 30
0.00000
  70
    32
  0
VERTEX
  8
0
  5
2C28
 10
92.6129
 20
161.787
 30
0.00000
  70
    32
  0
VERTEX
  8
0
  5
2C29
 10
92.5956
 20
161.793
 30
0.00000
  70
    32
  0
VERTEX
  8
0
  5
2C2A
 10
92.5782
 20
161.799
 30
0.00000
  70
    32
  0
VERTEX
  8
0
  5
2C2B
 10
92.5608
 20
161.806
 30
0.00000
  70
    32
  0
VERTEX
  8
0
  5
2C2C
 10
92.5434
 20
161.812
 30
0.00000
  70
    32
  0
VERTEX
  8
0
  5
2C2D
 10
92.5259
 20
161.818
 30
0.00000
  70
    32
  0
VERTEX
  8
0
  5
2C2E
 10
92.5084
 20
161.824
 30
0.00000
  70
    32
  0
VERTEX
  8
0
  5
2C2F
 10
92.4909
 20
161.830
 30
0.00000
  70
    32
  0
VERTEX
  8
0
  5
2C30
 10
92.4734
 20
161.836
 30
0.00000
  70
    32
  0
VERTEX
  8
0
  5
2C31
 10
92.4558
 20
161.841
 30
0.00000
  70
    32
  0
VERTEX
  8
0
  5
2C32
 10
92.4382
 20
161.847
 30
0.00000
  70
    32
  0
VERTEX
  8
0
  5
2C33
 10
92.4205
 20
161.853
 30
0.00000
  70
    32
  0
VERTEX
  8
0
  5
2C34
 10
92.4029
 20
161.859
 30
0.00000
  70
    32
  0
VERTEX
  8
0
  5
2C35
 10
92.3852
 20
161.865
 30
0.00000
  70
    32
  0
VERTEX
  8
0
  5
2C36
 10
92.3675
 20
161.870
 30
0.00000
  70
    32
  0
VERTEX
  8
0
  5
2C37
 10
92.3497
 20
161.876
 30
0.00000
  70
    32
  0
VERTEX
  8
0
  5
2C38
 10
92.3320
 20
161.881
 30
0.00000
  70
    32
  0
VERTEX
  8
0
  5
2C39
 10
92.3142
 20
161.887
 30
0.00000
  70
    32
  0
VERTEX
  8
0
  5
2C3A
 10
92.2963
 20
161.892
 30
0.00000
  70
    32
  0
VERTEX
  8
0
  5
2C3B
 10
92.2785
 20
161.898
 30
0.00000
  70
    32
  0
VERTEX
  8
0
  5
2C3C
 10
92.2606
 20
161.903
 30
0.00000
  70
    32
  0
VERTEX
  8
0
  5
2C3D
 10
92.2427
 20
161.908
 30
0.00000
  70
    32
  0
VERTEX
  8
0
  5
2C3E
 10
92.2248
 20
161.914
 30
0.00000
  70
    32
  0
VERTEX
  8
0
  5
2C3F
 10
92.2068
 20
161.919
 30
0.00000
  70
    32
  0
VERTEX
  8
0
  5
2C40
 10
92.1888
 20
161.924
 30
0.00000
  70
    32
  0
VERTEX
  8
0
  5
2C41
 10
92.1708
 20
161.929
 30
0.00000
  70
    32
  0
VERTEX
  8
0
  5
2C42
 10
92.1528
 20
161.934
 30
0.00000
  70
    32
  0
VERTEX
  8
0
  5
2C43
 10
92.1347
 20
161.939
 30
0.00000
  70
    32
  0
VERTEX
  8
0
  5
2C44
 10
92.1167
 20
161.944
 30
0.00000
  70
    32
  0
VERTEX
  8
0
  5
2C45
 10
92.0986
 20
161.949
 30
0.00000
  70
    32
  0
VERTEX
  8
0
  5
2C46
 10
92.0804
 20
161.954
 30
0.00000
  70
    32
  0
VERTEX
  8
0
  5
2C47
 10
92.0623
 20
161.959
 30
0.00000
  70
    32
  0
VERTEX
  8
0
  5
2C48
 10
92.0441
 20
161.964
 30
0.00000
  70
    32
  0
VERTEX
  8
0
  5
2C49
 10
92.0259
 20
161.969
 30
0.00000
  70
    32
  0
VERTEX
  8
0
  5
2C4A
 10
92.0077
 20
161.974
 30
0.00000
  70
    32
  0
VERTEX
  8
0
  5
2C4B
 10
91.9894
 20
161.978
 30
0.00000
  70
    32
  0
VERTEX
  8
0
  5
2C4C
 10
91.9712
 20
161.983
 30
0.00000
  70
    32
  0
VERTEX
  8
0
  5
2C4D
 10
91.9529
 20
161.987
 30
0.00000
  70
    32
  0
VERTEX
  8
0
  5
2C4E
 10
91.9346
 20
161.992
 30
0.00000
  70
    32
  0
VERTEX
  8
0
  5
2C4F
 10
91.9163
 20
161.997
 30
0.00000
  70
    32
  0
VERTEX
  8
0
  5
2C50
 10
91.8979
 20
162.001
 30
0.00000
  70
    32
  0
VERTEX
  8
0
  5
2C51
 10
91.8795
 20
162.005
 30
0.00000
  70
    32
  0
VERTEX
  8
0
  5
2C52
 10
91.8611
 20
162.010
 30
0.00000
  70
    32
  0
VERTEX
  8
0
  5
2C53
 10
91.8427
 20
162.014
 30
0.00000
  70
    32
  0
VERTEX
  8
0
  5
2C54
 10
91.8243
 20
162.018
 30
0.00000
  70
    32
  0
VERTEX
  8
0
  5
2C55
 10
91.8058
 20
162.023
 30
0.00000
  70
    32
  0
VERTEX
  8
0
  5
2C56
 10
91.7873
 20
162.027
 30
0.00000
  70
    32
  0
VERTEX
  8
0
  5
2C57
 10
91.7688
 20
162.031
 30
0.00000
  70
    32
  0
VERTEX
  8
0
  5
2C58
 10
91.7503
 20
162.035
 30
0.00000
  70
    32
  0
VERTEX
  8
0
  5
2C59
 10
91.7318
 20
162.039
 30
0.00000
  70
    32
  0
VERTEX
  8
0
  5
2C5A
 10
91.7132
 20
162.043
 30
0.00000
  70
    32
  0
VERTEX
  8
0
  5
2C5B
 10
91.6946
 20
162.047
 30
0.00000
  70
    32
  0
VERTEX
  8
0
  5
2C5C
 10
91.6760
 20
162.051
 30
0.00000
  70
    32
  0
VERTEX
  8
0
  5
2C5D
 10
91.6574
 20
162.055
 30
0.00000
  70
    32
  0
VERTEX
  8
0
  5
2C5E
 10
91.6388
 20
162.058
 30
0.00000
  70
    32
  0
VERTEX
  8
0
  5
2C5F
 10
91.6201
 20
162.062
 30
0.00000
  70
    32
  0
VERTEX
  8
0
  5
2C60
 10
91.6015
 20
162.066
 30
0.00000
  70
    32
  0
VERTEX
  8
0
  5
2C61
 10
91.5828
 20
162.069
 30
0.00000
  70
    32
  0
VERTEX
  8
0
  5
2C62
 10
91.5641
 20
162.073
 30
0.00000
  70
    32
  0
SEQEND
  8
0
  5
2C63
  0
ARC
  5
24FD
  8
0
 10
86.3405219216934654
 20
158.2046893957727036
 30
0.0
 40
6.500000003146666
 50
36.5222613316711033
 51
155.2664757218676073
  0
LINE
  5
24FE
  8
0
 10
79.8405219216934654
 20
161.3271883949718131
 30
0.0
 11
79.8405219216934654
 21
162.8683789223171061
 31
0.0
  0
ARC
  5
24FF
  8
0
 10
86.3405219216933943
 20
158.2046893957725899
 30
0.0
 40
8.0000000000000373
 50
22.3410562655530391
 51
337.6589450956512906
  0
LINE
  5
2501
  8
0
 10
79.8405220441632366
 20
153.5409996985364955
 30
0.0
 11
79.8405220441632366
 21
155.0821904432010001
 31
0.0
  0
ARC
  5
2502
  8
0
 10
86.3405219216934654
 20
158.2046893957727036
 30
0.0
 40
6.5000000000000009
 50
204.7335244172112141
 51
323.4777386743895136
  0
POLYLINE
  5
2503
  8
0
 10
91.5640889119942614
 20
154.3363114702837322
 30
0.0
 66
     1
 70
     8
  0
VERTEX
  8
0
  5
2C64
 10
91.5641
 20
154.336
 30
0.00000
  70
    32
  0
VERTEX
  8
0
  5
2C65
 10
91.5828
 20
154.340
 30
0.00000
  70
    32
  0
VERTEX
  8
0
  5
2C66
 10
91.6015
 20
154.344
 30
0.00000
  70
    32
  0
VERTEX
  8
0
  5
2C67
 10
91.6201
 20
154.347
 30
0.00000
  70
    32
  0
VERTEX
  8
0
  5
2C68
 10
91.6388
 20
154.351
 30
0.00000
  70
    32
  0
VERTEX
  8
0
  5
2C69
 10
91.6574
 20
154.355
 30
0.00000
  70
    32
  0
VERTEX
  8
0
  5
2C6A
 10
91.6760
 20
154.359
 30
0.00000
  70
    32
  0
VERTEX
  8
0
  5
2C6B
 10
91.6946
 20
154.363
 30
0.00000
  70
    32
  0
VERTEX
  8
0
  5
2C6C
 10
91.7132
 20
154.366
 30
0.00000
  70
    32
  0
VERTEX
  8
0
  5
2C6D
 10
91.7318
 20
154.370
 30
0.00000
  70
    32
  0
VERTEX
  8
0
  5
2C6E
 10
91.7503
 20
154.374
 30
0.00000
  70
    32
  0
VERTEX
  8
0
  5
2C6F
 10
91.7688
 20
154.379
 30
0.00000
  70
    32
  0
VERTEX
  8
0
  5
2C70
 10
91.7873
 20
154.383
 30
0.00000
  70
    32
  0
VERTEX
  8
0
  5
2C71
 10
91.8058
 20
154.387
 30
0.00000
  70
    32
  0
VERTEX
  8
0
  5
2C72
 10
91.8243
 20
154.391
 30
0.00000
  70
    32
  0
VERTEX
  8
0
  5
2C73
 10
91.8427
 20
154.395
 30
0.00000
  70
    32
  0
VERTEX
  8
0
  5
2C74
 10
91.8611
 20
154.400
 30
0.00000
  70
    32
  0
VERTEX
  8
0
  5
2C75
 10
91.8795
 20
154.404
 30
0.00000
  70
    32
  0
VERTEX
  8
0
  5
2C76
 10
91.8979
 20
154.408
 30
0.00000
  70
    32
  0
VERTEX
  8
0
  5
2C77
 10
91.9163
 20
154.413
 30
0.00000
  70
    32
  0
VERTEX
  8
0
  5
2C78
 10
91.9346
 20
154.417
 30
0.00000
  70
    32
  0
VERTEX
  8
0
  5
2C79
 10
91.9529
 20
154.422
 30
0.00000
  70
    32
  0
VERTEX
  8
0
  5
2C7A
 10
91.9712
 20
154.426
 30
0.00000
  70
    32
  0
VERTEX
  8
0
  5
2C7B
 10
91.9894
 20
154.431
 30
0.00000
  70
    32
  0
VERTEX
  8
0
  5
2C7C
 10
92.0077
 20
154.436
 30
0.00000
  70
    32
  0
VERTEX
  8
0
  5
2C7D
 10
92.0259
 20
154.441
 30
0.00000
  70
    32
  0
VERTEX
  8
0
  5
2C7E
 10
92.0441
 20
154.445
 30
0.00000
  70
    32
  0
VERTEX
  8
0
  5
2C7F
 10
92.0623
 20
154.450
 30
0.00000
  70
    32
  0
VERTEX
  8
0
  5
2C80
 10
92.0804
 20
154.455
 30
0.00000
  70
    32
  0
VERTEX
  8
0
  5
2C81
 10
92.0986
 20
154.460
 30
0.00000
  70
    32
  0
VERTEX
  8
0
  5
2C82
 10
92.1167
 20
154.465
 30
0.00000
  70
    32
  0
VERTEX
  8
0
  5
2C83
 10
92.1347
 20
154.470
 30
0.00000
  70
    32
  0
VERTEX
  8
0
  5
2C84
 10
92.1528
 20
154.475
 30
0.00000
  70
    32
  0
VERTEX
  8
0
  5
2C85
 10
92.1708
 20
154.480
 30
0.00000
  70
    32
  0
VERTEX
  8
0
  5
2C86
 10
92.1888
 20
154.485
 30
0.00000
  70
    32
  0
VERTEX
  8
0
  5
2C87
 10
92.2068
 20
154.490
 30
0.00000
  70
    32
  0
VERTEX
  8
0
  5
2C88
 10
92.2248
 20
154.496
 30
0.00000
  70
    32
  0
VERTEX
  8
0
  5
2C89
 10
92.2427
 20
154.501
 30
0.00000
  70
    32
  0
VERTEX
  8
0
  5
2C8A
 10
92.2606
 20
154.506
 30
0.00000
  70
    32
  0
VERTEX
  8
0
  5
2C8B
 10
92.2785
 20
154.512
 30
0.00000
  70
    32
  0
VERTEX
  8
0
  5
2C8C
 10
92.2963
 20
154.517
 30
0.00000
  70
    32
  0
VERTEX
  8
0
  5
2C8D
 10
92.3142
 20
154.523
 30
0.00000
  70
    32
  0
VERTEX
  8
0
  5
2C8E
 10
92.3320
 20
154.528
 30
0.00000
  70
    32
  0
VERTEX
  8
0
  5
2C8F
 10
92.3497
 20
154.534
 30
0.00000
  70
    32
  0
VERTEX
  8
0
  5
2C90
 10
92.3675
 20
154.539
 30
0.00000
  70
    32
  0
VERTEX
  8
0
  5
2C91
 10
92.3852
 20
154.545
 30
0.00000
  70
    32
  0
VERTEX
  8
0
  5
2C92
 10
92.4029
 20
154.551
 30
0.00000
  70
    32
  0
VERTEX
  8
0
  5
2C93
 10
92.4205
 20
154.556
 30
0.00000
  70
    32
  0
VERTEX
  8
0
  5
2C94
 10
92.4382
 20
154.562
 30
0.00000
  70
    32
  0
VERTEX
  8
0
  5
2C95
 10
92.4558
 20
154.568
 30
0.00000
  70
    32
  0
VERTEX
  8
0
  5
2C96
 10
92.4734
 20
154.574
 30
0.00000
  70
    32
  0
VERTEX
  8
0
  5
2C97
 10
92.4909
 20
154.580
 30
0.00000
  70
    32
  0
VERTEX
  8
0
  5
2C98
 10
92.5084
 20
154.586
 30
0.00000
  70
    32
  0
VERTEX
  8
0
  5
2C99
 10
92.5259
 20
154.592
 30
0.00000
  70
    32
  0
VERTEX
  8
0
  5
2C9A
 10
92.5434
 20
154.598
 30
0.00000
  70
    32
  0
VERTEX
  8
0
  5
2C9B
 10
92.5608
 20
154.604
 30
0.00000
  70
    32
  0
VERTEX
  8
0
  5
2C9C
 10
92.5782
 20
154.610
 30
0.00000
  70
    32
  0
VERTEX
  8
0
  5
2C9D
 10
92.5956
 20
154.616
 30
0.00000
  70
    32
  0
VERTEX
  8
0
  5
2C9E
 10
92.6129
 20
154.622
 30
0.00000
  70
    32
  0
VERTEX
  8
0
  5
2C9F
 10
92.6303
 20
154.629
 30
0.00000
  70
    32
  0
VERTEX
  8
0
  5
2CA0
 10
92.6475
 20
154.635
 30
0.00000
  70
    32
  0
VERTEX
  8
0
  5
2CA1
 10
92.6648
 20
154.641
 30
0.00000
  70
    32
  0
VERTEX
  8
0
  5
2CA2
 10
92.6820
 20
154.648
 30
0.00000
  70
    32
  0
VERTEX
  8
0
  5
2CA3
 10
92.6992
 20
154.654
 30
0.00000
  70
    32
  0
VERTEX
  8
0
  5
2CA4
 10
92.7164
 20
154.661
 30
0.00000
  70
    32
  0
VERTEX
  8
0
  5
2CA5
 10
92.7335
 20
154.667
 30
0.00000
  70
    32
  0
VERTEX
  8
0
  5
2CA6
 10
92.7506
 20
154.674
 30
0.00000
  70
    32
  0
VERTEX
  8
0
  5
2CA7
 10
92.7677
 20
154.681
 30
0.00000
  70
    32
  0
VERTEX
  8
0
  5
2CA8
 10
92.7847
 20
154.687
 30
0.00000
  70
    32
  0
VERTEX
  8
0
  5
2CA9
 10
92.8017
 20
154.694
 30
0.00000
  70
    32
  0
VERTEX
  8
0
  5
2CAA
 10
92.8187
 20
154.701
 30
0.00000
  70
    32
  0
VERTEX
  8
0
  5
2CAB
 10
92.8356
 20
154.707
 30
0.00000
  70
    32
  0
VERTEX
  8
0
  5
2CAC
 10
92.8525
 20
154.714
 30
0.00000
  70
    32
  0
VERTEX
  8
0
  5
2CAD
 10
92.8694
 20
154.721
 30
0.00000
  70
    32
  0
VERTEX
  8
0
  5
2CAE
 10
92.8862
 20
154.728
 30
0.00000
  70
    32
  0
VERTEX
  8
0
  5
2CAF
 10
92.9030
 20
154.735
 30
0.00000
  70
    32
  0
VERTEX
  8
0
  5
2CB0
 10
92.9198
 20
154.742
 30
0.00000
  70
    32
  0
VERTEX
  8
0
  5
2CB1
 10
92.9365
 20
154.749
 30
0.00000
  70
    32
  0
VERTEX
  8
0
  5
2CB2
 10
92.9532
 20
154.756
 30
0.00000
  70
    32
  0
VERTEX
  8
0
  5
2CB3
 10
92.9699
 20
154.763
 30
0.00000
  70
    32
  0
VERTEX
  8
0
  5
2CB4
 10
92.9865
 20
154.771
 30
0.00000
  70
    32
  0
VERTEX
  8
0
  5
2CB5
 10
93.0031
 20
154.778
 30
0.00000
  70
    32
  0
VERTEX
  8
0
  5
2CB6
 10
93.0196
 20
154.785
 30
0.00000
  70
    32
  0
VERTEX
  8
0
  5
2CB7
 10
93.0362
 20
154.792
 30
0.00000
  70
    32
  0
VERTEX
  8
0
  5
2CB8
 10
93.0527
 20
154.800
 30
0.00000
  70
    32
  0
VERTEX
  8
0
  5
2CB9
 10
93.0691
 20
154.807
 30
0.00000
  70
    32
  0
VERTEX
  8
0
  5
2CBA
 10
93.0855
 20
154.815
 30
0.00000
  70
    32
  0
VERTEX
  8
0
  5
2CBB
 10
93.1019
 20
154.822
 30
0.00000
  70
    32
  0
VERTEX
  8
0
  5
2CBC
 10
93.1183
 20
154.830
 30
0.00000
  70
    32
  0
VERTEX
  8
0
  5
2CBD
 10
93.1346
 20
154.837
 30
0.00000
  70
    32
  0
VERTEX
  8
0
  5
2CBE
 10
93.1508
 20
154.845
 30
0.00000
  70
    32
  0
VERTEX
  8
0
  5
2CBF
 10
93.1671
 20
154.852
 30
0.00000
  70
    32
  0
VERTEX
  8
0
  5
2CC0
 10
93.1833
 20
154.860
 30
0.00000
  70
    32
  0
VERTEX
  8
0
  5
2CC1
 10
93.1994
 20
154.868
 30
0.00000
  70
    32
  0
VERTEX
  8
0
  5
2CC2
 10
93.2155
 20
154.876
 30
0.00000
  70
    32
  0
VERTEX
  8
0
  5
2CC3
 10
93.2316
 20
154.883
 30
0.00000
  70
    32
  0
VERTEX
  8
0
  5
2CC4
 10
93.2477
 20
154.891
 30
0.00000
  70
    32
  0
VERTEX
  8
0
  5
2CC5
 10
93.2637
 20
154.899
 30
0.00000
  70
    32
  0
VERTEX
  8
0
  5
2CC6
 10
93.2797
 20
154.907
 30
0.00000
  70
    32
  0
VERTEX
  8
0
  5
2CC7
 10
93.2956
 20
154.915
 30
0.00000
  70
    32
  0
VERTEX
  8
0
  5
2CC8
 10
93.3115
 20
154.923
 30
0.00000
  70
    32
  0
VERTEX
  8
0
  5
2CC9
 10
93.3273
 20
154.931
 30
0.00000
  70
    32
  0
VERTEX
  8
0
  5
2CCA
 10
93.3432
 20
154.939
 30
0.00000
  70
    32
  0
VERTEX
  8
0
  5
2CCB
 10
93.3589
 20
154.947
 30
0.00000
  70
    32
  0
VERTEX
  8
0
  5
2CCC
 10
93.3747
 20
154.956
 30
0.00000
  70
    32
  0
VERTEX
  8
0
  5
2CCD
 10
93.3904
 20
154.964
 30
0.00000
  70
    32
  0
VERTEX
  8
0
  5
2CCE
 10
93.4060
 20
154.972
 30
0.00000
  70
    32
  0
VERTEX
  8
0
  5
2CCF
 10
93.4216
 20
154.980
 30
0.00000
  70
    32
  0
VERTEX
  8
0
  5
2CD0
 10
93.4372
 20
154.989
 30
0.00000
  70
    32
  0
VERTEX
  8
0
  5
2CD1
 10
93.4528
 20
154.997
 30
0.00000
  70
    32
  0
VERTEX
  8
0
  5
2CD2
 10
93.4683
 20
155.006
 30
0.00000
  70
    32
  0
VERTEX
  8
0
  5
2CD3
 10
93.4837
 20
155.014
 30
0.00000
  70
    32
  0
VERTEX
  8
0
  5
2CD4
 10
93.4991
 20
155.022
 30
0.00000
  70
    32
  0
VERTEX
  8
0
  5
2CD5
 10
93.5145
 20
155.031
 30
0.00000
  70
    32
  0
VERTEX
  8
0
  5
2CD6
 10
93.5298
 20
155.040
 30
0.00000
  70
    32
  0
VERTEX
  8
0
  5
2CD7
 10
93.5451
 20
155.048
 30
0.00000
  70
    32
  0
VERTEX
  8
0
  5
2CD8
 10
93.5604
 20
155.057
 30
0.00000
  70
    32
  0
VERTEX
  8
0
  5
2CD9
 10
93.5756
 20
155.066
 30
0.00000
  70
    32
  0
VERTEX
  8
0
  5
2CDA
 10
93.5907
 20
155.074
 30
0.00000
  70
    32
  0
VERTEX
  8
0
  5
2CDB
 10
93.6059
 20
155.083
 30
0.00000
  70
    32
  0
VERTEX
  8
0
  5
2CDC
 10
93.6209
 20
155.092
 30
0.00000
  70
    32
  0
VERTEX
  8
0
  5
2CDD
 10
93.6360
 20
155.101
 30
0.00000
  70
    32
  0
VERTEX
  8
0
  5
2CDE
 10
93.6510
 20
155.110
 30
0.00000
  70
    32
  0
VERTEX
  8
0
  5
2CDF
 10
93.6659
 20
155.119
 30
0.00000
  70
    32
  0
VERTEX
  8
0
  5
2CE0
 10
93.6808
 20
155.128
 30
0.00000
  70
    32
  0
VERTEX
  8
0
  5
2CE1
 10
93.6957
 20
155.137
 30
0.00000
  70
    32
  0
VERTEX
  8
0
  5
2CE2
 10
93.7105
 20
155.146
 30
0.00000
  70
    32
  0
VERTEX
  8
0
  5
2CE3
 10
93.7253
 20
155.155
 30
0.00000
  70
    32
  0
VERTEX
  8
0
  5
2CE4
 10
93.7400
 20
155.164
 30
0.00000
  70
    32
  0
SEQEND
  8
0
  5
2CE5
  0
ARC
  5
2506
  8
0
 10
86.8808199189354298
 20
158.5091733909181073
 30
0.0
 40
5.8850954672725901
 50
20.8591412912988901
 51
37.2705635372646569
  0
ARC
  5
2507
  8
0
 10
86.4672020121673484
 20
158.1242619577836024
 30
0.0
 40
6.3503405488567601
 50
323.3806728267023232
 51
338.5759583698654183
  0
POLYLINE
  5
2508
  8
0
 66
     1
 10
0.0
 20
0.0
 30
0.0
 70
   128
  0
VERTEX
  5
2ACE
  8
0
 10
93.7400225131449076
 20
161.2456416961032915
 30
0.0
  0
VERTEX
  5
2ACF
  8
0
 10
93.9165193546453736
 20
160.774565442570804
 30
0.0
  0
VERTEX
  5
2AD0
  8
0
 10
93.9672982027354067
 20
160.6046893957725956
 30
0.0
  0
SEQEND
  5
2AD1
  8
0
  0
POLYLINE
  5
2509
  8
0
 66
     1
 10
0.0
 20
0.0
 30
0.0
 70
   128
  0
VERTEX
  5
2AD2
  8
0
 10
93.9682772917952462
 20
155.8046893957726979
 30
0.0
  0
VERTEX
  5
2AD3
  8
0
 10
93.8622024431875559
 20
155.4799284645023931
 30
0.0
  0
VERTEX
  5
2AD4
  8
0
 10
93.7400225948151444
 20
155.1637372770323111
 30
0.0
  0
SEQEND
  5
2AD5
  8
0
  0
LINE
  5
250D
  8
0
 10
91.8396127556404451
 20
160.6046893957725956
 30
0.0
 11
123.9405219216935023
 21
160.6046893957725956
 31
0.0
  0
LINE
  5
250F
  8
0
 10
123.9405219216935023
 20
155.8046893957726127
 30
0.0
 11
91.8396127556404878
 21
155.8046893957726979
 31
0.0
  0
ARC
  5
2510
  8
0
 10
89.3163289647964973
 20
156.5771864155350954
 30
0.0
 40
2.7560486366959949
 50
356.6437368826782972
 51
36.1939470142163415
  0
ARC
  5
2511
  8
0
 10
89.3163902772033538
 20
159.8321741965721117
 30
0.0
 40
2.755988420946561
 50
323.8056052824858284
 51
3.3567216879118811
  0
ARC
  5
2512
  8
0
 10
86.3405219216934654
 20
158.2046893957727036
 30
0.0
 40
6.0000000000000107
 50
17.3460648927214116
 51
342.6539380381198043
  0
ARC
  5
2515
  8
0
 10
123.9405219216935023
 20
158.2046893957727036
 30
0.0
 40
2.4000000000000048
 50
270.0
 51
90.0
  0
CIRCLE
  5
2516
  8
3
 10
86.3405219216934654
 20
28.1468939385711607
 30
0.0
 40
7.0800000000000116
  0
CIRCLE
  5
2517
  8
0
 10
86.3405219216934654
 20
28.1468939385711607
 30
0.0
 40
4.999999999999992
  0
CIRCLE
  5
2518
  8
0
 10
86.3405219216934654
 20
28.1468939385711714
 30
0.0
 40
8.0
  0
CIRCLE
  5
2519
  8
0
 10
86.3405219216934654
 20
28.1468939385711288
 30
0.0
 40
3.0119496504916858
  0
CIRCLE
  5
251A
  8
0
 10
86.3405219216934654
 20
28.1468939385711394
 30
0.0
 40
4.0
  0
LINE
  5
251B
  8
0
 10
123.9405219216935023
 20
30.5468939385713014
 30
0.0
 11
93.9720355330290147
 21
30.5468939385713014
 31
0.0
  0
LINE
  5
251D
  8
0
 10
93.9720355330290147
 20
25.7468939385713114
 30
0.0
 11
123.9405219216935023
 21
25.7468939385713114
 31
0.0
  0
ARC
  5
251F
  8
0
 10
123.9405219216935023
 20
28.1468939385713099
 30
0.0
 40
2.4000000000000048
 50
270.0
 51
90.0
  0
LINE
  5
2521
  8
0
 10
31.1655038379835894
 20
72.4501526130939624
 30
0.0
 11
31.1655038379837102
 21
114.8006261810590019
 31
0.0
  0
LINE
  5
2522
  8
0
 10
15.1655038379836995
 20
114.8006261810590019
 30
0.0
 11
15.1655038379835894
 21
72.4501526130940192
 31
0.0
  0
LINE
  5
2523
  8
0
 10
15.1655038379835894
 20
72.4501526130940192
 30
0.0
 11
16.3925038379835684
 21
71.2231526130940154
 31
0.0
  0
LINE
  5
2524
  8
0
 10
29.938503837983621
 20
71.2231526130939443
 30
0.0
 11
31.1655038379835894
 21
72.4501526130939624
 31
0.0
  0
ARC
  5
2525
  8
0
 10
28.3655038379833009
 20
121.6231526130938931
 30
0.0
 40
0.8000000000005101
 50
0.0000266593319889
 51
90.0
  0
ARC
  5
2526
  8
0
 10
17.9655038379842296
 20
121.6231526130940068
 30
0.0
 40
0.8000000000005101
 50
90.0
 51
179.9999733406679923
  0
LINE
  5
2527
  8
0
 10
29.1655038379837706
 20
118.6451278730878016
 30
0.0
 11
29.1655038379837706
 21
121.623152985328403
 31
0.0
  0
LINE
  5
2528
  8
0
 10
17.1655038379837599
 20
121.6231529853285025
 30
0.0
 11
17.1655038379837599
 21
118.6451278730878016
 31
0.0
  0
LINE
  5
2532
  8
0
 10
27.8291935352199395
 20
119.5231526130938988
 30
0.0
 11
26.2880028371829617
 21
119.5231526130938988
 31
0.0
  0
POLYLINE
  5
2533
  8
0
 10
31.1655038379837102
 20
114.8006261810589734
 30
0.0
 66
     1
 70
     8
  0
VERTEX
  8
0
  5
2CE6
 10
31.1655
 20
114.801
 30
0.00000
  70
    32
  0
VERTEX
  8
0
  5
2CE7
 10
31.1653
 20
114.844
 30
0.00000
  70
    32
  0
VERTEX
  8
0
  5
2CE8
 10
31.1646
 20
114.887
 30
0.00000
  70
    32
  0
VERTEX
  8
0
  5
2CE9
 10
31.1635
 20
114.930
 30
0.00000
  70
    32
  0
VERTEX
  8
0
  5
2CEA
 10
31.1620
 20
114.973
 30
0.00000
  70
    32
  0
VERTEX
  8
0
  5
2CEB
 10
31.1600
 20
115.016
 30
0.00000
  70
    32
  0
VERTEX
  8
0
  5
2CEC
 10
31.1576
 20
115.059
 30
0.00000
  70
    32
  0
VERTEX
  8
0
  5
2CED
 10
31.1547
 20
115.102
 30
0.00000
  70
    32
  0
VERTEX
  8
0
  5
2CEE
 10
31.1515
 20
115.145
 30
0.00000
  70
    32
  0
VERTEX
  8
0
  5
2CEF
 10
31.1477
 20
115.188
 30
0.00000
  70
    32
  0
VERTEX
  8
0
  5
2CF0
 10
31.1436
 20
115.231
 30
0.00000
  70
    32
  0
VERTEX
  8
0
  5
2CF1
 10
31.1389
 20
115.274
 30
0.00000
  70
    32
  0
VERTEX
  8
0
  5
2CF2
 10
31.1339
 20
115.317
 30
0.00000
  70
    32
  0
VERTEX
  8
0
  5
2CF3
 10
31.1284
 20
115.360
 30
0.00000
  70
    32
  0
VERTEX
  8
0
  5
2CF4
 10
31.1225
 20
115.402
 30
0.00000
  70
    32
  0
VERTEX
  8
0
  5
2CF5
 10
31.1161
 20
115.445
 30
0.00000
  70
    32
  0
VERTEX
  8
0
  5
2CF6
 10
31.1093
 20
115.488
 30
0.00000
  70
    32
  0
VERTEX
  8
0
  5
2CF7
 10
31.1021
 20
115.531
 30
0.00000
  70
    32
  0
VERTEX
  8
0
  5
2CF8
 10
31.0945
 20
115.574
 30
0.00000
  70
    32
  0
VERTEX
  8
0
  5
2CF9
 10
31.0864
 20
115.616
 30
0.00000
  70
    32
  0
VERTEX
  8
0
  5
2CFA
 10
31.0778
 20
115.659
 30
0.00000
  70
    32
  0
VERTEX
  8
0
  5
2CFB
 10
31.0689
 20
115.701
 30
0.00000
  70
    32
  0
VERTEX
  8
0
  5
2CFC
 10
31.0594
 20
115.744
 30
0.00000
  70
    32
  0
VERTEX
  8
0
  5
2CFD
 10
31.0496
 20
115.786
 30
0.00000
  70
    32
  0
VERTEX
  8
0
  5
2CFE
 10
31.0393
 20
115.829
 30
0.00000
  70
    32
  0
VERTEX
  8
0
  5
2CFF
 10
31.0286
 20
115.871
 30
0.00000
  70
    32
  0
VERTEX
  8
0
  5
2D00
 10
31.0175
 20
115.913
 30
0.00000
  70
    32
  0
VERTEX
  8
0
  5
2D01
 10
31.0059
 20
115.956
 30
0.00000
  70
    32
  0
VERTEX
  8
0
  5
2D02
 10
30.9939
 20
115.998
 30
0.00000
  70
    32
  0
VERTEX
  8
0
  5
2D03
 10
30.9815
 20
116.040
 30
0.00000
  70
    32
  0
VERTEX
  8
0
  5
2D04
 10
30.9687
 20
116.082
 30
0.00000
  70
    32
  0
VERTEX
  8
0
  5
2D05
 10
30.9554
 20
116.124
 30
0.00000
  70
    32
  0
VERTEX
  8
0
  5
2D06
 10
30.9417
 20
116.166
 30
0.00000
  70
    32
  0
VERTEX
  8
0
  5
2D07
 10
30.9275
 20
116.208
 30
0.00000
  70
    32
  0
VERTEX
  8
0
  5
2D08
 10
30.9130
 20
116.249
 30
0.00000
  70
    32
  0
VERTEX
  8
0
  5
2D09
 10
30.8980
 20
116.291
 30
0.00000
  70
    32
  0
VERTEX
  8
0
  5
2D0A
 10
30.8826
 20
116.333
 30
0.00000
  70
    32
  0
VERTEX
  8
0
  5
2D0B
 10
30.8667
 20
116.374
 30
0.00000
  70
    32
  0
VERTEX
  8
0
  5
2D0C
 10
30.8505
 20
116.416
 30
0.00000
  70
    32
  0
VERTEX
  8
0
  5
2D0D
 10
30.8338
 20
116.457
 30
0.00000
  70
    32
  0
VERTEX
  8
0
  5
2D0E
 10
30.8167
 20
116.498
 30
0.00000
  70
    32
  0
VERTEX
  8
0
  5
2D0F
 10
30.7992
 20
116.539
 30
0.00000
  70
    32
  0
VERTEX
  8
0
  5
2D10
 10
30.7812
 20
116.580
 30
0.00000
  70
    32
  0
VERTEX
  8
0
  5
2D11
 10
30.7629
 20
116.621
 30
0.00000
  70
    32
  0
VERTEX
  8
0
  5
2D12
 10
30.7441
 20
116.662
 30
0.00000
  70
    32
  0
VERTEX
  8
0
  5
2D13
 10
30.7249
 20
116.703
 30
0.00000
  70
    32
  0
VERTEX
  8
0
  5
2D14
 10
30.7053
 20
116.744
 30
0.00000
  70
    32
  0
VERTEX
  8
0
  5
2D15
 10
30.6853
 20
116.784
 30
0.00000
  70
    32
  0
VERTEX
  8
0
  5
2D16
 10
30.6648
 20
116.825
 30
0.00000
  70
    32
  0
VERTEX
  8
0
  5
2D17
 10
30.6440
 20
116.865
 30
0.00000
  70
    32
  0
VERTEX
  8
0
  5
2D18
 10
30.6227
 20
116.905
 30
0.00000
  70
    32
  0
VERTEX
  8
0
  5
2D19
 10
30.6011
 20
116.945
 30
0.00000
  70
    32
  0
VERTEX
  8
0
  5
2D1A
 10
30.5790
 20
116.985
 30
0.00000
  70
    32
  0
VERTEX
  8
0
  5
2D1B
 10
30.5565
 20
117.025
 30
0.00000
  70
    32
  0
VERTEX
  8
0
  5
2D1C
 10
30.5336
 20
117.065
 30
0.00000
  70
    32
  0
VERTEX
  8
0
  5
2D1D
 10
30.5103
 20
117.104
 30
0.00000
  70
    32
  0
VERTEX
  8
0
  5
2D1E
 10
30.4866
 20
117.144
 30
0.00000
  70
    32
  0
VERTEX
  8
0
  5
2D1F
 10
30.4625
 20
117.183
 30
0.00000
  70
    32
  0
VERTEX
  8
0
  5
2D20
 10
30.4380
 20
117.222
 30
0.00000
  70
    32
  0
VERTEX
  8
0
  5
2D21
 10
30.4131
 20
117.261
 30
0.00000
  70
    32
  0
VERTEX
  8
0
  5
2D22
 10
30.3879
 20
117.300
 30
0.00000
  70
    32
  0
VERTEX
  8
0
  5
2D23
 10
30.3622
 20
117.339
 30
0.00000
  70
    32
  0
VERTEX
  8
0
  5
2D24
 10
30.3361
 20
117.378
 30
0.00000
  70
    32
  0
VERTEX
  8
0
  5
2D25
 10
30.3096
 20
117.416
 30
0.00000
  70
    32
  0
VERTEX
  8
0
  5
2D26
 10
30.2827
 20
117.455
 30
0.00000
  70
    32
  0
VERTEX
  8
0
  5
2D27
 10
30.2555
 20
117.493
 30
0.00000
  70
    32
  0
VERTEX
  8
0
  5
2D28
 10
30.2278
 20
117.531
 30
0.00000
  70
    32
  0
VERTEX
  8
0
  5
2D29
 10
30.1998
 20
117.569
 30
0.00000
  70
    32
  0
VERTEX
  8
0
  5
2D2A
 10
30.1713
 20
117.607
 30
0.00000
  70
    32
  0
VERTEX
  8
0
  5
2D2B
 10
30.1425
 20
117.644
 30
0.00000
  70
    32
  0
VERTEX
  8
0
  5
2D2C
 10
30.1133
 20
117.682
 30
0.00000
  70
    32
  0
VERTEX
  8
0
  5
2D2D
 10
30.0838
 20
117.719
 30
0.00000
  70
    32
  0
VERTEX
  8
0
  5
2D2E
 10
30.0538
 20
117.756
 30
0.00000
  70
    32
  0
VERTEX
  8
0
  5
2D2F
 10
30.0235
 20
117.793
 30
0.00000
  70
    32
  0
VERTEX
  8
0
  5
2D30
 10
29.9928
 20
117.830
 30
0.00000
  70
    32
  0
VERTEX
  8
0
  5
2D31
 10
29.9617
 20
117.867
 30
0.00000
  70
    32
  0
VERTEX
  8
0
  5
2D32
 10
29.9302
 20
117.903
 30
0.00000
  70
    32
  0
VERTEX
  8
0
  5
2D33
 10
29.8984
 20
117.940
 30
0.00000
  70
    32
  0
VERTEX
  8
0
  5
2D34
 10
29.8662
 20
117.976
 30
0.00000
  70
    32
  0
VERTEX
  8
0
  5
2D35
 10
29.8336
 20
118.012
 30
0.00000
  70
    32
  0
VERTEX
  8
0
  5
2D36
 10
29.8007
 20
118.048
 30
0.00000
  70
    32
  0
VERTEX
  8
0
  5
2D37
 10
29.7674
 20
118.083
 30
0.00000
  70
    32
  0
VERTEX
  8
0
  5
2D38
 10
29.7337
 20
118.119
 30
0.00000
  70
    32
  0
VERTEX
  8
0
  5
2D39
 10
29.6997
 20
118.154
 30
0.00000
  70
    32
  0
VERTEX
  8
0
  5
2D3A
 10
29.6653
 20
118.189
 30
0.00000
  70
    32
  0
VERTEX
  8
0
  5
2D3B
 10
29.6306
 20
118.224
 30
0.00000
  70
    32
  0
VERTEX
  8
0
  5
2D3C
 10
29.5955
 20
118.259
 30
0.00000
  70
    32
  0
VERTEX
  8
0
  5
2D3D
 10
29.5601
 20
118.293
 30
0.00000
  70
    32
  0
VERTEX
  8
0
  5
2D3E
 10
29.5243
 20
118.328
 30
0.00000
  70
    32
  0
VERTEX
  8
0
  5
2D3F
 10
29.4881
 20
118.362
 30
0.00000
  70
    32
  0
VERTEX
  8
0
  5
2D40
 10
29.4516
 20
118.396
 30
0.00000
  70
    32
  0
VERTEX
  8
0
  5
2D41
 10
29.4148
 20
118.429
 30
0.00000
  70
    32
  0
VERTEX
  8
0
  5
2D42
 10
29.3776
 20
118.463
 30
0.00000
  70
    32
  0
VERTEX
  8
0
  5
2D43
 10
29.3401
 20
118.496
 30
0.00000
  70
    32
  0
VERTEX
  8
0
  5
2D44
 10
29.3022
 20
118.529
 30
0.00000
  70
    32
  0
VERTEX
  8
0
  5
2D45
 10
29.2640
 20
118.562
 30
0.00000
  70
    32
  0
VERTEX
  8
0
  5
2D46
 10
29.2255
 20
118.595
 30
0.00000
  70
    32
  0
VERTEX
  8
0
  5
2D47
 10
29.1866
 20
118.628
 30
0.00000
  70
    32
  0
VERTEX
  8
0
  5
2D48
 10
29.1474
 20
118.660
 30
0.00000
  70
    32
  0
VERTEX
  8
0
  5
2D49
 10
29.1079
 20
118.692
 30
0.00000
  70
    32
  0
VERTEX
  8
0
  5
2D4A
 10
29.0681
 20
118.724
 30
0.00000
  70
    32
  0
VERTEX
  8
0
  5
2D4B
 10
29.0279
 20
118.756
 30
0.00000
  70
    32
  0
VERTEX
  8
0
  5
2D4C
 10
28.9874
 20
118.787
 30
0.00000
  70
    32
  0
VERTEX
  8
0
  5
2D4D
 10
28.9466
 20
118.818
 30
0.00000
  70
    32
  0
VERTEX
  8
0
  5
2D4E
 10
28.9055
 20
118.849
 30
0.00000
  70
    32
  0
VERTEX
  8
0
  5
2D4F
 10
28.8640
 20
118.880
 30
0.00000
  70
    32
  0
VERTEX
  8
0
  5
2D50
 10
28.8223
 20
118.911
 30
0.00000
  70
    32
  0
VERTEX
  8
0
  5
2D51
 10
28.7802
 20
118.941
 30
0.00000
  70
    32
  0
VERTEX
  8
0
  5
2D52
 10
28.7378
 20
118.971
 30
0.00000
  70
    32
  0
VERTEX
  8
0
  5
2D53
 10
28.6951
 20
119.001
 30
0.00000
  70
    32
  0
VERTEX
  8
0
  5
2D54
 10
28.6521
 20
119.031
 30
0.00000
  70
    32
  0
VERTEX
  8
0
  5
2D55
 10
28.6088
 20
119.060
 30
0.00000
  70
    32
  0
VERTEX
  8
0
  5
2D56
 10
28.5653
 20
119.089
 30
0.00000
  70
    32
  0
VERTEX
  8
0
  5
2D57
 10
28.5214
 20
119.118
 30
0.00000
  70
    32
  0
VERTEX
  8
0
  5
2D58
 10
28.4772
 20
119.147
 30
0.00000
  70
    32
  0
VERTEX
  8
0
  5
2D59
 10
28.4327
 20
119.175
 30
0.00000
  70
    32
  0
VERTEX
  8
0
  5
2D5A
 10
28.3880
 20
119.204
 30
0.00000
  70
    32
  0
VERTEX
  8
0
  5
2D5B
 10
28.3429
 20
119.232
 30
0.00000
  70
    32
  0
VERTEX
  8
0
  5
2D5C
 10
28.2976
 20
119.259
 30
0.00000
  70
    32
  0
VERTEX
  8
0
  5
2D5D
 10
28.2520
 20
119.287
 30
0.00000
  70
    32
  0
VERTEX
  8
0
  5
2D5E
 10
28.2061
 20
119.314
 30
0.00000
  70
    32
  0
VERTEX
  8
0
  5
2D5F
 10
28.1599
 20
119.341
 30
0.00000
  70
    32
  0
VERTEX
  8
0
  5
2D60
 10
28.1135
 20
119.368
 30
0.00000
  70
    32
  0
VERTEX
  8
0
  5
2D61
 10
28.0667
 20
119.394
 30
0.00000
  70
    32
  0
VERTEX
  8
0
  5
2D62
 10
28.0198
 20
119.421
 30
0.00000
  70
    32
  0
VERTEX
  8
0
  5
2D63
 10
27.9725
 20
119.447
 30
0.00000
  70
    32
  0
VERTEX
  8
0
  5
2D64
 10
27.9250
 20
119.472
 30
0.00000
  70
    32
  0
VERTEX
  8
0
  5
2D65
 10
27.8772
 20
119.498
 30
0.00000
  70
    32
  0
VERTEX
  8
0
  5
2D66
 10
27.8292
 20
119.523
 30
0.00000
  70
    32
  0
SEQEND
  8
0
  5
2D67
  0
POLYLINE
  5
2534
  8
0
 10
18.5018143114393041
 20
119.5231526130939699
 30
0.0
 66
     1
 70
     8
  0
VERTEX
  8
0
  5
2D68
 10
18.5018
 20
119.523
 30
0.00000
  70
    32
  0
VERTEX
  8
0
  5
2D69
 10
18.4538
 20
119.498
 30
0.00000
  70
    32
  0
VERTEX
  8
0
  5
2D6A
 10
18.4060
 20
119.472
 30
0.00000
  70
    32
  0
VERTEX
  8
0
  5
2D6B
 10
18.3585
 20
119.447
 30
0.00000
  70
    32
  0
VERTEX
  8
0
  5
2D6C
 10
18.3112
 20
119.421
 30
0.00000
  70
    32
  0
VERTEX
  8
0
  5
2D6D
 10
18.2643
 20
119.394
 30
0.00000
  70
    32
  0
VERTEX
  8
0
  5
2D6E
 10
18.2175
 20
119.368
 30
0.00000
  70
    32
  0
VERTEX
  8
0
  5
2D6F
 10
18.1711
 20
119.341
 30
0.00000
  70
    32
  0
VERTEX
  8
0
  5
2D70
 10
18.1249
 20
119.314
 30
0.00000
  70
    32
  0
VERTEX
  8
0
  5
2D71
 10
18.0790
 20
119.287
 30
0.00000
  70
    32
  0
VERTEX
  8
0
  5
2D72
 10
18.0334
 20
119.259
 30
0.00000
  70
    32
  0
VERTEX
  8
0
  5
2D73
 10
17.9881
 20
119.232
 30
0.00000
  70
    32
  0
VERTEX
  8
0
  5
2D74
 10
17.9431
 20
119.204
 30
0.00000
  70
    32
  0
VERTEX
  8
0
  5
2D75
 10
17.8983
 20
119.175
 30
0.00000
  70
    32
  0
VERTEX
  8
0
  5
2D76
 10
17.8538
 20
119.147
 30
0.00000
  70
    32
  0
VERTEX
  8
0
  5
2D77
 10
17.8096
 20
119.118
 30
0.00000
  70
    32
  0
VERTEX
  8
0
  5
2D78
 10
17.7658
 20
119.089
 30
0.00000
  70
    32
  0
VERTEX
  8
0
  5
2D79
 10
17.7222
 20
119.060
 30
0.00000
  70
    32
  0
VERTEX
  8
0
  5
2D7A
 10
17.6789
 20
119.031
 30
0.00000
  70
    32
  0
VERTEX
  8
0
  5
2D7B
 10
17.6359
 20
119.001
 30
0.00000
  70
    32
  0
VERTEX
  8
0
  5
2D7C
 10
17.5932
 20
118.971
 30
0.00000
  70
    32
  0
VERTEX
  8
0
  5
2D7D
 10
17.5508
 20
118.941
 30
0.00000
  70
    32
  0
VERTEX
  8
0
  5
2D7E
 10
17.5088
 20
118.911
 30
0.00000
  70
    32
  0
VERTEX
  8
0
  5
2D7F
 10
17.4670
 20
118.880
 30
0.00000
  70
    32
  0
VERTEX
  8
0
  5
2D80
 10
17.4255
 20
118.849
 30
0.00000
  70
    32
  0
VERTEX
  8
0
  5
2D81
 10
17.3844
 20
118.818
 30
0.00000
  70
    32
  0
VERTEX
  8
0
  5
2D82
 10
17.3436
 20
118.787
 30
0.00000
  70
    32
  0
VERTEX
  8
0
  5
2D83
 10
17.3031
 20
118.756
 30
0.00000
  70
    32
  0
VERTEX
  8
0
  5
2D84
 10
17.2629
 20
118.724
 30
0.00000
  70
    32
  0
VERTEX
  8
0
  5
2D85
 10
17.2231
 20
118.692
 30
0.00000
  70
    32
  0
VERTEX
  8
0
  5
2D86
 10
17.1836
 20
118.660
 30
0.00000
  70
    32
  0
VERTEX
  8
0
  5
2D87
 10
17.1444
 20
118.628
 30
0.00000
  70
    32
  0
VERTEX
  8
0
  5
2D88
 10
17.1055
 20
118.595
 30
0.00000
  70
    32
  0
VERTEX
  8
0
  5
2D89
 10
17.0670
 20
118.562
 30
0.00000
  70
    32
  0
VERTEX
  8
0
  5
2D8A
 10
17.0288
 20
118.529
 30
0.00000
  70
    32
  0
VERTEX
  8
0
  5
2D8B
 10
16.9909
 20
118.496
 30
0.00000
  70
    32
  0
VERTEX
  8
0
  5
2D8C
 10
16.9534
 20
118.463
 30
0.00000
  70
    32
  0
VERTEX
  8
0
  5
2D8D
 10
16.9162
 20
118.429
 30
0.00000
  70
    32
  0
VERTEX
  8
0
  5
2D8E
 10
16.8794
 20
118.396
 30
0.00000
  70
    32
  0
VERTEX
  8
0
  5
2D8F
 10
16.8429
 20
118.362
 30
0.00000
  70
    32
  0
VERTEX
  8
0
  5
2D90
 10
16.8067
 20
118.328
 30
0.00000
  70
    32
  0
VERTEX
  8
0
  5
2D91
 10
16.7709
 20
118.293
 30
0.00000
  70
    32
  0
VERTEX
  8
0
  5
2D92
 10
16.7355
 20
118.259
 30
0.00000
  70
    32
  0
VERTEX
  8
0
  5
2D93
 10
16.7004
 20
118.224
 30
0.00000
  70
    32
  0
VERTEX
  8
0
  5
2D94
 10
16.6657
 20
118.189
 30
0.00000
  70
    32
  0
VERTEX
  8
0
  5
2D95
 10
16.6313
 20
118.154
 30
0.00000
  70
    32
  0
VERTEX
  8
0
  5
2D96
 10
16.5973
 20
118.119
 30
0.00000
  70
    32
  0
VERTEX
  8
0
  5
2D97
 10
16.5636
 20
118.083
 30
0.00000
  70
    32
  0
VERTEX
  8
0
  5
2D98
 10
16.5303
 20
118.048
 30
0.00000
  70
    32
  0
VERTEX
  8
0
  5
2D99
 10
16.4974
 20
118.012
 30
0.00000
  70
    32
  0
VERTEX
  8
0
  5
2D9A
 10
16.4648
 20
117.976
 30
0.00000
  70
    32
  0
VERTEX
  8
0
  5
2D9B
 10
16.4326
 20
117.940
 30
0.00000
  70
    32
  0
VERTEX
  8
0
  5
2D9C
 10
16.4008
 20
117.903
 30
0.00000
  70
    32
  0
VERTEX
  8
0
  5
2D9D
 10
16.3693
 20
117.867
 30
0.00000
  70
    32
  0
VERTEX
  8
0
  5
2D9E
 10
16.3383
 20
117.830
 30
0.00000
  70
    32
  0
VERTEX
  8
0
  5
2D9F
 10
16.3075
 20
117.793
 30
0.00000
  70
    32
  0
VERTEX
  8
0
  5
2DA0
 10
16.2772
 20
117.756
 30
0.00000
  70
    32
  0
VERTEX
  8
0
  5
2DA1
 10
16.2473
 20
117.719
 30
0.00000
  70
    32
  0
VERTEX
  8
0
  5
2DA2
 10
16.2177
 20
117.682
 30
0.00000
  70
    32
  0
VERTEX
  8
0
  5
2DA3
 10
16.1885
 20
117.644
 30
0.00000
  70
    32
  0
VERTEX
  8
0
  5
2DA4
 10
16.1597
 20
117.607
 30
0.00000
  70
    32
  0
VERTEX
  8
0
  5
2DA5
 10
16.1312
 20
117.569
 30
0.00000
  70
    32
  0
VERTEX
  8
0
  5
2DA6
 10
16.1032
 20
117.531
 30
0.00000
  70
    32
  0
VERTEX
  8
0
  5
2DA7
 10
16.0756
 20
117.493
 30
0.00000
  70
    32
  0
VERTEX
  8
0
  5
2DA8
 10
16.0483
 20
117.455
 30
0.00000
  70
    32
  0
VERTEX
  8
0
  5
2DA9
 10
16.0214
 20
117.416
 30
0.00000
  70
    32
  0
VERTEX
  8
0
  5
2DAA
 10
15.9949
 20
117.378
 30
0.00000
  70
    32
  0
VERTEX
  8
0
  5
2DAB
 10
15.9688
 20
117.339
 30
0.00000
  70
    32
  0
VERTEX
  8
0
  5
2DAC
 10
15.9432
 20
117.300
 30
0.00000
  70
    32
  0
VERTEX
  8
0
  5
2DAD
 10
15.9179
 20
117.261
 30
0.00000
  70
    32
  0
VERTEX
  8
0
  5
2DAE
 10
15.8930
 20
117.222
 30
0.00000
  70
    32
  0
VERTEX
  8
0
  5
2DAF
 10
15.8685
 20
117.183
 30
0.00000
  70
    32
  0
VERTEX
  8
0
  5
2DB0
 10
15.8444
 20
117.144
 30
0.00000
  70
    32
  0
VERTEX
  8
0
  5
2DB1
 10
15.8207
 20
117.104
 30
0.00000
  70
    32
  0
VERTEX
  8
0
  5
2DB2
 10
15.7974
 20
117.065
 30
0.00000
  70
    32
  0
VERTEX
  8
0
  5
2DB3
 10
15.7745
 20
117.025
 30
0.00000
  70
    32
  0
VERTEX
  8
0
  5
2DB4
 10
15.7520
 20
116.985
 30
0.00000
  70
    32
  0
VERTEX
  8
0
  5
2DB5
 10
15.7299
 20
116.945
 30
0.00000
  70
    32
  0
VERTEX
  8
0
  5
2DB6
 10
15.7083
 20
116.905
 30
0.00000
  70
    32
  0
VERTEX
  8
0
  5
2DB7
 10
15.6870
 20
116.865
 30
0.00000
  70
    32
  0
VERTEX
  8
0
  5
2DB8
 10
15.6662
 20
116.825
 30
0.00000
  70
    32
  0
VERTEX
  8
0
  5
2DB9
 10
15.6457
 20
116.784
 30
0.00000
  70
    32
  0
VERTEX
  8
0
  5
2DBA
 10
15.6257
 20
116.744
 30
0.00000
  70
    32
  0
VERTEX
  8
0
  5
2DBB
 10
15.6061
 20
116.703
 30
0.00000
  70
    32
  0
VERTEX
  8
0
  5
2DBC
 10
15.5869
 20
116.662
 30
0.00000
  70
    32
  0
VERTEX
  8
0
  5
2DBD
 10
15.5681
 20
116.621
 30
0.00000
  70
    32
  0
VERTEX
  8
0
  5
2DBE
 10
15.5498
 20
116.580
 30
0.00000
  70
    32
  0
VERTEX
  8
0
  5
2DBF
 10
15.5318
 20
116.539
 30
0.00000
  70
    32
  0
VERTEX
  8
0
  5
2DC0
 10
15.5143
 20
116.498
 30
0.00000
  70
    32
  0
VERTEX
  8
0
  5
2DC1
 10
15.4972
 20
116.457
 30
0.00000
  70
    32
  0
VERTEX
  8
0
  5
2DC2
 10
15.4805
 20
116.416
 30
0.00000
  70
    32
  0
VERTEX
  8
0
  5
2DC3
 10
15.4643
 20
116.374
 30
0.00000
  70
    32
  0
VERTEX
  8
0
  5
2DC4
 10
15.4484
 20
116.333
 30
0.00000
  70
    32
  0
VERTEX
  8
0
  5
2DC5
 10
15.4330
 20
116.291
 30
0.00000
  70
    32
  0
VERTEX
  8
0
  5
2DC6
 10
15.4180
 20
116.249
 30
0.00000
  70
    32
  0
VERTEX
  8
0
  5
2DC7
 10
15.4035
 20
116.208
 30
0.00000
  70
    32
  0
VERTEX
  8
0
  5
2DC8
 10
15.3893
 20
116.166
 30
0.00000
  70
    32
  0
VERTEX
  8
0
  5
2DC9
 10
15.3756
 20
116.124
 30
0.00000
  70
    32
  0
VERTEX
  8
0
  5
2DCA
 10
15.3623
 20
116.082
 30
0.00000
  70
    32
  0
VERTEX
  8
0
  5
2DCB
 10
15.3495
 20
116.040
 30
0.00000
  70
    32
  0
VERTEX
  8
0
  5
2DCC
 10
15.3371
 20
115.998
 30
0.00000
  70
    32
  0
VERTEX
  8
0
  5
2DCD
 10
15.3251
 20
115.956
 30
0.00000
  70
    32
  0
VERTEX
  8
0
  5
2DCE
 10
15.3135
 20
115.913
 30
0.00000
  70
    32
  0
VERTEX
  8
0
  5
2DCF
 10
15.3024
 20
115.871
 30
0.00000
  70
    32
  0
VERTEX
  8
0
  5
2DD0
 10
15.2917
 20
115.829
 30
0.00000
  70
    32
  0
VERTEX
  8
0
  5
2DD1
 10
15.2814
 20
115.786
 30
0.00000
  70
    32
  0
VERTEX
  8
0
  5
2DD2
 10
15.2716
 20
115.744
 30
0.00000
  70
    32
  0
VERTEX
  8
0
  5
2DD3
 10
15.2622
 20
115.701
 30
0.00000
  70
    32
  0
VERTEX
  8
0
  5
2DD4
 10
15.2532
 20
115.659
 30
0.00000
  70
    32
  0
VERTEX
  8
0
  5
2DD5
 10
15.2447
 20
115.616
 30
0.00000
  70
    32
  0
VERTEX
  8
0
  5
2DD6
 10
15.2366
 20
115.574
 30
0.00000
  70
    32
  0
VERTEX
  8
0
  5
2DD7
 10
15.2289
 20
115.531
 30
0.00000
  70
    32
  0
VERTEX
  8
0
  5
2DD8
 10
15.2217
 20
115.488
 30
0.00000
  70
    32
  0
VERTEX
  8
0
  5
2DD9
 10
15.2149
 20
115.445
 30
0.00000
  70
    32
  0
VERTEX
  8
0
  5
2DDA
 10
15.2085
 20
115.402
 30
0.00000
  70
    32
  0
VERTEX
  8
0
  5
2DDB
 10
15.2026
 20
115.360
 30
0.00000
  70
    32
  0
VERTEX
  8
0
  5
2DDC
 10
15.1971
 20
115.317
 30
0.00000
  70
    32
  0
VERTEX
  8
0
  5
2DDD
 10
15.1921
 20
115.274
 30
0.00000
  70
    32
  0
VERTEX
  8
0
  5
2DDE
 10
15.1875
 20
115.231
 30
0.00000
  70
    32
  0
VERTEX
  8
0
  5
2DDF
 10
15.1833
 20
115.188
 30
0.00000
  70
    32
  0
VERTEX
  8
0
  5
2DE0
 10
15.1796
 20
115.145
 30
0.00000
  70
    32
  0
VERTEX
  8
0
  5
2DE1
 10
15.1763
 20
115.102
 30
0.00000
  70
    32
  0
VERTEX
  8
0
  5
2DE2
 10
15.1734
 20
115.059
 30
0.00000
  70
    32
  0
VERTEX
  8
0
  5
2DE3
 10
15.1710
 20
115.016
 30
0.00000
  70
    32
  0
VERTEX
  8
0
  5
2DE4
 10
15.1690
 20
114.973
 30
0.00000
  70
    32
  0
VERTEX
  8
0
  5
2DE5
 10
15.1675
 20
114.930
 30
0.00000
  70
    32
  0
VERTEX
  8
0
  5
2DE6
 10
15.1664
 20
114.887
 30
0.00000
  70
    32
  0
VERTEX
  8
0
  5
2DE7
 10
15.1657
 20
114.844
 30
0.00000
  70
    32
  0
VERTEX
  8
0
  5
2DE8
 10
15.1655
 20
114.801
 30
0.00000
  70
    32
  0
SEQEND
  8
0
  5
2DE9
  0
LINE
  5
2535
  8
0
 10
20.0430048387845687
 20
119.5231526130939983
 30
0.0
 11
18.501814311439329
 21
119.5231526130939983
 31
0.0
  0
ARC
  5
2536
  8
0
 10
23.1655038379837599
 20
122.0231526130939983
 30
0.0
 40
4.0000000000000364
 50
218.6821874534890071
 51
321.317812546511675
  0
LINE
  5
2537
  8
0
 10
15.1655038379835894
 20
72.4501526130940192
 30
0.0
 11
31.1655038379835894
 21
72.4501526130939624
 31
0.0
  0
LINE
  5
2539
  8
0
 10
16.3925038379835684
 20
71.2231526130940154
 30
0.0
 11
29.9385038379836317
 21
71.2231526130939443
 31
0.0
  0
LINE
  5
253A
  8
0
 10
28.3655042682115806
 20
122.4231526130939045
 30
0.0
 11
17.9655034077559392
 21
122.423152613094004
 31
0.0
  0
LINE
  5
253F
  8
0
 10
29.1655038379837102
 20
121.623152985328403
 30
0.0
 11
17.1655038379838203
 21
121.6231529853285025
 31
0.0
  0
LINE
  5
2540
  8
0
 10
160.4773215042228003
 20
72.450152613093934
 30
0.0
 11
161.7043215042228042
 21
71.2231526130939301
 31
0.0
  0
LINE
  5
2541
  8
0
 10
175.2503215042227964
 20
71.2231526130939869
 30
0.0
 11
176.4773215042228003
 21
72.4501526130939908
 31
0.0
  0
LINE
  5
2542
  8
0
 10
176.4773215042228003
 20
72.4501526130939908
 30
0.0
 11
176.4773215042226013
 21
114.8006261810590019
 31
0.0
  0
LINE
  5
2543
  8
0
 10
160.4773215042226013
 20
114.8006261810590019
 30
0.0
 11
160.4773215042228003
 21
72.450152613093934
 31
0.0
  0
ARC
  5
2544
  8
0
 10
173.6773215042221068
 20
121.6231526130938931
 30
0.0
 40
0.8000000000005243
 50
0.0000266593319889
 51
90.0
  0
ARC
  5
2545
  8
0
 10
163.2773215042230106
 20
121.6231526130938931
 30
0.0
 40
0.8000000000004959
 50
90.0
 51
179.9999733406679923
  0
LINE
  5
2546
  8
0
 10
174.4773215042226013
 20
112.984269861045604
 30
0.0
 11
174.4773215042226013
 21
121.623152985328403
 31
0.0
  0
LINE
  5
2547
  8
0
 10
162.4773215042226013
 20
121.623152985328403
 30
0.0
 11
162.4773215042226013
 21
112.9842698610455045
 31
0.0
  0
LINE
  5
2551
  8
0
 10
161.7043215042228042
 20
71.2231526130939301
 30
0.0
 11
175.2503215042227964
 21
71.2231526130939869
 31
0.0
  0
LINE
  5
2552
  8
0
 10
160.4773215042228003
 20
72.450152613093934
 30
0.0
 11
176.4773215042228003
 21
72.4501526130939908
 31
0.0
  0
POLYLINE
  5
2553
  8
0
 10
162.4773215042225729
 20
118.6451278730877732
 30
0.0
 66
     1
 70
     8
  0
VERTEX
  8
0
  5
2DEA
 10
162.477
 20
118.645
 30
0.00000
  70
    32
  0
VERTEX
  8
0
  5
2DEB
 10
162.399
 20
118.580
 30
0.00000
  70
    32
  0
VERTEX
  8
0
  5
2DEC
 10
162.323
 20
118.514
 30
0.00000
  70
    32
  0
VERTEX
  8
0
  5
2DED
 10
162.247
 20
118.447
 30
0.00000
  70
    32
  0
VERTEX
  8
0
  5
2DEE
 10
162.173
 20
118.379
 30
0.00000
  70
    32
  0
VERTEX
  8
0
  5
2DEF
 10
162.101
 20
118.311
 30
0.00000
  70
    32
  0
VERTEX
  8
0
  5
2DF0
 10
162.030
 20
118.241
 30
0.00000
  70
    32
  0
VERTEX
  8
0
  5
2DF1
 10
161.960
 20
118.171
 30
0.00000
  70
    32
  0
VERTEX
  8
0
  5
2DF2
 10
161.892
 20
118.101
 30
0.00000
  70
    32
  0
VERTEX
  8
0
  5
2DF3
 10
161.825
 20
118.029
 30
0.00000
  70
    32
  0
VERTEX
  8
0
  5
2DF4
 10
161.760
 20
117.957
 30
0.00000
  70
    32
  0
VERTEX
  8
0
  5
2DF5
 10
161.696
 20
117.884
 30
0.00000
  70
    32
  0
VERTEX
  8
0
  5
2DF6
 10
161.633
 20
117.810
 30
0.00000
  70
    32
  0
VERTEX
  8
0
  5
2DF7
 10
161.572
 20
117.736
 30
0.00000
  70
    32
  0
VERTEX
  8
0
  5
2DF8
 10
161.513
 20
117.661
 30
0.00000
  70
    32
  0
VERTEX
  8
0
  5
2DF9
 10
161.455
 20
117.585
 30
0.00000
  70
    32
  0
VERTEX
  8
0
  5
2DFA
 10
161.399
 20
117.509
 30
0.00000
  70
    32
  0
VERTEX
  8
0
  5
2DFB
 10
161.344
 20
117.432
 30
0.00000
  70
    32
  0
VERTEX
  8
0
  5
2DFC
 10
161.291
 20
117.355
 30
0.00000
  70
    32
  0
VERTEX
  8
0
  5
2DFD
 10
161.240
 20
117.277
 30
0.00000
  70
    32
  0
VERTEX
  8
0
  5
2DFE
 10
161.190
 20
117.199
 30
0.00000
  70
    32
  0
VERTEX
  8
0
  5
2DFF
 10
161.142
 20
117.120
 30
0.00000
  70
    32
  0
VERTEX
  8
0
  5
2E00
 10
161.095
 20
117.040
 30
0.00000
  70
    32
  0
VERTEX
  8
0
  5
2E01
 10
161.050
 20
116.960
 30
0.00000
  70
    32
  0
VERTEX
  8
0
  5
2E02
 10
161.007
 20
116.880
 30
0.00000
  70
    32
  0
VERTEX
  8
0
  5
2E03
 10
160.965
 20
116.799
 30
0.00000
  70
    32
  0
VERTEX
  8
0
  5
2E04
 10
160.925
 20
116.717
 30
0.00000
  70
    32
  0
VERTEX
  8
0
  5
2E05
 10
160.886
 20
116.636
 30
0.00000
  70
    32
  0
VERTEX
  8
0
  5
2E06
 10
160.850
 20
116.553
 30
0.00000
  70
    32
  0
VERTEX
  8
0
  5
2E07
 10
160.815
 20
116.471
 30
0.00000
  70
    32
  0
VERTEX
  8
0
  5
2E08
 10
160.781
 20
116.388
 30
0.00000
  70
    32
  0
VERTEX
  8
0
  5
2E09
 10
160.750
 20
116.304
 30
0.00000
  70
    32
  0
VERTEX
  8
0
  5
2E0A
 10
160.720
 20
116.221
 30
0.00000
  70
    32
  0
VERTEX
  8
0
  5
2E0B
 10
160.692
 20
116.137
 30
0.00000
  70
    32
  0
VERTEX
  8
0
  5
2E0C
 10
160.665
 20
116.053
 30
0.00000
  70
    32
  0
VERTEX
  8
0
  5
2E0D
 10
160.640
 20
115.968
 30
0.00000
  70
    32
  0
VERTEX
  8
0
  5
2E0E
 10
160.617
 20
115.883
 30
0.00000
  70
    32
  0
VERTEX
  8
0
  5
2E0F
 10
160.596
 20
115.798
 30
0.00000
  70
    32
  0
VERTEX
  8
0
  5
2E10
 10
160.576
 20
115.713
 30
0.00000
  70
    32
  0
VERTEX
  8
0
  5
2E11
 10
160.559
 20
115.627
 30
0.00000
  70
    32
  0
VERTEX
  8
0
  5
2E12
 10
160.543
 20
115.542
 30
0.00000
  70
    32
  0
VERTEX
  8
0
  5
2E13
 10
160.528
 20
115.456
 30
0.00000
  70
    32
  0
VERTEX
  8
0
  5
2E14
 10
160.516
 20
115.370
 30
0.00000
  70
    32
  0
VERTEX
  8
0
  5
2E15
 10
160.505
 20
115.284
 30
0.00000
  70
    32
  0
VERTEX
  8
0
  5
2E16
 10
160.496
 20
115.198
 30
0.00000
  70
    32
  0
VERTEX
  8
0
  5
2E17
 10
160.489
 20
115.111
 30
0.00000
  70
    32
  0
VERTEX
  8
0
  5
2E18
 10
160.483
 20
115.025
 30
0.00000
  70
    32
  0
VERTEX
  8
0
  5
2E19
 10
160.480
 20
114.939
 30
0.00000
  70
    32
  0
VERTEX
  8
0
  5
2E1A
 10
160.478
 20
114.852
 30
0.00000
  70
    32
  0
VERTEX
  8
0
  5
2E1B
 10
160.477
 20
114.766
 30
0.00000
  70
    32
  0
VERTEX
  8
0
  5
2E1C
 10
160.479
 20
114.679
 30
0.00000
  70
    32
  0
VERTEX
  8
0
  5
2E1D
 10
160.482
 20
114.593
 30
0.00000
  70
    32
  0
VERTEX
  8
0
  5
2E1E
 10
160.488
 20
114.507
 30
0.00000
  70
    32
  0
VERTEX
  8
0
  5
2E1F
 10
160.494
 20
114.420
 30
0.00000
  70
    32
  0
VERTEX
  8
0
  5
2E20
 10
160.503
 20
114.334
 30
0.00000
  70
    32
  0
VERTEX
  8
0
  5
2E21
 10
160.514
 20
114.248
 30
0.00000
  70
    32
  0
VERTEX
  8
0
  5
2E22
 10
160.526
 20
114.162
 30
0.00000
  70
    32
  0
VERTEX
  8
0
  5
2E23
 10
160.540
 20
114.076
 30
0.00000
  70
    32
  0
VERTEX
  8
0
  5
2E24
 10
160.555
 20
113.990
 30
0.00000
  70
    32
  0
VERTEX
  8
0
  5
2E25
 10
160.573
 20
113.905
 30
0.00000
  70
    32
  0
VERTEX
  8
0
  5
2E26
 10
160.592
 20
113.820
 30
0.00000
  70
    32
  0
VERTEX
  8
0
  5
2E27
 10
160.613
 20
113.735
 30
0.00000
  70
    32
  0
VERTEX
  8
0
  5
2E28
 10
160.636
 20
113.650
 30
0.00000
  70
    32
  0
VERTEX
  8
0
  5
2E29
 10
160.660
 20
113.565
 30
0.00000
  70
    32
  0
VERTEX
  8
0
  5
2E2A
 10
160.686
 20
113.481
 30
0.00000
  70
    32
  0
VERTEX
  8
0
  5
2E2B
 10
160.714
 20
113.397
 30
0.00000
  70
    32
  0
VERTEX
  8
0
  5
2E2C
 10
160.744
 20
113.313
 30
0.00000
  70
    32
  0
VERTEX
  8
0
  5
2E2D
 10
160.775
 20
113.230
 30
0.00000
  70
    32
  0
VERTEX
  8
0
  5
2E2E
 10
160.808
 20
113.147
 30
0.00000
  70
    32
  0
VERTEX
  8
0
  5
2E2F
 10
160.843
 20
113.064
 30
0.00000
  70
    32
  0
VERTEX
  8
0
  5
2E30
 10
160.879
 20
112.982
 30
0.00000
  70
    32
  0
VERTEX
  8
0
  5
2E31
 10
160.917
 20
112.900
 30
0.00000
  70
    32
  0
VERTEX
  8
0
  5
2E32
 10
160.957
 20
112.818
 30
0.00000
  70
    32
  0
VERTEX
  8
0
  5
2E33
 10
160.998
 20
112.737
 30
0.00000
  70
    32
  0
VERTEX
  8
0
  5
2E34
 10
161.041
 20
112.657
 30
0.00000
  70
    32
  0
VERTEX
  8
0
  5
2E35
 10
161.086
 20
112.577
 30
0.00000
  70
    32
  0
VERTEX
  8
0
  5
2E36
 10
161.133
 20
112.497
 30
0.00000
  70
    32
  0
VERTEX
  8
0
  5
2E37
 10
161.180
 20
112.418
 30
0.00000
  70
    32
  0
VERTEX
  8
0
  5
2E38
 10
161.230
 20
112.339
 30
0.00000
  70
    32
  0
VERTEX
  8
0
  5
2E39
 10
161.281
 20
112.261
 30
0.00000
  70
    32
  0
VERTEX
  8
0
  5
2E3A
 10
161.334
 20
112.184
 30
0.00000
  70
    32
  0
VERTEX
  8
0
  5
2E3B
 10
161.388
 20
112.107
 30
0.00000
  70
    32
  0
VERTEX
  8
0
  5
2E3C
 10
161.444
 20
112.031
 30
0.00000
  70
    32
  0
VERTEX
  8
0
  5
2E3D
 10
161.502
 20
111.955
 30
0.00000
  70
    32
  0
VERTEX
  8
0
  5
2E3E
 10
161.561
 20
111.880
 30
0.00000
  70
    32
  0
VERTEX
  8
0
  5
2E3F
 10
161.621
 20
111.805
 30
0.00000
  70
    32
  0
VERTEX
  8
0
  5
2E40
 10
161.683
 20
111.732
 30
0.00000
  70
    32
  0
VERTEX
  8
0
  5
2E41
 10
161.747
 20
111.659
 30
0.00000
  70
    32
  0
VERTEX
  8
0
  5
2E42
 10
161.812
 20
111.586
 30
0.00000
  70
    32
  0
VERTEX
  8
0
  5
2E43
 10
161.879
 20
111.515
 30
0.00000
  70
    32
  0
VERTEX
  8
0
  5
2E44
 10
161.947
 20
111.444
 30
0.00000
  70
    32
  0
VERTEX
  8
0
  5
2E45
 10
162.016
 20
111.373
 30
0.00000
  70
    32
  0
VERTEX
  8
0
  5
2E46
 10
162.087
 20
111.304
 30
0.00000
  70
    32
  0
VERTEX
  8
0
  5
2E47
 10
162.159
 20
111.235
 30
0.00000
  70
    32
  0
VERTEX
  8
0
  5
2E48
 10
162.233
 20
111.167
 30
0.00000
  70
    32
  0
VERTEX
  8
0
  5
2E49
 10
162.308
 20
111.100
 30
0.00000
  70
    32
  0
VERTEX
  8
0
  5
2E4A
 10
162.384
 20
111.034
 30
0.00000
  70
    32
  0
VERTEX
  8
0
  5
2E4B
 10
162.462
 20
110.969
 30
0.00000
  70
    32
  0
VERTEX
  8
0
  5
2E4C
 10
162.541
 20
110.904
 30
0.00000
  70
    32
  0
VERTEX
  8
0
  5
2E4D
 10
162.622
 20
110.840
 30
0.00000
  70
    32
  0
VERTEX
  8
0
  5
2E4E
 10
162.703
 20
110.778
 30
0.00000
  70
    32
  0
VERTEX
  8
0
  5
2E4F
 10
162.786
 20
110.716
 30
0.00000
  70
    32
  0
VERTEX
  8
0
  5
2E50
 10
162.870
 20
110.655
 30
0.00000
  70
    32
  0
VERTEX
  8
0
  5
2E51
 10
162.956
 20
110.595
 30
0.00000
  70
    32
  0
VERTEX
  8
0
  5
2E52
 10
163.043
 20
110.535
 30
0.00000
  70
    32
  0
VERTEX
  8
0
  5
2E53
 10
163.131
 20
110.477
 30
0.00000
  70
    32
  0
VERTEX
  8
0
  5
2E54
 10
163.220
 20
110.420
 30
0.00000
  70
    32
  0
VERTEX
  8
0
  5
2E55
 10
163.310
 20
110.363
 30
0.00000
  70
    32
  0
VERTEX
  8
0
  5
2E56
 10
163.401
 20
110.308
 30
0.00000
  70
    32
  0
VERTEX
  8
0
  5
2E57
 10
163.494
 20
110.254
 30
0.00000
  70
    32
  0
VERTEX
  8
0
  5
2E58
 10
163.587
 20
110.200
 30
0.00000
  70
    32
  0
VERTEX
  8
0
  5
2E59
 10
163.682
 20
110.148
 30
0.00000
  70
    32
  0
VERTEX
  8
0
  5
2E5A
 10
163.778
 20
110.097
 30
0.00000
  70
    32
  0
VERTEX
  8
0
  5
2E5B
 10
163.875
 20
110.047
 30
0.00000
  70
    32
  0
VERTEX
  8
0
  5
2E5C
 10
163.973
 20
109.997
 30
0.00000
  70
    32
  0
VERTEX
  8
0
  5
2E5D
 10
164.071
 20
109.949
 30
0.00000
  70
    32
  0
VERTEX
  8
0
  5
2E5E
 10
164.171
 20
109.902
 30
0.00000
  70
    32
  0
VERTEX
  8
0
  5
2E5F
 10
164.272
 20
109.856
 30
0.00000
  70
    32
  0
VERTEX
  8
0
  5
2E60
 10
164.374
 20
109.811
 30
0.00000
  70
    32
  0
VERTEX
  8
0
  5
2E61
 10
164.476
 20
109.767
 30
0.00000
  70
    32
  0
VERTEX
  8
0
  5
2E62
 10
164.580
 20
109.725
 30
0.00000
  70
    32
  0
VERTEX
  8
0
  5
2E63
 10
164.684
 20
109.683
 30
0.00000
  70
    32
  0
VERTEX
  8
0
  5
2E64
 10
164.789
 20
109.643
 30
0.00000
  70
    32
  0
VERTEX
  8
0
  5
2E65
 10
164.895
 20
109.604
 30
0.00000
  70
    32
  0
VERTEX
  8
0
  5
2E66
 10
165.002
 20
109.565
 30
0.00000
  70
    32
  0
VERTEX
  8
0
  5
2E67
 10
165.109
 20
109.528
 30
0.00000
  70
    32
  0
VERTEX
  8
0
  5
2E68
 10
165.218
 20
109.493
 30
0.00000
  70
    32
  0
VERTEX
  8
0
  5
2E69
 10
165.327
 20
109.458
 30
0.00000
  70
    32
  0
VERTEX
  8
0
  5
2E6A
 10
165.436
 20
109.425
 30
0.00000
  70
    32
  0
SEQEND
  8
0
  5
2E6B
  0
ARC
  5
2554
  8
0
 10
168.5486498593722047
 20
111.9130140229355987
 30
0.0
 40
3.8744029790963239
 50
273.2768479004914184
 51
320.0381846031008877
  0
ARC
  5
2555
  8
0
 10
168.4460164104534101
 20
111.9761251489324962
 30
0.0
 40
3.9456796492413391
 50
220.2909711830535002
 51
274.0513794099738902
  0
POLYLINE
  5
2556
  8
0
 10
171.5182737987564963
 20
109.4245743085210023
 30
0.0
 66
     1
 70
     8
  0
VERTEX
  8
0
  5
2E6C
 10
171.518
 20
109.425
 30
0.00000
  70
    32
  0
VERTEX
  8
0
  5
2E6D
 10
171.628
 20
109.458
 30
0.00000
  70
    32
  0
VERTEX
  8
0
  5
2E6E
 10
171.737
 20
109.493
 30
0.00000
  70
    32
  0
VERTEX
  8
0
  5
2E6F
 10
171.845
 20
109.528
 30
0.00000
  70
    32
  0
VERTEX
  8
0
  5
2E70
 10
171.953
 20
109.565
 30
0.00000
  70
    32
  0
VERTEX
  8
0
  5
2E71
 10
172.060
 20
109.604
 30
0.00000
  70
    32
  0
VERTEX
  8
0
  5
2E72
 10
172.166
 20
109.643
 30
0.00000
  70
    32
  0
VERTEX
  8
0
  5
2E73
 10
172.271
 20
109.683
 30
0.00000
  70
    32
  0
VERTEX
  8
0
  5
2E74
 10
172.375
 20
109.725
 30
0.00000
  70
    32
  0
VERTEX
  8
0
  5
2E75
 10
172.479
 20
109.767
 30
0.00000
  70
    32
  0
VERTEX
  8
0
  5
2E76
 10
172.581
 20
109.811
 30
0.00000
  70
    32
  0
VERTEX
  8
0
  5
2E77
 10
172.683
 20
109.856
 30
0.00000
  70
    32
  0
VERTEX
  8
0
  5
2E78
 10
172.784
 20
109.902
 30
0.00000
  70
    32
  0
VERTEX
  8
0
  5
2E79
 10
172.883
 20
109.949
 30
0.00000
  70
    32
  0
VERTEX
  8
0
  5
2E7A
 10
172.982
 20
109.997
 30
0.00000
  70
    32
  0
VERTEX
  8
0
  5
2E7B
 10
173.080
 20
110.047
 30
0.00000
  70
    32
  0
VERTEX
  8
0
  5
2E7C
 10
173.177
 20
110.097
 30
0.00000
  70
    32
  0
VERTEX
  8
0
  5
2E7D
 10
173.272
 20
110.148
 30
0.00000
  70
    32
  0
VERTEX
  8
0
  5
2E7E
 10
173.367
 20
110.200
 30
0.00000
  70
    32
  0
VERTEX
  8
0
  5
2E7F
 10
173.461
 20
110.254
 30
0.00000
  70
    32
  0
VERTEX
  8
0
  5
2E80
 10
173.553
 20
110.308
 30
0.00000
  70
    32
  0
VERTEX
  8
0
  5
2E81
 10
173.645
 20
110.363
 30
0.00000
  70
    32
  0
VERTEX
  8
0
  5
2E82
 10
173.735
 20
110.420
 30
0.00000
  70
    32
  0
VERTEX
  8
0
  5
2E83
 10
173.824
 20
110.477
 30
0.00000
  70
    32
  0
VERTEX
  8
0
  5
2E84
 10
173.912
 20
110.535
 30
0.00000
  70
    32
  0
VERTEX
  8
0
  5
2E85
 10
173.999
 20
110.595
 30
0.00000
  70
    32
  0
VERTEX
  8
0
  5
2E86
 10
174.084
 20
110.655
 30
0.00000
  70
    32
  0
VERTEX
  8
0
  5
2E87
 10
174.168
 20
110.716
 30
0.00000
  70
    32
  0
VERTEX
  8
0
  5
2E88
 10
174.251
 20
110.778
 30
0.00000
  70
    32
  0
VERTEX
  8
0
  5
2E89
 10
174.333
 20
110.840
 30
0.00000
  70
    32
  0
VERTEX
  8
0
  5
2E8A
 10
174.414
 20
110.904
 30
0.00000
  70
    32
  0
VERTEX
  8
0
  5
2E8B
 10
174.493
 20
110.969
 30
0.00000
  70
    32
  0
VERTEX
  8
0
  5
2E8C
 10
174.570
 20
111.034
 30
0.00000
  70
    32
  0
VERTEX
  8
0
  5
2E8D
 10
174.647
 20
111.100
 30
0.00000
  70
    32
  0
VERTEX
  8
0
  5
2E8E
 10
174.722
 20
111.167
 30
0.00000
  70
    32
  0
VERTEX
  8
0
  5
2E8F
 10
174.796
 20
111.235
 30
0.00000
  70
    32
  0
VERTEX
  8
0
  5
2E90
 10
174.868
 20
111.304
 30
0.00000
  70
    32
  0
VERTEX
  8
0
  5
2E91
 10
174.939
 20
111.373
 30
0.00000
  70
    32
  0
VERTEX
  8
0
  5
2E92
 10
175.008
 20
111.444
 30
0.00000
  70
    32
  0
VERTEX
  8
0
  5
2E93
 10
175.076
 20
111.515
 30
0.00000
  70
    32
  0
VERTEX
  8
0
  5
2E94
 10
175.143
 20
111.586
 30
0.00000
  70
    32
  0
VERTEX
  8
0
  5
2E95
 10
175.208
 20
111.659
 30
0.00000
  70
    32
  0
VERTEX
  8
0
  5
2E96
 10
175.271
 20
111.732
 30
0.00000
  70
    32
  0
VERTEX
  8
0
  5
2E97
 10
175.333
 20
111.805
 30
0.00000
  70
    32
  0
VERTEX
  8
0
  5
2E98
 10
175.394
 20
111.880
 30
0.00000
  70
    32
  0
VERTEX
  8
0
  5
2E99
 10
175.453
 20
111.955
 30
0.00000
  70
    32
  0
VERTEX
  8
0
  5
2E9A
 10
175.510
 20
112.031
 30
0.00000
  70
    32
  0
VERTEX
  8
0
  5
2E9B
 10
175.566
 20
112.107
 30
0.00000
  70
    32
  0
VERTEX
  8
0
  5
2E9C
 10
175.621
 20
112.184
 30
0.00000
  70
    32
  0
VERTEX
  8
0
  5
2E9D
 10
175.673
 20
112.261
 30
0.00000
  70
    32
  0
VERTEX
  8
0
  5
2E9E
 10
175.725
 20
112.339
 30
0.00000
  70
    32
  0
VERTEX
  8
0
  5
2E9F
 10
175.774
 20
112.418
 30
0.00000
  70
    32
  0
VERTEX
  8
0
  5
2EA0
 10
175.822
 20
112.497
 30
0.00000
  70
    32
  0
VERTEX
  8
0
  5
2EA1
 10
175.868
 20
112.577
 30
0.00000
  70
    32
  0
VERTEX
  8
0
  5
2EA2
 10
175.913
 20
112.657
 30
0.00000
  70
    32
  0
VERTEX
  8
0
  5
2EA3
 10
175.956
 20
112.737
 30
0.00000
  70
    32
  0
VERTEX
  8
0
  5
2EA4
 10
175.998
 20
112.818
 30
0.00000
  70
    32
  0
VERTEX
  8
0
  5
2EA5
 10
176.037
 20
112.900
 30
0.00000
  70
    32
  0
VERTEX
  8
0
  5
2EA6
 10
176.075
 20
112.982
 30
0.00000
  70
    32
  0
VERTEX
  8
0
  5
2EA7
 10
176.112
 20
113.064
 30
0.00000
  70
    32
  0
VERTEX
  8
0
  5
2EA8
 10
176.147
 20
113.147
 30
0.00000
  70
    32
  0
VERTEX
  8
0
  5
2EA9
 10
176.180
 20
113.230
 30
0.00000
  70
    32
  0
VERTEX
  8
0
  5
2EAA
 10
176.211
 20
113.313
 30
0.00000
  70
    32
  0
VERTEX
  8
0
  5
2EAB
 10
176.240
 20
113.397
 30
0.00000
  70
    32
  0
VERTEX
  8
0
  5
2EAC
 10
176.268
 20
113.481
 30
0.00000
  70
    32
  0
VERTEX
  8
0
  5
2EAD
 10
176.295
 20
113.565
 30
0.00000
  70
    32
  0
VERTEX
  8
0
  5
2EAE
 10
176.319
 20
113.650
 30
0.00000
  70
    32
  0
VERTEX
  8
0
  5
2EAF
 10
176.342
 20
113.735
 30
0.00000
  70
    32
  0
VERTEX
  8
0
  5
2EB0
 10
176.363
 20
113.820
 30
0.00000
  70
    32
  0
VERTEX
  8
0
  5
2EB1
 10
176.382
 20
113.905
 30
0.00000
  70
    32
  0
VERTEX
  8
0
  5
2EB2
 10
176.399
 20
113.990
 30
0.00000
  70
    32
  0
VERTEX
  8
0
  5
2EB3
 10
176.415
 20
114.076
 30
0.00000
  70
    32
  0
VERTEX
  8
0
  5
2EB4
 10
176.429
 20
114.162
 30
0.00000
  70
    32
  0
VERTEX
  8
0
  5
2EB5
 10
176.441
 20
114.248
 30
0.00000
  70
    32
  0
VERTEX
  8
0
  5
2EB6
 10
176.452
 20
114.334
 30
0.00000
  70
    32
  0
VERTEX
  8
0
  5
2EB7
 10
176.460
 20
114.420
 30
0.00000
  70
    32
  0
VERTEX
  8
0
  5
2EB8
 10
176.467
 20
114.507
 30
0.00000
  70
    32
  0
VERTEX
  8
0
  5
2EB9
 10
176.472
 20
114.593
 30
0.00000
  70
    32
  0
VERTEX
  8
0
  5
2EBA
 10
176.476
 20
114.679
 30
0.00000
  70
    32
  0
VERTEX
  8
0
  5
2EBB
 10
176.477
 20
114.766
 30
0.00000
  70
    32
  0
VERTEX
  8
0
  5
2EBC
 10
176.477
 20
114.852
 30
0.00000
  70
    32
  0
VERTEX
  8
0
  5
2EBD
 10
176.475
 20
114.939
 30
0.00000
  70
    32
  0
VERTEX
  8
0
  5
2EBE
 10
176.471
 20
115.025
 30
0.00000
  70
    32
  0
VERTEX
  8
0
  5
2EBF
 10
176.466
 20
115.111
 30
0.00000
  70
    32
  0
VERTEX
  8
0
  5
2EC0
 10
176.459
 20
115.198
 30
0.00000
  70
    32
  0
VERTEX
  8
0
  5
2EC1
 10
176.450
 20
115.284
 30
0.00000
  70
    32
  0
VERTEX
  8
0
  5
2EC2
 10
176.439
 20
115.370
 30
0.00000
  70
    32
  0
VERTEX
  8
0
  5
2EC3
 10
176.426
 20
115.456
 30
0.00000
  70
    32
  0
VERTEX
  8
0
  5
2EC4
 10
176.412
 20
115.542
 30
0.00000
  70
    32
  0
VERTEX
  8
0
  5
2EC5
 10
176.396
 20
115.627
 30
0.00000
  70
    32
  0
VERTEX
  8
0
  5
2EC6
 10
176.378
 20
115.713
 30
0.00000
  70
    32
  0
VERTEX
  8
0
  5
2EC7
 10
176.359
 20
115.798
 30
0.00000
  70
    32
  0
VERTEX
  8
0
  5
2EC8
 10
176.337
 20
115.883
 30
0.00000
  70
    32
  0
VERTEX
  8
0
  5
2EC9
 10
176.314
 20
115.968
 30
0.00000
  70
    32
  0
VERTEX
  8
0
  5
2ECA
 10
176.290
 20
116.053
 30
0.00000
  70
    32
  0
VERTEX
  8
0
  5
2ECB
 10
176.263
 20
116.137
 30
0.00000
  70
    32
  0
VERTEX
  8
0
  5
2ECC
 10
176.235
 20
116.221
 30
0.00000
  70
    32
  0
VERTEX
  8
0
  5
2ECD
 10
176.205
 20
116.304
 30
0.00000
  70
    32
  0
VERTEX
  8
0
  5
2ECE
 10
176.173
 20
116.388
 30
0.00000
  70
    32
  0
VERTEX
  8
0
  5
2ECF
 10
176.140
 20
116.471
 30
0.00000
  70
    32
  0
VERTEX
  8
0
  5
2ED0
 10
176.105
 20
116.553
 30
0.00000
  70
    32
  0
VERTEX
  8
0
  5
2ED1
 10
176.068
 20
116.636
 30
0.00000
  70
    32
  0
VERTEX
  8
0
  5
2ED2
 10
176.030
 20
116.717
 30
0.00000
  70
    32
  0
VERTEX
  8
0
  5
2ED3
 10
175.990
 20
116.799
 30
0.00000
  70
    32
  0
VERTEX
  8
0
  5
2ED4
 10
175.948
 20
116.880
 30
0.00000
  70
    32
  0
VERTEX
  8
0
  5
2ED5
 10
175.905
 20
116.960
 30
0.00000
  70
    32
  0
VERTEX
  8
0
  5
2ED6
 10
175.860
 20
117.040
 30
0.00000
  70
    32
  0
VERTEX
  8
0
  5
2ED7
 10
175.813
 20
117.120
 30
0.00000
  70
    32
  0
VERTEX
  8
0
  5
2ED8
 10
175.765
 20
117.199
 30
0.00000
  70
    32
  0
VERTEX
  8
0
  5
2ED9
 10
175.715
 20
117.277
 30
0.00000
  70
    32
  0
VERTEX
  8
0
  5
2EDA
 10
175.663
 20
117.355
 30
0.00000
  70
    32
  0
VERTEX
  8
0
  5
2EDB
 10
175.610
 20
117.432
 30
0.00000
  70
    32
  0
VERTEX
  8
0
  5
2EDC
 10
175.556
 20
117.509
 30
0.00000
  70
    32
  0
VERTEX
  8
0
  5
2EDD
 10
175.499
 20
117.585
 30
0.00000
  70
    32
  0
VERTEX
  8
0
  5
2EDE
 10
175.442
 20
117.661
 30
0.00000
  70
    32
  0
VERTEX
  8
0
  5
2EDF
 10
175.382
 20
117.736
 30
0.00000
  70
    32
  0
VERTEX
  8
0
  5
2EE0
 10
175.321
 20
117.810
 30
0.00000
  70
    32
  0
VERTEX
  8
0
  5
2EE1
 10
175.259
 20
117.884
 30
0.00000
  70
    32
  0
VERTEX
  8
0
  5
2EE2
 10
175.195
 20
117.957
 30
0.00000
  70
    32
  0
VERTEX
  8
0
  5
2EE3
 10
175.130
 20
118.029
 30
0.00000
  70
    32
  0
VERTEX
  8
0
  5
2EE4
 10
175.063
 20
118.101
 30
0.00000
  70
    32
  0
VERTEX
  8
0
  5
2EE5
 10
174.995
 20
118.171
 30
0.00000
  70
    32
  0
VERTEX
  8
0
  5
2EE6
 10
174.925
 20
118.241
 30
0.00000
  70
    32
  0
VERTEX
  8
0
  5
2EE7
 10
174.854
 20
118.311
 30
0.00000
  70
    32
  0
VERTEX
  8
0
  5
2EE8
 10
174.781
 20
118.379
 30
0.00000
  70
    32
  0
VERTEX
  8
0
  5
2EE9
 10
174.707
 20
118.447
 30
0.00000
  70
    32
  0
VERTEX
  8
0
  5
2EEA
 10
174.632
 20
118.514
 30
0.00000
  70
    32
  0
VERTEX
  8
0
  5
2EEB
 10
174.555
 20
118.580
 30
0.00000
  70
    32
  0
VERTEX
  8
0
  5
2EEC
 10
174.477
 20
118.645
 30
0.00000
  70
    32
  0
SEQEND
  8
0
  5
2EED
  0
POLYLINE
  5
2557
  8
0
 10
162.4773215042226013
 20
116.6169825010724139
 30
0.0
 66
     1
 70
     8
  0
VERTEX
  8
0
  5
2EEE
 10
162.477
 20
116.617
 30
0.00000
  70
    32
  0
VERTEX
  8
0
  5
2EEF
 10
162.452
 20
116.572
 30
0.00000
  70
    32
  0
VERTEX
  8
0
  5
2EF0
 10
162.427
 20
116.526
 30
0.00000
  70
    32
  0
VERTEX
  8
0
  5
2EF1
 10
162.402
 20
116.480
 30
0.00000
  70
    32
  0
VERTEX
  8
0
  5
2EF2
 10
162.379
 20
116.435
 30
0.00000
  70
    32
  0
VERTEX
  8
0
  5
2EF3
 10
162.356
 20
116.388
 30
0.00000
  70
    32
  0
VERTEX
  8
0
  5
2EF4
 10
162.333
 20
116.342
 30
0.00000
  70
    32
  0
VERTEX
  8
0
  5
2EF5
 10
162.312
 20
116.296
 30
0.00000
  70
    32
  0
VERTEX
  8
0
  5
2EF6
 10
162.291
 20
116.249
 30
0.00000
  70
    32
  0
VERTEX
  8
0
  5
2EF7
 10
162.270
 20
116.203
 30
0.00000
  70
    32
  0
VERTEX
  8
0
  5
2EF8
 10
162.251
 20
116.156
 30
0.00000
  70
    32
  0
VERTEX
  8
0
  5
2EF9
 10
162.232
 20
116.109
 30
0.00000
  70
    32
  0
VERTEX
  8
0
  5
2EFA
 10
162.213
 20
116.062
 30
0.00000
  70
    32
  0
VERTEX
  8
0
  5
2EFB
 10
162.196
 20
116.014
 30
0.00000
  70
    32
  0
VERTEX
  8
0
  5
2EFC
 10
162.179
 20
115.967
 30
0.00000
  70
    32
  0
VERTEX
  8
0
  5
2EFD
 10
162.162
 20
115.919
 30
0.00000
  70
    32
  0
VERTEX
  8
0
  5
2EFE
 10
162.147
 20
115.872
 30
0.00000
  70
    32
  0
VERTEX
  8
0
  5
2EFF
 10
162.132
 20
115.824
 30
0.00000
  70
    32
  0
VERTEX
  8
0
  5
2F00
 10
162.117
 20
115.776
 30
0.00000
  70
    32
  0
VERTEX
  8
0
  5
2F01
 10
162.104
 20
115.728
 30
0.00000
  70
    32
  0
VERTEX
  8
0
  5
2F02
 10
162.091
 20
115.680
 30
0.00000
  70
    32
  0
VERTEX
  8
0
  5
2F03
 10
162.079
 20
115.632
 30
0.00000
  70
    32
  0
VERTEX
  8
0
  5
2F04
 10
162.067
 20
115.583
 30
0.00000
  70
    32
  0
VERTEX
  8
0
  5
2F05
 10
162.056
 20
115.535
 30
0.00000
  70
    32
  0
VERTEX
  8
0
  5
2F06
 10
162.046
 20
115.487
 30
0.00000
  70
    32
  0
VERTEX
  8
0
  5
2F07
 10
162.037
 20
115.438
 30
0.00000
  70
    32
  0
VERTEX
  8
0
  5
2F08
 10
162.028
 20
115.389
 30
0.00000
  70
    32
  0
VERTEX
  8
0
  5
2F09
 10
162.020
 20
115.341
 30
0.00000
  70
    32
  0
VERTEX
  8
0
  5
2F0A
 10
162.013
 20
115.292
 30
0.00000
  70
    32
  0
VERTEX
  8
0
  5
2F0B
 10
162.006
 20
115.243
 30
0.00000
  70
    32
  0
VERTEX
  8
0
  5
2F0C
 10
162.000
 20
115.195
 30
0.00000
  70
    32
  0
VERTEX
  8
0
  5
2F0D
 10
161.995
 20
115.146
 30
0.00000
  70
    32
  0
VERTEX
  8
0
  5
2F0E
 10
161.990
 20
115.097
 30
0.00000
  70
    32
  0
VERTEX
  8
0
  5
2F0F
 10
161.986
 20
115.048
 30
0.00000
  70
    32
  0
VERTEX
  8
0
  5
2F10
 10
161.983
 20
114.999
 30
0.00000
  70
    32
  0
VERTEX
  8
0
  5
2F11
 10
161.981
 20
114.950
 30
0.00000
  70
    32
  0
VERTEX
  8
0
  5
2F12
 10
161.979
 20
114.901
 30
0.00000
  70
    32
  0
VERTEX
  8
0
  5
2F13
 10
161.978
 20
114.852
 30
0.00000
  70
    32
  0
VERTEX
  8
0
  5
2F14
 10
161.977
 20
114.803
 30
0.00000
  70
    32
  0
VERTEX
  8
0
  5
2F15
 10
161.978
 20
114.754
 30
0.00000
  70
    32
  0
VERTEX
  8
0
  5
2F16
 10
161.979
 20
114.705
 30
0.00000
  70
    32
  0
VERTEX
  8
0
  5
2F17
 10
161.980
 20
114.656
 30
0.00000
  70
    32
  0
VERTEX
  8
0
  5
2F18
 10
161.983
 20
114.607
 30
0.00000
  70
    32
  0
VERTEX
  8
0
  5
2F19
 10
161.986
 20
114.558
 30
0.00000
  70
    32
  0
VERTEX
  8
0
  5
2F1A
 10
161.990
 20
114.509
 30
0.00000
  70
    32
  0
VERTEX
  8
0
  5
2F1B
 10
161.994
 20
114.460
 30
0.00000
  70
    32
  0
VERTEX
  8
0
  5
2F1C
 10
161.999
 20
114.411
 30
0.00000
  70
    32
  0
VERTEX
  8
0
  5
2F1D
 10
162.005
 20
114.363
 30
0.00000
  70
    32
  0
VERTEX
  8
0
  5
2F1E
 10
162.012
 20
114.314
 30
0.00000
  70
    32
  0
VERTEX
  8
0
  5
2F1F
 10
162.019
 20
114.265
 30
0.00000
  70
    32
  0
VERTEX
  8
0
  5
2F20
 10
162.027
 20
114.216
 30
0.00000
  70
    32
  0
VERTEX
  8
0
  5
2F21
 10
162.036
 20
114.168
 30
0.00000
  70
    32
  0
VERTEX
  8
0
  5
2F22
 10
162.045
 20
114.119
 30
0.00000
  70
    32
  0
VERTEX
  8
0
  5
2F23
 10
162.055
 20
114.071
 30
0.00000
  70
    32
  0
VERTEX
  8
0
  5
2F24
 10
162.066
 20
114.023
 30
0.00000
  70
    32
  0
VERTEX
  8
0
  5
2F25
 10
162.078
 20
113.974
 30
0.00000
  70
    32
  0
VERTEX
  8
0
  5
2F26
 10
162.090
 20
113.926
 30
0.00000
  70
    32
  0
VERTEX
  8
0
  5
2F27
 10
162.103
 20
113.878
 30
0.00000
  70
    32
  0
VERTEX
  8
0
  5
2F28
 10
162.116
 20
113.830
 30
0.00000
  70
    32
  0
VERTEX
  8
0
  5
2F29
 10
162.130
 20
113.782
 30
0.00000
  70
    32
  0
VERTEX
  8
0
  5
2F2A
 10
162.145
 20
113.734
 30
0.00000
  70
    32
  0
VERTEX
  8
0
  5
2F2B
 10
162.161
 20
113.687
 30
0.00000
  70
    32
  0
VERTEX
  8
0
  5
2F2C
 10
162.177
 20
113.639
 30
0.00000
  70
    32
  0
VERTEX
  8
0
  5
2F2D
 10
162.194
 20
113.592
 30
0.00000
  70
    32
  0
VERTEX
  8
0
  5
2F2E
 10
162.212
 20
113.544
 30
0.00000
  70
    32
  0
VERTEX
  8
0
  5
2F2F
 10
162.230
 20
113.497
 30
0.00000
  70
    32
  0
VERTEX
  8
0
  5
2F30
 10
162.249
 20
113.450
 30
0.00000
  70
    32
  0
VERTEX
  8
0
  5
2F31
 10
162.268
 20
113.403
 30
0.00000
  70
    32
  0
VERTEX
  8
0
  5
2F32
 10
162.289
 20
113.356
 30
0.00000
  70
    32
  0
VERTEX
  8
0
  5
2F33
 10
162.310
 20
113.310
 30
0.00000
  70
    32
  0
VERTEX
  8
0
  5
2F34
 10
162.331
 20
113.263
 30
0.00000
  70
    32
  0
VERTEX
  8
0
  5
2F35
 10
162.354
 20
113.217
 30
0.00000
  70
    32
  0
VERTEX
  8
0
  5
2F36
 10
162.377
 20
113.171
 30
0.00000
  70
    32
  0
VERTEX
  8
0
  5
2F37
 10
162.400
 20
113.125
 30
0.00000
  70
    32
  0
VERTEX
  8
0
  5
2F38
 10
162.424
 20
113.079
 30
0.00000
  70
    32
  0
VERTEX
  8
0
  5
2F39
 10
162.449
 20
113.034
 30
0.00000
  70
    32
  0
VERTEX
  8
0
  5
2F3A
 10
162.475
 20
112.989
 30
0.00000
  70
    32
  0
VERTEX
  8
0
  5
2F3B
 10
162.501
 20
112.943
 30
0.00000
  70
    32
  0
VERTEX
  8
0
  5
2F3C
 10
162.528
 20
112.898
 30
0.00000
  70
    32
  0
VERTEX
  8
0
  5
2F3D
 10
162.555
 20
112.854
 30
0.00000
  70
    32
  0
VERTEX
  8
0
  5
2F3E
 10
162.584
 20
112.809
 30
0.00000
  70
    32
  0
VERTEX
  8
0
  5
2F3F
 10
162.612
 20
112.765
 30
0.00000
  70
    32
  0
VERTEX
  8
0
  5
2F40
 10
162.642
 20
112.721
 30
0.00000
  70
    32
  0
VERTEX
  8
0
  5
2F41
 10
162.672
 20
112.677
 30
0.00000
  70
    32
  0
VERTEX
  8
0
  5
2F42
 10
162.702
 20
112.633
 30
0.00000
  70
    32
  0
VERTEX
  8
0
  5
2F43
 10
162.734
 20
112.590
 30
0.00000
  70
    32
  0
VERTEX
  8
0
  5
2F44
 10
162.765
 20
112.547
 30
0.00000
  70
    32
  0
VERTEX
  8
0
  5
2F45
 10
162.798
 20
112.504
 30
0.00000
  70
    32
  0
VERTEX
  8
0
  5
2F46
 10
162.831
 20
112.461
 30
0.00000
  70
    32
  0
VERTEX
  8
0
  5
2F47
 10
162.865
 20
112.419
 30
0.00000
  70
    32
  0
VERTEX
  8
0
  5
2F48
 10
162.899
 20
112.376
 30
0.00000
  70
    32
  0
VERTEX
  8
0
  5
2F49
 10
162.934
 20
112.334
 30
0.00000
  70
    32
  0
VERTEX
  8
0
  5
2F4A
 10
162.970
 20
112.293
 30
0.00000
  70
    32
  0
VERTEX
  8
0
  5
2F4B
 10
163.006
 20
112.251
 30
0.00000
  70
    32
  0
VERTEX
  8
0
  5
2F4C
 10
163.042
 20
112.210
 30
0.00000
  70
    32
  0
VERTEX
  8
0
  5
2F4D
 10
163.080
 20
112.169
 30
0.00000
  70
    32
  0
VERTEX
  8
0
  5
2F4E
 10
163.118
 20
112.129
 30
0.00000
  70
    32
  0
VERTEX
  8
0
  5
2F4F
 10
163.156
 20
112.089
 30
0.00000
  70
    32
  0
VERTEX
  8
0
  5
2F50
 10
163.195
 20
112.049
 30
0.00000
  70
    32
  0
VERTEX
  8
0
  5
2F51
 10
163.235
 20
112.009
 30
0.00000
  70
    32
  0
VERTEX
  8
0
  5
2F52
 10
163.275
 20
111.970
 30
0.00000
  70
    32
  0
VERTEX
  8
0
  5
2F53
 10
163.315
 20
111.931
 30
0.00000
  70
    32
  0
VERTEX
  8
0
  5
2F54
 10
163.357
 20
111.892
 30
0.00000
  70
    32
  0
VERTEX
  8
0
  5
2F55
 10
163.398
 20
111.853
 30
0.00000
  70
    32
  0
VERTEX
  8
0
  5
2F56
 10
163.441
 20
111.815
 30
0.00000
  70
    32
  0
VERTEX
  8
0
  5
2F57
 10
163.484
 20
111.777
 30
0.00000
  70
    32
  0
VERTEX
  8
0
  5
2F58
 10
163.527
 20
111.740
 30
0.00000
  70
    32
  0
VERTEX
  8
0
  5
2F59
 10
163.571
 20
111.703
 30
0.00000
  70
    32
  0
VERTEX
  8
0
  5
2F5A
 10
163.616
 20
111.666
 30
0.00000
  70
    32
  0
VERTEX
  8
0
  5
2F5B
 10
163.661
 20
111.630
 30
0.00000
  70
    32
  0
VERTEX
  8
0
  5
2F5C
 10
163.706
 20
111.593
 30
0.00000
  70
    32
  0
VERTEX
  8
0
  5
2F5D
 10
163.752
 20
111.558
 30
0.00000
  70
    32
  0
VERTEX
  8
0
  5
2F5E
 10
163.799
 20
111.522
 30
0.00000
  70
    32
  0
VERTEX
  8
0
  5
2F5F
 10
163.846
 20
111.487
 30
0.00000
  70
    32
  0
VERTEX
  8
0
  5
2F60
 10
163.894
 20
111.452
 30
0.00000
  70
    32
  0
VERTEX
  8
0
  5
2F61
 10
163.942
 20
111.418
 30
0.00000
  70
    32
  0
VERTEX
  8
0
  5
2F62
 10
163.990
 20
111.384
 30
0.00000
  70
    32
  0
VERTEX
  8
0
  5
2F63
 10
164.039
 20
111.350
 30
0.00000
  70
    32
  0
VERTEX
  8
0
  5
2F64
 10
164.089
 20
111.317
 30
0.00000
  70
    32
  0
VERTEX
  8
0
  5
2F65
 10
164.139
 20
111.284
 30
0.00000
  70
    32
  0
VERTEX
  8
0
  5
2F66
 10
164.189
 20
111.252
 30
0.00000
  70
    32
  0
VERTEX
  8
0
  5
2F67
 10
164.240
 20
111.219
 30
0.00000
  70
    32
  0
VERTEX
  8
0
  5
2F68
 10
164.291
 20
111.188
 30
0.00000
  70
    32
  0
VERTEX
  8
0
  5
2F69
 10
164.343
 20
111.156
 30
0.00000
  70
    32
  0
VERTEX
  8
0
  5
2F6A
 10
164.396
 20
111.125
 30
0.00000
  70
    32
  0
VERTEX
  8
0
  5
2F6B
 10
164.448
 20
111.095
 30
0.00000
  70
    32
  0
VERTEX
  8
0
  5
2F6C
 10
164.501
 20
111.065
 30
0.00000
  70
    32
  0
VERTEX
  8
0
  5
2F6D
 10
164.555
 20
111.035
 30
0.00000
  70
    32
  0
VERTEX
  8
0
  5
2F6E
 10
164.609
 20
111.005
 30
0.00000
  70
    32
  0
SEQEND
  8
0
  5
2F6F
  0
ARC
  5
2558
  8
0
 10
168.4773215042226013
 20
112.0231526130938988
 30
0.0
 40
4.0000000000000062
 50
194.7390714135767951
 51
220.5148116596498085
  0
POLYLINE
  5
2559
  8
0
 10
172.3456994512931999
 20
111.0054826177485552
 30
0.0
 66
     1
 70
     8
  0
VERTEX
  8
0
  5
2F70
 10
172.346
 20
111.005
 30
0.00000
  70
    32
  0
VERTEX
  8
0
  5
2F71
 10
172.400
 20
111.035
 30
0.00000
  70
    32
  0
VERTEX
  8
0
  5
2F72
 10
172.453
 20
111.065
 30
0.00000
  70
    32
  0
VERTEX
  8
0
  5
2F73
 10
172.506
 20
111.095
 30
0.00000
  70
    32
  0
VERTEX
  8
0
  5
2F74
 10
172.559
 20
111.125
 30
0.00000
  70
    32
  0
VERTEX
  8
0
  5
2F75
 10
172.611
 20
111.156
 30
0.00000
  70
    32
  0
VERTEX
  8
0
  5
2F76
 10
172.663
 20
111.188
 30
0.00000
  70
    32
  0
VERTEX
  8
0
  5
2F77
 10
172.715
 20
111.219
 30
0.00000
  70
    32
  0
VERTEX
  8
0
  5
2F78
 10
172.765
 20
111.252
 30
0.00000
  70
    32
  0
VERTEX
  8
0
  5
2F79
 10
172.816
 20
111.284
 30
0.00000
  70
    32
  0
VERTEX
  8
0
  5
2F7A
 10
172.866
 20
111.317
 30
0.00000
  70
    32
  0
VERTEX
  8
0
  5
2F7B
 10
172.915
 20
111.350
 30
0.00000
  70
    32
  0
VERTEX
  8
0
  5
2F7C
 10
172.964
 20
111.384
 30
0.00000
  70
    32
  0
VERTEX
  8
0
  5
2F7D
 10
173.013
 20
111.418
 30
0.00000
  70
    32
  0
VERTEX
  8
0
  5
2F7E
 10
173.061
 20
111.452
 30
0.00000
  70
    32
  0
VERTEX
  8
0
  5
2F7F
 10
173.109
 20
111.487
 30
0.00000
  70
    32
  0
VERTEX
  8
0
  5
2F80
 10
173.156
 20
111.522
 30
0.00000
  70
    32
  0
VERTEX
  8
0
  5
2F81
 10
173.202
 20
111.558
 30
0.00000
  70
    32
  0
VERTEX
  8
0
  5
2F82
 10
173.248
 20
111.593
 30
0.00000
  70
    32
  0
VERTEX
  8
0
  5
2F83
 10
173.294
 20
111.630
 30
0.00000
  70
    32
  0
VERTEX
  8
0
  5
2F84
 10
173.339
 20
111.666
 30
0.00000
  70
    32
  0
VERTEX
  8
0
  5
2F85
 10
173.383
 20
111.703
 30
0.00000
  70
    32
  0
VERTEX
  8
0
  5
2F86
 10
173.427
 20
111.740
 30
0.00000
  70
    32
  0
VERTEX
  8
0
  5
2F87
 10
173.471
 20
111.777
 30
0.00000
  70
    32
  0
VERTEX
  8
0
  5
2F88
 10
173.514
 20
111.815
 30
0.00000
  70
    32
  0
VERTEX
  8
0
  5
2F89
 10
173.556
 20
111.853
 30
0.00000
  70
    32
  0
VERTEX
  8
0
  5
2F8A
 10
173.598
 20
111.892
 30
0.00000
  70
    32
  0
VERTEX
  8
0
  5
2F8B
 10
173.639
 20
111.931
 30
0.00000
  70
    32
  0
VERTEX
  8
0
  5
2F8C
 10
173.680
 20
111.970
 30
0.00000
  70
    32
  0
VERTEX
  8
0
  5
2F8D
 10
173.720
 20
112.009
 30
0.00000
  70
    32
  0
VERTEX
  8
0
  5
2F8E
 10
173.760
 20
112.049
 30
0.00000
  70
    32
  0
VERTEX
  8
0
  5
2F8F
 10
173.799
 20
112.089
 30
0.00000
  70
    32
  0
VERTEX
  8
0
  5
2F90
 10
173.837
 20
112.129
 30
0.00000
  70
    32
  0
VERTEX
  8
0
  5
2F91
 10
173.875
 20
112.169
 30
0.00000
  70
    32
  0
VERTEX
  8
0
  5
2F92
 10
173.912
 20
112.210
 30
0.00000
  70
    32
  0
VERTEX
  8
0
  5
2F93
 10
173.949
 20
112.251
 30
0.00000
  70
    32
  0
VERTEX
  8
0
  5
2F94
 10
173.985
 20
112.293
 30
0.00000
  70
    32
  0
VERTEX
  8
0
  5
2F95
 10
174.021
 20
112.334
 30
0.00000
  70
    32
  0
VERTEX
  8
0
  5
2F96
 10
174.056
 20
112.376
 30
0.00000
  70
    32
  0
VERTEX
  8
0
  5
2F97
 10
174.090
 20
112.419
 30
0.00000
  70
    32
  0
VERTEX
  8
0
  5
2F98
 10
174.124
 20
112.461
 30
0.00000
  70
    32
  0
VERTEX
  8
0
  5
2F99
 10
174.157
 20
112.504
 30
0.00000
  70
    32
  0
VERTEX
  8
0
  5
2F9A
 10
174.189
 20
112.547
 30
0.00000
  70
    32
  0
VERTEX
  8
0
  5
2F9B
 10
174.221
 20
112.590
 30
0.00000
  70
    32
  0
VERTEX
  8
0
  5
2F9C
 10
174.252
 20
112.633
 30
0.00000
  70
    32
  0
VERTEX
  8
0
  5
2F9D
 10
174.283
 20
112.677
 30
0.00000
  70
    32
  0
VERTEX
  8
0
  5
2F9E
 10
174.313
 20
112.721
 30
0.00000
  70
    32
  0
VERTEX
  8
0
  5
2F9F
 10
174.342
 20
112.765
 30
0.00000
  70
    32
  0
VERTEX
  8
0
  5
2FA0
 10
174.371
 20
112.809
 30
0.00000
  70
    32
  0
VERTEX
  8
0
  5
2FA1
 10
174.399
 20
112.854
 30
0.00000
  70
    32
  0
VERTEX
  8
0
  5
2FA2
 10
174.427
 20
112.898
 30
0.00000
  70
    32
  0
VERTEX
  8
0
  5
2FA3
 10
174.454
 20
112.943
 30
0.00000
  70
    32
  0
VERTEX
  8
0
  5
2FA4
 10
174.480
 20
112.989
 30
0.00000
  70
    32
  0
VERTEX
  8
0
  5
2FA5
 10
174.505
 20
113.034
 30
0.00000
  70
    32
  0
VERTEX
  8
0
  5
2FA6
 10
174.530
 20
113.079
 30
0.00000
  70
    32
  0
VERTEX
  8
0
  5
2FA7
 10
174.555
 20
113.125
 30
0.00000
  70
    32
  0
VERTEX
  8
0
  5
2FA8
 10
174.578
 20
113.171
 30
0.00000
  70
    32
  0
VERTEX
  8
0
  5
2FA9
 10
174.601
 20
113.217
 30
0.00000
  70
    32
  0
VERTEX
  8
0
  5
2FAA
 10
174.623
 20
113.263
 30
0.00000
  70
    32
  0
VERTEX
  8
0
  5
2FAB
 10
174.645
 20
113.310
 30
0.00000
  70
    32
  0
VERTEX
  8
0
  5
2FAC
 10
174.666
 20
113.356
 30
0.00000
  70
    32
  0
VERTEX
  8
0
  5
2FAD
 10
174.686
 20
113.403
 30
0.00000
  70
    32
  0
VERTEX
  8
0
  5
2FAE
 10
174.706
 20
113.450
 30
0.00000
  70
    32
  0
VERTEX
  8
0
  5
2FAF
 10
174.725
 20
113.497
 30
0.00000
  70
    32
  0
VERTEX
  8
0
  5
2FB0
 10
174.743
 20
113.544
 30
0.00000
  70
    32
  0
VERTEX
  8
0
  5
2FB1
 10
174.761
 20
113.592
 30
0.00000
  70
    32
  0
VERTEX
  8
0
  5
2FB2
 10
174.778
 20
113.639
 30
0.00000
  70
    32
  0
VERTEX
  8
0
  5
2FB3
 10
174.794
 20
113.687
 30
0.00000
  70
    32
  0
VERTEX
  8
0
  5
2FB4
 10
174.809
 20
113.734
 30
0.00000
  70
    32
  0
VERTEX
  8
0
  5
2FB5
 10
174.824
 20
113.782
 30
0.00000
  70
    32
  0
VERTEX
  8
0
  5
2FB6
 10
174.839
 20
113.830
 30
0.00000
  70
    32
  0
VERTEX
  8
0
  5
2FB7
 10
174.852
 20
113.878
 30
0.00000
  70
    32
  0
VERTEX
  8
0
  5
2FB8
 10
174.865
 20
113.926
 30
0.00000
  70
    32
  0
VERTEX
  8
0
  5
2FB9
 10
174.877
 20
113.974
 30
0.00000
  70
    32
  0
VERTEX
  8
0
  5
2FBA
 10
174.888
 20
114.023
 30
0.00000
  70
    32
  0
VERTEX
  8
0
  5
2FBB
 10
174.899
 20
114.071
 30
0.00000
  70
    32
  0
VERTEX
  8
0
  5
2FBC
 10
174.909
 20
114.119
 30
0.00000
  70
    32
  0
VERTEX
  8
0
  5
2FBD
 10
174.919
 20
114.168
 30
0.00000
  70
    32
  0
VERTEX
  8
0
  5
2FBE
 10
174.927
 20
114.216
 30
0.00000
  70
    32
  0
VERTEX
  8
0
  5
2FBF
 10
174.935
 20
114.265
 30
0.00000
  70
    32
  0
VERTEX
  8
0
  5
2FC0
 10
174.943
 20
114.314
 30
0.00000
  70
    32
  0
VERTEX
  8
0
  5
2FC1
 10
174.949
 20
114.363
 30
0.00000
  70
    32
  0
VERTEX
  8
0
  5
2FC2
 10
174.955
 20
114.411
 30
0.00000
  70
    32
  0
VERTEX
  8
0
  5
2FC3
 10
174.960
 20
114.460
 30
0.00000
  70
    32
  0
VERTEX
  8
0
  5
2FC4
 10
174.965
 20
114.509
 30
0.00000
  70
    32
  0
VERTEX
  8
0
  5
2FC5
 10
174.969
 20
114.558
 30
0.00000
  70
    32
  0
VERTEX
  8
0
  5
2FC6
 10
174.972
 20
114.607
 30
0.00000
  70
    32
  0
VERTEX
  8
0
  5
2FC7
 10
174.974
 20
114.656
 30
0.00000
  70
    32
  0
VERTEX
  8
0
  5
2FC8
 10
174.976
 20
114.705
 30
0.00000
  70
    32
  0
VERTEX
  8
0
  5
2FC9
 10
174.977
 20
114.754
 30
0.00000
  70
    32
  0
VERTEX
  8
0
  5
2FCA
 10
174.977
 20
114.803
 30
0.00000
  70
    32
  0
VERTEX
  8
0
  5
2FCB
 10
174.977
 20
114.852
 30
0.00000
  70
    32
  0
VERTEX
  8
0
  5
2FCC
 10
174.976
 20
114.901
 30
0.00000
  70
    32
  0
VERTEX
  8
0
  5
2FCD
 10
174.974
 20
114.950
 30
0.00000
  70
    32
  0
VERTEX
  8
0
  5
2FCE
 10
174.972
 20
114.999
 30
0.00000
  70
    32
  0
VERTEX
  8
0
  5
2FCF
 10
174.968
 20
115.048
 30
0.00000
  70
    32
  0
VERTEX
  8
0
  5
2FD0
 10
174.965
 20
115.097
 30
0.00000
  70
    32
  0
VERTEX
  8
0
  5
2FD1
 10
174.960
 20
115.146
 30
0.00000
  70
    32
  0
VERTEX
  8
0
  5
2FD2
 10
174.955
 20
115.195
 30
0.00000
  70
    32
  0
VERTEX
  8
0
  5
2FD3
 10
174.949
 20
115.243
 30
0.00000
  70
    32
  0
VERTEX
  8
0
  5
2FD4
 10
174.942
 20
115.292
 30
0.00000
  70
    32
  0
VERTEX
  8
0
  5
2FD5
 10
174.935
 20
115.341
 30
0.00000
  70
    32
  0
VERTEX
  8
0
  5
2FD6
 10
174.927
 20
115.389
 30
0.00000
  70
    32
  0
VERTEX
  8
0
  5
2FD7
 10
174.918
 20
115.438
 30
0.00000
  70
    32
  0
VERTEX
  8
0
  5
2FD8
 10
174.908
 20
115.487
 30
0.00000
  70
    32
  0
VERTEX
  8
0
  5
2FD9
 10
174.898
 20
115.535
 30
0.00000
  70
    32
  0
VERTEX
  8
0
  5
2FDA
 10
174.887
 20
115.583
 30
0.00000
  70
    32
  0
VERTEX
  8
0
  5
2FDB
 10
174.876
 20
115.632
 30
0.00000
  70
    32
  0
VERTEX
  8
0
  5
2FDC
 10
174.864
 20
115.680
 30
0.00000
  70
    32
  0
VERTEX
  8
0
  5
2FDD
 10
174.851
 20
115.728
 30
0.00000
  70
    32
  0
VERTEX
  8
0
  5
2FDE
 10
174.837
 20
115.776
 30
0.00000
  70
    32
  0
VERTEX
  8
0
  5
2FDF
 10
174.823
 20
115.824
 30
0.00000
  70
    32
  0
VERTEX
  8
0
  5
2FE0
 10
174.808
 20
115.872
 30
0.00000
  70
    32
  0
VERTEX
  8
0
  5
2FE1
 10
174.792
 20
115.919
 30
0.00000
  70
    32
  0
VERTEX
  8
0
  5
2FE2
 10
174.776
 20
115.967
 30
0.00000
  70
    32
  0
VERTEX
  8
0
  5
2FE3
 10
174.759
 20
116.014
 30
0.00000
  70
    32
  0
VERTEX
  8
0
  5
2FE4
 10
174.741
 20
116.062
 30
0.00000
  70
    32
  0
VERTEX
  8
0
  5
2FE5
 10
174.723
 20
116.109
 30
0.00000
  70
    32
  0
VERTEX
  8
0
  5
2FE6
 10
174.704
 20
116.156
 30
0.00000
  70
    32
  0
VERTEX
  8
0
  5
2FE7
 10
174.684
 20
116.203
 30
0.00000
  70
    32
  0
VERTEX
  8
0
  5
2FE8
 10
174.664
 20
116.249
 30
0.00000
  70
    32
  0
VERTEX
  8
0
  5
2FE9
 10
174.643
 20
116.296
 30
0.00000
  70
    32
  0
VERTEX
  8
0
  5
2FEA
 10
174.621
 20
116.342
 30
0.00000
  70
    32
  0
VERTEX
  8
0
  5
2FEB
 10
174.599
 20
116.388
 30
0.00000
  70
    32
  0
VERTEX
  8
0
  5
2FEC
 10
174.576
 20
116.435
 30
0.00000
  70
    32
  0
VERTEX
  8
0
  5
2FED
 10
174.552
 20
116.480
 30
0.00000
  70
    32
  0
VERTEX
  8
0
  5
2FEE
 10
174.528
 20
116.526
 30
0.00000
  70
    32
  0
VERTEX
  8
0
  5
2FEF
 10
174.503
 20
116.572
 30
0.00000
  70
    32
  0
VERTEX
  8
0
  5
2FF0
 10
174.477
 20
116.617
 30
0.00000
  70
    32
  0
SEQEND
  8
0
  5
2FF1
  0
ARC
  5
255A
  8
0
 10
168.4773215042226013
 20
112.0231526130938988
 30
0.0
 40
4.0
 50
319.4851903403566098
 51
345.260928617535285
  0
LINE
  5
255B
  8
0
 10
166.0773215042225956
 20
116.823152613093896
 30
0.0
 11
166.0773215042225956
 21
120.0231526130938988
 31
0.0
  0
ARC
  5
255C
  8
0
 10
168.4773215042226013
 20
120.0231526130938988
 30
0.0
 40
2.400000000000007
 50
0.0000000000097707
 51
180.0000126176936988
  0
LINE
  5
255D
  8
0
 10
170.877321504222607
 20
120.0231526130938988
 30
0.0
 11
170.877321504222607
 21
116.823152613094706
 31
0.0
  0
LINE
  5
255F
  8
0
 10
166.0773215042225956
 20
113.6231526130928984
 30
0.0
 11
166.0773215042225956
 21
110.4231526130939045
 31
0.0
  0
LINE
  5
2561
  8
0
 10
170.8773215042226923
 20
110.4231526130939045
 30
0.0
 11
170.877321504222607
 21
113.6231526130938931
 31
0.0
  0
ARC
  5
2562
  8
0
 10
168.4773215042226013
 20
110.4231526130939045
 30
0.0
 40
2.4000000000000048
 50
180.0
 51
0.0
  0
LINE
  5
2563
  8
0
 10
166.0773215042225956
 20
113.6231526130928984
 30
0.0
 11
166.0773215042225956
 21
116.823152613093896
 31
0.0
  0
LINE
  5
2564
  8
0
 10
170.877321504222607
 20
116.823152613094706
 30
0.0
 11
170.877321504222607
 21
113.6231526130938931
 31
0.0
  0
LINE
  5
2566
  8
0
 10
173.6773215042221068
 20
122.423152613094004
 30
0.0
 11
163.2773210739948127
 21
122.4231526130939045
 31
0.0
  0
LINE
  5
256B
  8
0
 10
174.4773215042224876
 20
121.6231529853285025
 30
0.0
 11
170.2661755532857057
 21
121.6231529853285025
 31
0.0
  0
LINE
  5
256D
  8
0
 10
166.6884671622005953
 20
108.8231526130943934
 30
0.0
 11
166.0779920765731106
 21
108.8231526130943934
 31
0.0
  0
LINE
  5
256E
  8
0
 10
170.8608462473262932
 20
108.8231526130943934
 30
0.0
 11
170.2661755532955112
 21
108.8231526130943934
 31
0.0
  0
LINE
  5
256F
  8
0
 10
94.3405219216934654
 20
72.450152613094005
 30
0.0
 11
94.3405219216934654
 21
108.0231526130939983
 31
0.0
  0
LINE
  5
2570
  8
0
 10
78.3405219216934654
 20
118.0346625249308943
 30
0.0
 11
78.3405219216934654
 21
72.450152613094005
 31
0.0
  0
LINE
  5
2571
  8
0
 10
78.3405219216934654
 20
72.450152613094005
 30
0.0
 11
79.5675219216934408
 21
71.2231526130940011
 31
0.0
  0
LINE
  5
2572
  8
0
 10
93.1135219216935042
 20
71.2231526130940011
 30
0.0
 11
94.3405219216934654
 21
72.450152613094005
 31
0.0
  0
ARC
  5
2573
  8
0
 10
81.1405219216939884
 20
121.6231526130938931
 30
0.0
 40
0.8000000000005243
 50
90.0
 51
179.9999733406679923
  0
LINE
  5
2574
  8
0
 10
80.3405219216934654
 20
121.6231529853285025
 30
0.0
 11
80.3405219216934654
 21
119.1598813490912931
 31
0.0
  0
LINE
  5
257D
  8
0
 10
120.7405219216941958
 20
122.423152613094004
 30
0.0
 11
81.1405219216939884
 21
122.423152613094004
 31
0.0
  0
LINE
  5
257E
  8
0
 10
94.3405219216934654
 20
108.0231526130939983
 30
0.0
 11
120.7405219216934
 21
108.0231526130939983
 31
0.0
  0
LINE
  5
257F
  8
0
 10
126.3405219216933943
 20
113.6231526130948026
 30
0.0
 11
126.3405219216933943
 21
116.8231526130948055
 31
0.0
  0
ARC
  5
2580
  8
0
 10
120.7405219216944943
 20
116.8231526130951039
 30
0.0
 40
5.599999999998885
 50
359.9999999999976126
 51
90.0000000000032543
  0
ARC
  5
2581
  8
0
 10
120.7405219216944943
 20
113.6231526130927989
 30
0.0
 40
5.599999999998885
 50
269.9999999999902229
 51
0.0000000000207627
  0
LINE
  5
2583
  8
0
 10
79.8405220441632366
 20
119.5231526130938988
 30
0.0
 11
78.975061990365333
 21
119.5231526130938988
 31
0.0
  0
LINE
  5
2584
  8
0
 10
93.7400225663834306
 20
109.424574276688503
 30
0.0
 11
79.8405220297837133
 21
119.5231525345618024
 31
0.0
  0
ARC
  5
2585
  8
0
 10
105.3759822281225951
 20
113.581384739080903
 30
0.0
 40
12.35615762094627
 50
199.6586745908306
 51
206.6999842973451962
  0
POLYLINE
  5
2586
  8
0
 66
     1
 10
0.0
 20
0.0
 30
0.0
 70
   128
  0
VERTEX
  5
2AD6
  8
0
 10
78.975061990365333
 20
119.5231526130938988
 30
0.0
  0
VERTEX
  5
2AD7
  8
0
 10
78.7968249483886609
 20
119.0386318768536
 30
0.0
  0
VERTEX
  5
2AD8
  8
0
 10
78.6242616680031858
 20
118.625996110564202
 30
0.0
  0
VERTEX
  5
2AD9
  8
0
 10
78.4840530956595046
 20
118.3185470450956984
 30
0.0
  0
VERTEX
  5
2ADA
  8
0
 10
78.3839635438292532
 20
118.1107593276021959
 30
0.0
  0
VERTEX
  5
2ADB
  8
0
 10
78.3429401270079353
 20
118.0279912192718967
 30
0.0
  0
VERTEX
  5
2ADC
  8
0
 10
78.3462656919693643
 20
118.0346625249308943
 30
0.0
  0
SEQEND
  5
2ADD
  8
0
  0
LINE
  5
2587
  8
0
 10
78.3405219216934654
 20
72.450152613094005
 30
0.0
 11
94.3405219216934654
 21
72.450152613094005
 31
0.0
  0
LINE
  5
2588
  8
0
 10
79.5675219216934408
 20
71.2231526130940011
 30
0.0
 11
93.1135219216935042
 21
71.2231526130940011
 31
0.0
  0
ARC
  5
258B
  8
0
 10
91.5476792599119733
 20
121.8542034553607039
 30
0.0
 40
0.5689941645213656
 50
336.0419128877193202
 51
90.7206520013778288
  0
ARC
  5
258C
  8
0
 10
97.8117591027949942
 20
119.9882318132313941
 30
0.0
 40
5.9722484409350534
 50
164.1122830674460999
 51
179.6649813693570081
  0
LINE
  5
258D
  8
0
 10
91.8396127556404451
 20
110.8053028248318981
 30
0.0
 11
91.8396127556404878
 21
120.023152414895705
 31
0.0
  0
ARC
  5
258E
  8
0
 10
105.5408776087413969
 20
115.2231526130939017
 30
0.0
 40
4.5166359302597412
 50
90.0045120676118842
 51
269.9954879323880732
  0
ARC
  5
2598
  8
0
 10
116.7242177452586986
 20
113.228068507253397
 30
0.0
 40
4.8163066852058458
 50
326.5011707409133237
 51
359.9415194971626875
  0
LINE
  5
2599
  8
0
 10
121.5405219216934967
 20
117.2231526130939017
 30
0.0
 11
121.5405219216934967
 21
113.2231526130939017
 31
0.0
  0
ARC
  5
259A
  8
0
 10
116.7242177452586986
 20
117.2182367189345058
 30
0.0
 40
4.8163066852058458
 50
0.0584805028376774
 51
33.4988292590881827
  0
LINE
  5
259B
  8
0
 10
110.7405219216934
 20
119.8764524453780069
 30
0.0
 11
120.7405219216934
 21
119.8764524453780069
 31
0.0
  0
LINE
  5
259C
  8
0
 10
106.8405219216933943
 20
114.8231526130939955
 30
0.0
 11
110.7405219216934
 21
119.8764524453780069
 31
0.0
  0
LINE
  5
259D
  8
0
 10
110.7405219216934
 20
110.5698527808099954
 30
0.0
 11
106.8405219216933943
 21
114.8231526130939955
 31
0.0
  0
LINE
  5
259E
  8
0
 10
120.7405219216934
 20
110.5698527808099954
 30
0.0
 11
110.7405219216934
 21
110.5698527808099954
 31
0.0
  0
LINE
  5
259F
  8
0
 10
105.5405219216933972
 20
119.7397885293485018
 30
0.0
 11
105.5405219216933972
 21
110.7065166968395005
 31
0.0
  0
LINE
  5
25A9
  8
0
 10
92.0676504509958988
 20
121.6231529853285025
 30
0.0
 11
80.3405219216935365
 21
121.6231529853285025
 31
0.0
  0
LINE
  5
25B8
  8
1
 10
86.3405219216934654
 20
39.146893938571111
 30
0.0
 11
86.3405219216934654
 21
17.1468939385710506
 31
0.0
  0
LINE
  5
25B9
  8
1
 10
129.3405219216934938
 20
28.1468939385711394
 30
0.0
 11
75.3405219216933659
 21
28.1468939385711394
 31
0.0
  0
LINE
  5
27C6
  8
0
 10
15.1650038379836598
 20
103.2226526130939988
 30
0.0
 11
31.1650038379836616
 21
103.2226526130939988
 31
0.0
  0
LINE
  5
27C9
  8
3
 10
30.2450038379836492
 20
103.2226526130939988
 30
0.0
 11
30.2450038379836492
 21
71.5296526130939867
 31
0.0
  0
LINE
  5
27CA
  8
3
 10
30.2450038379836492
 20
103.2226526130939988
 30
0.0
 11
31.1650038379836616
 21
104.8161393560574055
 31
0.0
  0
LINE
  5
27CB
  8
3
 10
16.0850038379836207
 20
103.2226526130939988
 30
0.0
 11
16.0850038379836207
 21
71.5306526130939631
 31
0.0
  0
LINE
  5
27CC
  8
3
 10
16.0850038379836207
 20
103.2226526130939988
 30
0.0
 11
15.1650038379836598
 21
104.8161393560574055
 31
0.0
  0
LINE
  5
27CD
  8
1
 10
23.1650038379836083
 20
125.423152613094004
 30
0.0
 11
23.1650038379836083
 21
58.2231526270121194
 31
0.0
  0
LINE
  5
2971
  8
0
 10
166.6884674551594969
 20
121.623152985328403
 30
0.0
 11
162.4773215042226013
 21
121.623152985328403
 31
0.0
  0
LINE
  5
2972
  8
0
 10
160.4768215042228121
 20
103.2226526130939988
 30
0.0
 11
176.4768215042228121
 21
103.2226526130939988
 31
0.0
  0
LINE
  5
2973
  8
3
 10
175.5568215042227962
 20
103.2226526130939988
 30
0.0
 11
175.5568215042227962
 21
71.5296526130939583
 31
0.0
  0
LINE
  5
2974
  8
3
 10
175.5568215042227962
 20
103.2226526130939988
 30
0.0
 11
176.4768215042228121
 21
104.816139356057306
 31
0.0
  0
LINE
  5
2975
  8
3
 10
161.3968215042227996
 20
103.2226526130939988
 30
0.0
 11
161.3968215042227996
 21
71.5306526130939346
 31
0.0
  0
LINE
  5
2976
  8
3
 10
161.3968215042227996
 20
103.2226526130939988
 30
0.0
 11
160.4768215042228121
 21
104.816139356057306
 31
0.0
  0
LINE
  5
2977
  8
1
 10
168.4768215042228121
 20
125.4231526130939045
 30
0.0
 11
168.4768215042228121
 21
58.2231526270120909
 31
0.0
  0
LINE
  5
297C
  8
0
 10
78.3405219216935222
 20
103.2226526130939988
 30
0.0
 11
94.340521921693508
 21
103.2226526130939988
 31
0.0
  0
LINE
  5
297D
  8
3
 10
93.4205219216935063
 20
103.2226526130939988
 30
0.0
 11
93.4205219216935063
 21
71.5296526130940009
 31
0.0
  0
LINE
  5
297E
  8
3
 10
93.4205219216935063
 20
103.2226526130939988
 30
0.0
 11
94.340521921693508
 21
104.8161393560574055
 31
0.0
  0
LINE
  5
297F
  8
3
 10
79.2605219216934813
 20
103.2226526130939988
 30
0.0
 11
79.2605219216934813
 21
71.5306526130939631
 31
0.0
  0
LINE
  5
2980
  8
3
 10
79.2605219216934813
 20
103.2226526130939988
 30
0.0
 11
78.3405219216935222
 21
104.8161393560574055
 31
0.0
  0
LINE
  5
2981
  8
1
 10
86.3405219216934654
 20
125.423152613094004
 30
0.0
 11
86.3405219216934654
 21
58.2231526270121265
 31
0.0
  0
LINE
  5
2A2E
  8
0
 10
172.4773215042264098
 20
70.7231526130489243
 30
0.0
 11
172.3773215042074867
 21
70.9979003550394054
 31
0.0
  0
LINE
  5
2A2F
  8
0
 10
164.5773215042380002
 20
70.9979003550394054
 30
0.0
 11
164.4773215042191055
 21
70.7231526130489243
 31
0.0
  0
LINE
  5
2A30
  8
0
 10
172.4773215042228003
 20
63.5231526130939628
 30
0.0
 11
172.4773215042228003
 21
70.7231526130489243
 31
0.0
  0
LINE
  5
2A31
  8
0
 10
164.4773215042228003
 20
70.7231526130489243
 30
0.0
 11
164.4773215042228003
 21
63.5231526130939628
 31
0.0
  0
LINE
  5
2A32
  8
0
 10
164.4773215041950039
 20
63.5231526130939628
 30
0.0
 11
165.4653718536337124
 21
61.811799207440707
 31
0.0
  0
LINE
  5
2A33
  8
0
 10
171.4892711548118882
 20
61.811799207440707
 30
0.0
 11
172.4773215042505967
 21
63.5231526130939628
 31
0.0
  0
LINE
  5
2A34
  8
0
 10
172.377321504222806
 20
70.9979003550394054
 30
0.0
 11
172.377321504222806
 21
71.2231526130939443
 31
0.0
  0
LINE
  5
2A35
  8
0
 10
164.5773215042227946
 20
71.2231526130939443
 30
0.0
 11
164.5773215042227946
 21
70.9979003550394054
 31
0.0
  0
ARC
  5
2A36
  8
0
 10
168.4773215042226866
 20
69.2231526130939585
 30
0.0
 40
8.0000000000366391
 50
247.8833368686188123
 51
292.116663131384712
  0
LINE
  5
2A37
  8
0
 10
164.4773215042131937
 20
70.7231526130489243
 30
0.0
 11
172.4773215042322931
 21
70.7231526130489243
 31
0.0
  0
LINE
  5
2A38
  8
0
 10
164.5773215042380002
 20
70.9979003550394054
 30
0.0
 11
172.3773215042074867
 21
70.9979003550394054
 31
0.0
  0
LINE
  5
2A39
  8
0
 10
164.4773215042226866
 20
63.5231526130939628
 30
0.0
 11
172.477321504222914
 21
63.5231526130939628
 31
0.0
  0
LINE
  5
2A3A
  8
0
 10
165.4653718536337124
 20
61.811799207440707
 30
0.0
 11
171.4892711548118029
 21
61.8117992074406715
 31
0.0
  0
LINE
  5
2A3B
  8
0
 10
90.3405219216971034
 20
70.7231526130489812
 30
0.0
 11
90.2405219216781944
 21
70.9979003550394481
 31
0.0
  0
LINE
  5
2A3C
  8
0
 10
82.4405219217087222
 20
70.9979003550394481
 30
0.0
 11
82.3405219216898274
 21
70.7231526130489812
 31
0.0
  0
LINE
  5
2A3D
  8
0
 10
90.3405219216934654
 20
63.5231526130939912
 30
0.0
 11
90.3405219216934654
 21
70.7231526130489812
 31
0.0
  0
LINE
  5
2A3E
  8
0
 10
82.3405219216934654
 20
70.7231526130489812
 30
0.0
 11
82.3405219216934654
 21
63.5231526130939912
 31
0.0
  0
LINE
  5
2A3F
  8
0
 10
82.340521921665669
 20
63.5231526130939912
 30
0.0
 11
83.3285722711043633
 21
61.8117992074407496
 31
0.0
  0
LINE
  5
2A40
  8
0
 10
89.3524715722825533
 20
61.8117992074407496
 30
0.0
 11
90.3405219217212618
 21
63.5231526130939912
 31
0.0
  0
LINE
  5
2A41
  8
0
 10
90.2405219216934853
 20
70.9979003550394481
 30
0.0
 11
90.2405219216934853
 21
71.2231526130940011
 31
0.0
  0
LINE
  5
2A42
  8
0
 10
82.4405219216934739
 20
71.2231526130940011
 30
0.0
 11
82.4405219216934739
 21
70.9979003550394481
 31
0.0
  0
ARC
  5
2A43
  8
0
 10
86.3405219216933517
 20
69.2231526130940011
 30
0.0
 40
8.0000000000366391
 50
247.8833368686188123
 51
292.116663131384712
  0
LINE
  5
2A44
  8
0
 10
82.3405219216839157
 20
70.7231526130489812
 30
0.0
 11
90.3405219217030151
 21
70.7231526130489812
 31
0.0
  0
LINE
  5
2A45
  8
0
 10
82.4405219217087222
 20
70.9979003550394481
 30
0.0
 11
90.2405219216781944
 21
70.9979003550394481
 31
0.0
  0
LINE
  5
2A46
  8
0
 10
82.3405219216933375
 20
63.5231526130939912
 30
0.0
 11
90.3405219216935791
 21
63.5231526130939912
 31
0.0
  0
LINE
  5
2A47
  8
0
 10
83.3285722711043633
 20
61.8117992074407496
 30
0.0
 11
89.3524715722824965
 21
61.8117992074407212
 31
0.0
  0
LINE
  5
2A48
  8
0
 10
27.1655038379872487
 20
70.7231526130489669
 30
0.0
 11
27.0655038379683504
 21
70.9979003550394339
 31
0.0
  0
LINE
  5
2A49
  8
0
 10
19.2655038379988603
 20
70.9979003550394339
 30
0.0
 11
19.1655038379799691
 21
70.7231526130489669
 31
0.0
  0
LINE
  5
2A4A
  8
0
 10
27.1655038379836107
 20
63.523152613093977
 30
0.0
 11
27.1655038379836107
 21
70.7231526130489669
 31
0.0
  0
LINE
  5
2A4B
  8
0
 10
19.1655038379836107
 20
70.7231526130489669
 30
0.0
 11
19.1655038379836107
 21
63.523152613093977
 31
0.0
  0
LINE
  5
2A4C
  8
0
 10
19.1655038379558107
 20
63.523152613093977
 30
0.0
 11
20.1535541873945192
 21
61.8117992074407425
 31
0.0
  0
LINE
  5
2A4D
  8
0
 10
26.1774534885726915
 20
61.8117992074407425
 30
0.0
 11
27.1655038380114
 21
63.523152613093977
 31
0.0
  0
LINE
  5
2A4E
  8
0
 10
27.0655038379836093
 20
70.9979003550394339
 30
0.0
 11
27.0655038379836093
 21
71.2231526130939869
 31
0.0
  0
LINE
  5
2A4F
  8
0
 10
19.2655038379836299
 20
71.2231526130939869
 30
0.0
 11
19.2655038379836299
 21
70.9979003550394339
 31
0.0
  0
ARC
  5
2A50
  8
0
 10
23.1655038379834899
 20
69.2231526130939869
 30
0.0
 40
8.0000000000366391
 50
247.8833368686188123
 51
292.116663131384712
  0
LINE
  5
2A51
  8
0
 10
19.165503837974061
 20
70.7231526130489669
 30
0.0
 11
27.1655038379931604
 21
70.7231526130489669
 31
0.0
  0
LINE
  5
2A52
  8
0
 10
19.2655038379988603
 20
70.9979003550394339
 30
0.0
 11
27.0655038379683504
 21
70.9979003550394339
 31
0.0
  0
LINE
  5
2A53
  8
0
 10
19.1655038379834899
 20
63.523152613093977
 30
0.0
 11
27.1655038379837208
 21
63.523152613093977
 31
0.0
  0
LINE
  5
2A54
  8
0
 10
20.1535541873945192
 20
61.8117992074407425
 30
0.0
 11
26.1774534885726418
 21
61.811799207440707
 31
0.0
  0
ENDSEC
  0
EOF
