  0
SECTION
  2
HEADER
  9
$ACADVER
  1
AC1009
  9
$INSBASE
 10
0.0
 20
0.0
 30
0.0
  9
$EXTMIN
 10
0.0
 20
-2.960436562073669
 30
0.0
  9
$EXTMAX
 10
189.00000020861609
 20
189.95650149881831
 30
0.0
  9
$LIMMIN
 10
0.0
 20
0.0
  9
$LIMMAX
 10
375.0
 20
270.0
  9
$ORTHOMODE
 70
     1
  9
$REGENMODE
 70
     1
  9
$FILLMODE
 70
     1
  9
$QTEXTMODE
 70
     0
  9
$MIRRTEXT
 70
     0
  9
$DRAGMODE
 70
     2
  9
$LTSCALE
 40
5.0
  9
$OSMODE
 70
    37
  9
$ATTMODE
 70
     1
  9
$TEXTSIZE
 40
4.000000000000048
  9
$TRACEWID
 40
0.05
  9
$TEXTSTYLE
  7
STANDARD
  9
$CLAYER
  8
0
  9
$CELTYPE
  6
BYLAYER
  9
$CECOLOR
 62
   256
  9
$DIMSCALE
 40
1.0
  9
$DIMASZ
 40
3.0
  9
$DIMEXO
 40
2.0
  9
$DIMDLI
 40
0.38
  9
$DIMRND
 40
0.0
  9
$DIMDLE
 40
0.0
  9
$DIMEXE
 40
2.0
  9
$DIMTP
 40
0.0
  9
$DIMTM
 40
0.0
  9
$DIMTXT
 40
3.2000000000000002
  9
$DIMCEN
 40
0.0
  9
$DIMTSZ
 40
0.0
  9
$DIMTOL
 70
     0
  9
$DIMLIM
 70
     0
  9
$DIMTIH
 70
     0
  9
$DIMTOH
 70
     0
  9
$DIMSE1
 70
     0
  9
$DIMSE2
 70
     0
  9
$DIMTAD
 70
     1
  9
$DIMZIN
 70
     8
  9
$DIMBLK
  1

  9
$DIMASO
 70
     1
  9
$DIMSHO
 70
     0
  9
$DIMPOST
  1

  9
$DIMAPOST
  1

  9
$DIMALT
 70
     0
  9
$DIMALTD
 70
     2
  9
$DIMALTF
 40
25.399999999999999
  9
$DIMLFAC
 40
1.0
  9
$DIMTOFL
 70
     1
  9
$DIMTVP
 40
1.6000000000000001
  9
$DIMTIX
 70
     1
  9
$DIMSOXD
 70
     0
  9
$DIMSAH
 70
     0
  9
$DIMBLK1
  1

  9
$DIMBLK2
  1

  9
$DIMSTYLE
  2
STANDARD
  9
$DIMCLRD
 70
     0
  9
$DIMCLRE
 70
     0
  9
$DIMCLRT
 70
     0
  9
$DIMTFAC
 40
1.0
  9
$DIMGAP
 40
0.09
  9
$LUNITS
 70
     2
  9
$LUPREC
 70
     1
  9
$SKETCHINC
 40
0.1
  9
$FILLETRAD
 40
0.5
  9
$AUNITS
 70
     0
  9
$AUPREC
 70
     1
  9
$MENU
  1
E:\r13\win\SUPPORT\ACAD
  9
$ELEVATION
 40
0.0
  9
$PELEVATION
 40
0.0
  9
$THICKNESS
 40
0.0
  9
$LIMCHECK
 70
     0
  9
$BLIPMODE
 70
     0
  9
$CHAMFERA
 40
0.0
  9
$CHAMFERB
 40
0.0
  9
$SKPOLY
 70
     0
  9
$TDCREATE
 40
2449839.7840277781
  9
$TDUPDATE
 40
2458837.7110504401
  9
$TDINDWG
 40
0.0976525347
  9
$TDUSRTIMER
 40
0.0976525347
  9
$USRTIMER
 70
     1
  9
$ANGBASE
 50
0.0
  9
$ANGDIR
 70
     0
  9
$PDMODE
 70
     0
  9
$PDSIZE
 40
0.0
  9
$PLINEWID
 40
0.0
  9
$COORDS
 70
     1
  9
$SPLFRAME
 70
     0
  9
$SPLINETYPE
 70
     6
  9
$SPLINESEGS
 70
     8
  9
$ATTDIA
 70
     0
  9
$ATTREQ
 70
     1
  9
$HANDLING
 70
     1
  9
$HANDSEED
  5
2419
  9
$SURFTAB1
 70
     6
  9
$SURFTAB2
 70
     6
  9
$SURFTYPE
 70
     6
  9
$SURFU
 70
     6
  9
$SURFV
 70
     6
  9
$UCSNAME
  2

  9
$UCSORG
 10
0.0
 20
0.0
 30
0.0
  9
$UCSXDIR
 10
1.0
 20
0.0
 30
0.0
  9
$UCSYDIR
 10
0.0
 20
1.0
 30
0.0
  9
$PUCSNAME
  2

  9
$PUCSORG
 10
0.0
 20
0.0
 30
0.0
  9
$PUCSXDIR
 10
1.0
 20
0.0
 30
0.0
  9
$PUCSYDIR
 10
0.0
 20
1.0
 30
0.0
  9
$USERI1
 70
     0
  9
$USERI2
 70
     1
  9
$USERI3
 70
     1
  9
$USERI4
 70
     0
  9
$USERI5
 70
     0
  9
$USERR1
 40
0.0
  9
$USERR2
 40
0.0
  9
$USERR3
 40
0.0
  9
$USERR4
 40
0.0
  9
$USERR5
 40
0.0
  9
$WORLDVIEW
 70
     1
  9
$SHADEDGE
 70
     3
  9
$SHADEDIF
 70
    70
  9
$TILEMODE
 70
     1
  9
$MAXACTVP
 70
    16
  9
$PLIMCHECK
 70
     0
  9
$PEXTMIN
 10
1.0000000000000000E+020
 20
1.0000000000000000E+020
 30
1.0000000000000000E+020
  9
$PEXTMAX
 10
-1.0000000000000000E+020
 20
-1.0000000000000000E+020
 30
-1.0000000000000000E+020
  9
$PLIMMIN
 10
0.0
 20
0.0
  9
$PLIMMAX
 10
12.0
 20
9.0
  9
$UNITMODE
 70
     0
  9
$VISRETAIN
 70
     0
  9
$PLINEGEN
 70
     0
  9
$PSLTSCALE
 70
     0
  0
ENDSEC
  0
SECTION
  2
TABLES
  0
TABLE
  2
VPORT
 70
     1
  0
VPORT
  2
*ACTIVE
 70
     0
 10
0.0
 20
0.0
 11
1.0
 21
1.0
 12
241.56441717791409
 22
100.0
 13
0.0
 23
0.0
 14
10.0
 24
10.0
 15
10.0
 25
10.0
 16
0.0
 26
0.0
 36
1.0
 17
0.0
 27
0.0
 37
0.0
 40
200.0
 41
2.415644171779141
 42
50.0
 43
0.0
 44
0.0
 50
0.0
 51
0.0
 71
     0
 72
   500
 73
     1
 74
     0
 75
     0
 76
     0
 77
     0
 78
     2
  0
ENDTAB
  0
TABLE
  2
LTYPE
 70
     4
  0
LTYPE
  2
CONTINUOUS
 70
     0
  3
Solid Line
 72
    65
 73
     0
 40
0.0
  0
LTYPE
  2
CENTER
 70
     0
  3
____ _ ____ _ ____ _ ____ _ ____ _ ____ _ ____
 72
    65
 73
     4
 40
2.0
 49
1.25
 49
-0.25
 49
0.25
 49
-0.25
  0
LTYPE
  2
HIDDEN
 70
     0
  3
_ _ _ _ _ _ _ _ _ _ _ _ _ _ _ _ _ _ _ _ _ _ _
 72
    65
 73
     2
 40
0.375
 49
0.25
 49
-0.125
  0
LTYPE
  2
PHANTOM2
 70
     0
  3
___ _ _ ___ _ _ ___ _ _ ___ _ _
 72
    65
 73
     6
 40
1.25
 49
0.625
 49
-0.125
 49
0.125
 49
-0.125
 49
0.125
 49
-0.125
  0
ENDTAB
  0
TABLE
  2
LAYER
 70
     4
  0
LAYER
  2
0
 70
     0
 62
     7
  6
CONTINUOUS
  0
LAYER
  2
1
 70
     0
 62
     1
  6
CENTER
  0
LAYER
  2
2
 70
     0
 62
     2
  6
HIDDEN
  0
LAYER
  2
3
 70
     0
 62
     3
  6
CONTINUOUS
  0
ENDTAB
  0
TABLE
  2
STYLE
 70
     2
  0
STYLE
  2
STANDARD
 70
     0
 40
0.0
 41
1.0
 50
0.0
 71
     0
 42
4.000000000000048
  3
TXT
  4
BIGFONT
  0
STYLE
  2
STANDARD1
 70
     0
 40
0.0
 41
1.0
 50
0.0
 71
     0
 42
3.0
  3
txt
  4

  0
ENDTAB
  0
TABLE
  2
VIEW
 70
     1
  0
VIEW
  2
ALL
 70
     0
 40
270.0
 10
220.99159663865549
 20
135.0
 41
0.0
 11
0.0
 21
0.0
 31
1.0
 12
0.0
 22
0.0
 32
0.0
 42
0.0
 43
0.0
 44
0.0
 50
0.0
 71
     0
  0
ENDTAB
  0
TABLE
  2
UCS
 70
     0
  0
ENDTAB
  0
TABLE
  2
APPID
 70
     7
  0
APPID
  2
ACAD
 70
     0
  0
APPID
  2
ACAD_MLEADERVER
 70
     0
  0
APPID
  2
ACAD_NAV_VCDISPLAY
 70
     0
  0
APPID
  2
ACAD_EXEMPT_FROM_CAD_STANDARDS
 70
     0
  0
APPID
  2
ACAD_PSEXT
 70
     0
  0
APPID
  2
ACAD_DSTYLE_DIMJAG
 70
     0
  0
APPID
  2
ACAD_DSTYLE_DIMTALN
 70
     0
  0
ENDTAB
  0
TABLE
  2
DIMSTYLE
 70
     1
  0
DIMSTYLE
  2
STANDARD
 70
     0
  3

  4

  5

  6

  7

 40
1.0
 41
0.18
 42
0.0625
 43
0.38
 44
0.18
 45
0.0
 46
0.0
 47
0.0
 48
0.0
140
0.18
141
0.09
142
0.0
143
25.399999999999999
144
1.0
145
0.0
146
1.0
147
0.09
 71
     0
 72
     0
 73
     1
 74
     1
 75
     0
 76
     0
 77
     0
 78
     0
170
     0
171
     2
172
     0
173
     0
174
     0
175
     0
176
     0
177
     0
178
     0
  0
ENDTAB
  0
ENDSEC
  0
SECTION
  2
BLOCKS
  0
BLOCK
  8
0
  2
$MODEL_SPACE
 70
     0
 10
0.0
 20
0.0
 30
0.0
  3
$MODEL_SPACE
  1

  0
ENDBLK
  5
2F7
  8
0
  0
BLOCK
 67
     1
  8
0
  2
$PAPER_SPACE
 70
     0
 10
0.0
 20
0.0
 30
0.0
  3
$PAPER_SPACE
  1

  0
ENDBLK
  5
2F5
 67
     1
  8
0
  0
ENDSEC
  0
SECTION
  2
ENTITIES
  0
TEXT
  5
419
  8
0
 62
     3
 10
0.0
 20
0.0
 30
0.0
 40
10.0
  1
GCK30-5-BK
  7
STANDARD1
  0
LINE
  5
E1B
  8
0
 10
99.999999999999886
 20
101.58825077116479
 30
0.0
 11
100.47999992966641
 21
101.58825077116479
 31
0.0
  0
LINE
  5
E1C
  8
0
 10
100.47999992966641
 20
128.36825072765339
 30
0.0
 11
99.999999999999886
 21
128.36825072765339
 31
0.0
  0
LINE
  5
E1D
  8
0
 10
112.9749998450278
 20
101.58825077116479
 30
0.0
 11
113.5000003501771
 21
101.58825077116479
 31
0.0
  0
LINE
  5
E1E
  8
0
 10
113.5000003501771
 20
128.36825072765339
 30
0.0
 11
112.9749998450278
 21
128.36825072765339
 31
0.0
  0
LINE
  5
E1F
  8
0
 10
117.2764896415173
 20
101.9782504811882
 30
0.0
 11
123.3700001845135
 21
101.9782504811882
 31
0.0
  0
LINE
  5
E20
  8
0
 10
113.5000003501771
 20
101.9782504811882
 30
0.0
 11
113.7056484818457
 21
101.9782504811882
 31
0.0
  0
LINE
  5
E21
  8
0
 10
123.3700001845135
 20
127.97825101763
 30
0.0
 11
113.5000003501771
 21
127.97825101763
 31
0.0
  0
LINE
  5
E22
  8
0
 10
123.3700001845135
 20
108.97825069725511
 30
0.0
 11
123.70000019436689
 21
108.97825069725511
 31
0.0
  0
LINE
  5
E23
  8
0
 10
123.70000019436689
 20
120.97825080156321
 30
0.0
 11
123.3700001845135
 21
120.97825080156321
 31
0.0
  0
LINE
  5
E24
  8
0
 10
123.70000019436689
 20
109.47825077921151
 30
0.0
 11
124.0000002086161
 21
109.47825077921151
 31
0.0
  0
LINE
  5
E25
  8
0
 10
124.0000002086161
 20
120.47825071960681
 30
0.0
 11
123.70000019436689
 21
120.47825071960681
 31
0.0
  0
LINE
  5
E26
  8
0
 10
101.05735100805749
 20
129.97825041413299
 30
0.0
 11
100.47999992966641
 21
128.97825118154279
 31
0.0
  0
LINE
  5
E27
  8
0
 10
102.9790010303258
 20
128.97825118154279
 30
0.0
 11
102.4016499519347
 21
129.97825041413299
 31
0.0
  0
LINE
  5
E28
  8
0
 10
103.5563502460717
 20
129.97825041413299
 30
0.0
 11
102.9790010303258
 21
128.97825118154279
 31
0.0
  0
LINE
  5
E29
  8
0
 10
105.47800026834
 20
128.97825118154279
 30
0.0
 11
104.90064918994889
 21
129.97825041413299
 31
0.0
  0
LINE
  5
E2A
  8
0
 10
106.055351346731
 20
129.97825041413299
 30
0.0
 11
105.47800026834
 21
128.97825118154279
 31
0.0
  0
LINE
  5
E2B
  8
0
 10
107.9769995063542
 20
128.97825118154279
 30
0.0
 11
107.39965029060831
 21
129.97825041413299
 31
0.0
  0
LINE
  5
E2C
  8
0
 10
108.55435058474529
 20
129.97825041413299
 30
0.0
 11
107.9769995063542
 21
128.97825118154279
 31
0.0
  0
LINE
  5
E2D
  8
0
 10
110.4760006070136
 20
128.97825118154279
 30
0.0
 11
109.8986495286225
 21
129.97825041413299
 31
0.0
  0
LINE
  5
E2E
  8
0
 10
111.0533507540821
 20
129.97825041413299
 30
0.0
 11
110.4760006070136
 21
128.97825118154279
 31
0.0
  0
LINE
  5
E2F
  8
0
 10
112.9749998450278
 20
128.97825118154279
 30
0.0
 11
112.3976496979593
 21
129.97825041413299
 31
0.0
  0
LINE
  5
E30
  8
0
 10
100.47999992966641
 20
100.9782503172755
 30
0.0
 11
101.05735100805749
 21
99.978251084685297
 31
0.0
  0
LINE
  5
E31
  8
0
 10
102.4016499519347
 20
99.978251084685297
 30
0.0
 11
102.9790010303258
 21
100.9782503172755
 31
0.0
  0
LINE
  5
E32
  8
0
 10
102.9790010303258
 20
100.9782503172755
 30
0.0
 11
103.5563502460717
 21
99.978251084685297
 31
0.0
  0
LINE
  5
E33
  8
0
 10
104.90064918994889
 20
99.978251084685297
 30
0.0
 11
105.47800026834
 21
100.9782503172755
 31
0.0
  0
LINE
  5
E34
  8
0
 10
105.47800026834
 20
100.9782503172755
 30
0.0
 11
106.055351346731
 21
99.978251084685297
 31
0.0
  0
LINE
  5
E35
  8
0
 10
107.39965029060831
 20
99.978251084685297
 30
0.0
 11
107.9769995063542
 21
100.9782503172755
 31
0.0
  0
LINE
  5
E36
  8
0
 10
107.9769995063542
 20
100.9782503172755
 30
0.0
 11
108.55435058474529
 21
99.978251084685297
 31
0.0
  0
LINE
  5
E37
  8
0
 10
109.8986495286225
 20
99.978251084685297
 30
0.0
 11
110.4760006070136
 21
100.9782503172755
 31
0.0
  0
LINE
  5
E38
  8
0
 10
110.4760006070136
 20
100.9782503172755
 30
0.0
 11
111.0533507540821
 21
99.978251084685297
 31
0.0
  0
LINE
  5
E39
  8
0
 10
112.3976496979593
 20
99.978251084685297
 30
0.0
 11
112.9749998450278
 21
100.9782503172755
 31
0.0
  0
LINE
  5
E3A
  8
0
 10
102.4016499519347
 20
129.97825041413299
 30
0.0
 11
101.05735100805749
 21
129.97825041413299
 31
0.0
  0
LINE
  5
E3B
  8
0
 10
104.90064918994889
 20
129.97825041413299
 30
0.0
 11
103.5563502460717
 21
129.97825041413299
 31
0.0
  0
LINE
  5
E3C
  8
0
 10
107.39965029060831
 20
129.97825041413299
 30
0.0
 11
106.055351346731
 21
129.97825041413299
 31
0.0
  0
LINE
  5
E3D
  8
0
 10
109.8986495286225
 20
129.97825041413299
 30
0.0
 11
108.55435058474529
 21
129.97825041413299
 31
0.0
  0
LINE
  5
E3E
  8
0
 10
112.3976496979593
 20
129.97825041413299
 30
0.0
 11
111.0533507540821
 21
129.97825041413299
 31
0.0
  0
LINE
  5
E3F
  8
0
 10
101.05735100805749
 20
99.978251084685297
 30
0.0
 11
102.4016499519347
 21
99.978251084685297
 31
0.0
  0
LINE
  5
E40
  8
0
 10
103.5563502460717
 20
99.978251084685297
 30
0.0
 11
104.90064918994889
 21
99.978251084685297
 31
0.0
  0
LINE
  5
E41
  8
0
 10
106.055351346731
 20
99.978251084685297
 30
0.0
 11
107.39965029060831
 21
99.978251084685297
 31
0.0
  0
LINE
  5
E42
  8
0
 10
108.55435058474529
 20
99.978251084685297
 30
0.0
 11
109.8986495286225
 21
99.978251084685297
 31
0.0
  0
LINE
  5
E43
  8
0
 10
111.0533507540821
 20
99.978251084685297
 30
0.0
 11
112.3976496979593
 21
99.978251084685297
 31
0.0
  0
LINE
  5
E44
  8
0
 10
113.9008406549691
 20
102.0012578740715
 30
0.0
 11
113.9295002445577
 21
101.9725982844829
 31
0.0
  0
LINE
  5
E45
  8
0
 10
117.07050018012509
 20
101.9725982844829
 30
0.0
 11
117.09920912981021
 21
102.001307234168
 31
0.0
  0
LINE
  5
E46
  8
0
 10
100.47999992966641
 20
118.32866997458039
 30
0.0
 11
101.05735100805749
 21
118.0109057389199
 31
0.0
  0
LINE
  5
E47
  8
0
 10
101.05735100805749
 20
118.0109057389199
 30
0.0
 11
101.05735100805749
 21
115.54932250175619
 31
0.0
  0
LINE
  5
E48
  8
0
 10
101.05735100805749
 20
115.54932250175619
 30
0.0
 11
100.47999992966641
 21
114.9782507494091
 31
0.0
  0
LINE
  5
E4A
  8
0
 10
100.47999992966641
 20
114.9782507494091
 30
0.0
 11
101.05735100805749
 21
114.4071789970621
 31
0.0
  0
LINE
  5
E4B
  8
0
 10
100.47999992966641
 20
114.9782507494091
 30
0.0
 11
112.9749998450277
 21
114.9782507494091
 31
0.0
  0
LINE
  5
E4C
  8
0
 10
102.4016499519347
 20
114.4071789970621
 30
0.0
 11
102.9790010303258
 21
114.9782507494091
 31
0.0
  0
LINE
  5
E4D
  8
0
 10
101.05735100805749
 20
114.4071789970621
 30
0.0
 11
102.4016499519347
 21
114.4071789970621
 31
0.0
  0
LINE
  5
E4E
  8
0
 10
101.05735100805749
 20
111.9455957598984
 30
0.0
 11
100.47999992966641
 21
111.62783152423791
 31
0.0
  0
LINE
  5
E50
  8
0
 10
101.05735100805749
 20
114.4071789970621
 30
0.0
 11
101.05735100805749
 21
111.9455957598984
 31
0.0
  0
LINE
  5
E51
  8
0
 10
101.05735100805749
 20
118.0109057389199
 30
0.0
 11
102.4016499519347
 21
118.0109057389199
 31
0.0
  0
LINE
  5
E52
  8
0
 10
102.4016499519347
 20
115.54932250175619
 30
0.0
 11
102.4016499519347
 21
118.0109057389199
 31
0.0
  0
LINE
  5
E53
  8
0
 10
101.05735100805749
 20
115.54932250175619
 30
0.0
 11
102.4016499519347
 21
115.54932250175619
 31
0.0
  0
LINE
  5
E54
  8
0
 10
102.4016499519347
 20
111.9455957598984
 30
0.0
 11
102.4016499519347
 21
114.4071789970621
 31
0.0
  0
LINE
  5
E55
  8
0
 10
101.05735100805749
 20
111.9455957598984
 30
0.0
 11
102.4016499519347
 21
111.9455957598984
 31
0.0
  0
LINE
  5
E56
  8
0
 10
102.4016499519347
 20
118.0109057389199
 30
0.0
 11
102.9790010303258
 21
118.32866997458039
 31
0.0
  0
LINE
  5
E58
  8
0
 10
102.9790010303258
 20
114.9782507494091
 30
0.0
 11
102.4016499519347
 21
115.54932250175619
 31
0.0
  0
LINE
  5
E59
  8
0
 10
102.9790010303258
 20
118.32866997458039
 30
0.0
 11
103.5563502460717
 21
118.0109057389199
 31
0.0
  0
LINE
  5
E5A
  8
0
 10
103.5563502460717
 20
118.0109057389199
 30
0.0
 11
103.5563502460717
 21
115.54932250175619
 31
0.0
  0
LINE
  5
E5B
  8
0
 10
103.5563502460717
 20
115.54932250175619
 30
0.0
 11
102.9790010303258
 21
114.9782507494091
 31
0.0
  0
LINE
  5
E5C
  8
0
 10
102.9790010303258
 20
111.62783152423791
 30
0.0
 11
102.4016499519347
 21
111.9455957598984
 31
0.0
  0
LINE
  5
E5E
  8
0
 10
102.9790010303258
 20
114.9782507494091
 30
0.0
 11
103.5563502460717
 21
114.4071789970621
 31
0.0
  0
LINE
  5
E60
  8
0
 10
104.90064918994889
 20
114.4071789970621
 30
0.0
 11
105.47800026834
 21
114.9782507494091
 31
0.0
  0
LINE
  5
E61
  8
0
 10
103.5563502460717
 20
114.4071789970621
 30
0.0
 11
104.90064918994889
 21
114.4071789970621
 31
0.0
  0
LINE
  5
E62
  8
0
 10
103.5563502460717
 20
111.9455957598984
 30
0.0
 11
102.9790010303258
 21
111.62783152423791
 31
0.0
  0
LINE
  5
E63
  8
0
 10
103.5563502460717
 20
114.4071789970621
 30
0.0
 11
103.5563502460717
 21
111.9455957598984
 31
0.0
  0
LINE
  5
E64
  8
0
 10
103.5563502460717
 20
118.0109057389199
 30
0.0
 11
104.90064918994889
 21
118.0109057389199
 31
0.0
  0
LINE
  5
E65
  8
0
 10
104.90064918994889
 20
115.54932250175619
 30
0.0
 11
104.90064918994889
 21
118.0109057389199
 31
0.0
  0
LINE
  5
E66
  8
0
 10
103.5563502460717
 20
115.54932250175619
 30
0.0
 11
104.90064918994889
 21
115.54932250175619
 31
0.0
  0
LINE
  5
E67
  8
0
 10
104.90064918994889
 20
111.9455957598984
 30
0.0
 11
104.90064918994889
 21
114.4071789970621
 31
0.0
  0
LINE
  5
E68
  8
0
 10
103.5563502460717
 20
111.9455957598984
 30
0.0
 11
104.90064918994889
 21
111.9455957598984
 31
0.0
  0
LINE
  5
E69
  8
0
 10
104.90064918994889
 20
118.0109057389199
 30
0.0
 11
105.47800026834
 21
118.32866997458039
 31
0.0
  0
LINE
  5
E6B
  8
0
 10
105.47800026834
 20
114.9782507494091
 30
0.0
 11
104.90064918994889
 21
115.54932250175619
 31
0.0
  0
LINE
  5
E6C
  8
0
 10
105.47800026834
 20
111.62783152423791
 30
0.0
 11
104.90064918994889
 21
111.9455957598984
 31
0.0
  0
LINE
  5
E6E
  8
0
 10
105.47800026834
 20
118.32866997458039
 30
0.0
 11
106.055351346731
 21
118.0109057389199
 31
0.0
  0
LINE
  5
E6F
  8
0
 10
106.055351346731
 20
118.0109057389199
 30
0.0
 11
106.055351346731
 21
115.54932250175619
 31
0.0
  0
LINE
  5
E70
  8
0
 10
106.055351346731
 20
115.54932250175619
 30
0.0
 11
105.47800026834
 21
114.9782507494091
 31
0.0
  0
LINE
  5
E71
  8
0
 10
105.47800026834
 20
114.9782507494091
 30
0.0
 11
106.055351346731
 21
114.4071789970621
 31
0.0
  0
LINE
  5
E73
  8
0
 10
107.39965029060831
 20
114.4071789970621
 30
0.0
 11
107.9769995063542
 21
114.9782507494091
 31
0.0
  0
LINE
  5
E74
  8
0
 10
106.055351346731
 20
114.4071789970621
 30
0.0
 11
107.39965029060831
 21
114.4071789970621
 31
0.0
  0
LINE
  5
E75
  8
0
 10
106.055351346731
 20
111.9455957598984
 30
0.0
 11
105.47800026834
 21
111.62783152423791
 31
0.0
  0
LINE
  5
E76
  8
0
 10
106.055351346731
 20
114.4071789970621
 30
0.0
 11
106.055351346731
 21
111.9455957598984
 31
0.0
  0
LINE
  5
E77
  8
0
 10
106.055351346731
 20
118.0109057389199
 30
0.0
 11
107.39965029060831
 21
118.0109057389199
 31
0.0
  0
LINE
  5
E78
  8
0
 10
107.39965029060831
 20
115.54932250175619
 30
0.0
 11
107.39965029060831
 21
118.0109057389199
 31
0.0
  0
LINE
  5
E79
  8
0
 10
106.055351346731
 20
115.54932250175619
 30
0.0
 11
107.39965029060831
 21
115.54932250175619
 31
0.0
  0
LINE
  5
E7A
  8
0
 10
107.39965029060831
 20
111.9455957598984
 30
0.0
 11
107.39965029060831
 21
114.4071789970621
 31
0.0
  0
LINE
  5
E7B
  8
0
 10
106.055351346731
 20
111.9455957598984
 30
0.0
 11
107.39965029060831
 21
111.9455957598984
 31
0.0
  0
LINE
  5
E7C
  8
0
 10
107.39965029060831
 20
118.0109057389199
 30
0.0
 11
107.9769995063542
 21
118.32866997458039
 31
0.0
  0
LINE
  5
E7E
  8
0
 10
107.9769995063542
 20
114.9782507494091
 30
0.0
 11
107.39965029060831
 21
115.54932250175619
 31
0.0
  0
LINE
  5
E7F
  8
0
 10
107.9769995063542
 20
111.62783152423791
 30
0.0
 11
107.39965029060831
 21
111.9455957598984
 31
0.0
  0
LINE
  5
E81
  8
0
 10
107.9769995063542
 20
118.32866997458039
 30
0.0
 11
108.55435058474529
 21
118.0109057389199
 31
0.0
  0
LINE
  5
E82
  8
0
 10
108.55435058474529
 20
118.0109057389199
 30
0.0
 11
108.55435058474529
 21
115.54932250175619
 31
0.0
  0
LINE
  5
E83
  8
0
 10
108.55435058474529
 20
115.54932250175619
 30
0.0
 11
107.9769995063542
 21
114.9782507494091
 31
0.0
  0
LINE
  5
E84
  8
0
 10
108.55435058474529
 20
111.9455957598984
 30
0.0
 11
107.9769995063542
 21
111.62783152423791
 31
0.0
  0
LINE
  5
E85
  8
0
 10
107.9769995063542
 20
114.9782507494091
 30
0.0
 11
108.55435058474529
 21
114.4071789970621
 31
0.0
  0
LINE
  5
E86
  8
0
 10
108.55435058474529
 20
114.4071789970621
 30
0.0
 11
108.55435058474529
 21
111.9455957598984
 31
0.0
  0
LINE
  5
E88
  8
0
 10
109.8986495286225
 20
114.4071789970621
 30
0.0
 11
110.4760006070136
 21
114.9782507494091
 31
0.0
  0
LINE
  5
E89
  8
0
 10
108.55435058474529
 20
114.4071789970621
 30
0.0
 11
109.8986495286225
 21
114.4071789970621
 31
0.0
  0
LINE
  5
E8A
  8
0
 10
108.55435058474529
 20
118.0109057389199
 30
0.0
 11
109.8986495286225
 21
118.0109057389199
 31
0.0
  0
LINE
  5
E8B
  8
0
 10
109.8986495286225
 20
115.54932250175619
 30
0.0
 11
109.8986495286225
 21
118.0109057389199
 31
0.0
  0
LINE
  5
E8C
  8
0
 10
108.55435058474529
 20
115.54932250175619
 30
0.0
 11
109.8986495286225
 21
115.54932250175619
 31
0.0
  0
LINE
  5
E8D
  8
0
 10
109.8986495286225
 20
111.9455957598984
 30
0.0
 11
109.8986495286225
 21
114.4071789970621
 31
0.0
  0
LINE
  5
E8E
  8
0
 10
108.55435058474529
 20
111.9455957598984
 30
0.0
 11
109.8986495286225
 21
111.9455957598984
 31
0.0
  0
LINE
  5
E8F
  8
0
 10
109.8986495286225
 20
118.0109057389199
 30
0.0
 11
110.4760006070136
 21
118.32866997458039
 31
0.0
  0
LINE
  5
E91
  8
0
 10
110.4760006070136
 20
114.9782507494091
 30
0.0
 11
109.8986495286225
 21
115.54932250175619
 31
0.0
  0
LINE
  5
E92
  8
0
 10
110.4760006070136
 20
118.32866997458039
 30
0.0
 11
111.0533507540821
 21
118.0109057389199
 31
0.0
  0
LINE
  5
E93
  8
0
 10
111.0533507540821
 20
118.0109057389199
 30
0.0
 11
111.0533507540821
 21
115.54932250175619
 31
0.0
  0
LINE
  5
E94
  8
0
 10
111.0533507540821
 20
115.54932250175619
 30
0.0
 11
110.4760006070136
 21
114.9782507494091
 31
0.0
  0
LINE
  5
E95
  8
0
 10
110.4760006070136
 20
111.62783152423791
 30
0.0
 11
109.8986495286225
 21
111.9455957598984
 31
0.0
  0
LINE
  5
E97
  8
0
 10
110.4760006070136
 20
114.9782507494091
 30
0.0
 11
111.0533507540821
 21
114.4071789970621
 31
0.0
  0
LINE
  5
E99
  8
0
 10
112.3976496979593
 20
114.4071789970621
 30
0.0
 11
112.9749998450278
 21
114.9782507494091
 31
0.0
  0
LINE
  5
E9A
  8
0
 10
111.0533507540821
 20
114.4071789970621
 30
0.0
 11
112.3976496979593
 21
114.4071789970621
 31
0.0
  0
LINE
  5
E9B
  8
0
 10
111.0533507540821
 20
111.9455957598984
 30
0.0
 11
110.4760006070136
 21
111.62783152423791
 31
0.0
  0
LINE
  5
E9C
  8
0
 10
111.0533507540821
 20
114.4071789970621
 30
0.0
 11
111.0533507540821
 21
111.9455957598984
 31
0.0
  0
LINE
  5
E9D
  8
0
 10
111.0533507540821
 20
118.0109057389199
 30
0.0
 11
112.3976496979593
 21
118.0109057389199
 31
0.0
  0
LINE
  5
E9E
  8
0
 10
112.3976496979593
 20
115.54932250175619
 30
0.0
 11
112.3976496979593
 21
118.0109057389199
 31
0.0
  0
LINE
  5
E9F
  8
0
 10
111.0533507540821
 20
115.54932250175619
 30
0.0
 11
112.3976496979593
 21
115.54932250175619
 31
0.0
  0
LINE
  5
EA0
  8
0
 10
112.3976496979593
 20
111.9455957598984
 30
0.0
 11
112.3976496979593
 21
114.4071789970621
 31
0.0
  0
LINE
  5
EA1
  8
0
 10
111.0533507540821
 20
111.9455957598984
 30
0.0
 11
112.3976496979593
 21
111.9455957598984
 31
0.0
  0
LINE
  5
EA2
  8
0
 10
112.3976496979593
 20
118.0109057389199
 30
0.0
 11
112.9749998450278
 21
118.32866997458039
 31
0.0
  0
LINE
  5
EA4
  8
0
 10
112.9749998450278
 20
114.9782507494091
 30
0.0
 11
112.3976496979593
 21
115.54932250175619
 31
0.0
  0
LINE
  5
EA5
  8
0
 10
112.9749998450278
 20
111.62783152423791
 30
0.0
 11
112.3976496979593
 21
111.9455957598984
 31
0.0
  0
LINE
  5
EA7
  8
0
 10
100.47999992966641
 20
118.32866997458039
 30
0.0
 11
112.9749998450277
 21
118.32866997458039
 31
0.0
  0
LINE
  5
EAA
  8
0
 10
100.47999992966641
 20
111.62783152423791
 30
0.0
 11
112.9749998450277
 21
111.62783152423791
 31
0.0
  0
LINE
  5
EB1
  8
0
 10
100.47999992966641
 20
121.48437526077031
 30
0.0
 11
101.05735100805749
 21
121.43838562071321
 31
0.0
  0
LINE
  5
EB2
  8
0
 10
101.05735100805749
 20
121.43838562071321
 30
0.0
 11
101.05735100805749
 21
119.1198608651757
 31
0.0
  0
LINE
  5
EB3
  8
0
 10
101.05735100805749
 20
119.1198608651757
 30
0.0
 11
100.47999992966641
 21
118.32866997458039
 31
0.0
  0
LINE
  5
EB5
  8
0
 10
101.05735100805749
 20
121.43838562071321
 30
0.0
 11
102.4016499519347
 21
121.43838562071321
 31
0.0
  0
LINE
  5
EB6
  8
0
 10
102.4016499519347
 20
119.1198608651757
 30
0.0
 11
102.4016499519347
 21
121.43838562071321
 31
0.0
  0
LINE
  5
EB7
  8
0
 10
101.05735100805749
 20
119.1198608651757
 30
0.0
 11
102.4016499519347
 21
119.1198608651757
 31
0.0
  0
LINE
  5
EB8
  8
0
 10
102.4016499519347
 20
121.43838562071321
 30
0.0
 11
102.9790010303258
 21
121.48437526077031
 31
0.0
  0
LINE
  5
EBA
  8
0
 10
102.9790010303258
 20
118.32866997458039
 30
0.0
 11
102.4016499519347
 21
119.1198608651757
 31
0.0
  0
LINE
  5
EBB
  8
0
 10
102.9790010303258
 20
121.48437526077031
 30
0.0
 11
103.5563502460717
 21
121.43838562071321
 31
0.0
  0
LINE
  5
EBC
  8
0
 10
103.5563502460717
 20
121.43838562071321
 30
0.0
 11
103.5563502460717
 21
119.1198608651757
 31
0.0
  0
LINE
  5
EBD
  8
0
 10
103.5563502460717
 20
119.1198608651757
 30
0.0
 11
102.9790010303258
 21
118.32866997458039
 31
0.0
  0
LINE
  5
EBE
  8
0
 10
103.5563502460717
 20
121.43838562071321
 30
0.0
 11
104.90064918994889
 21
121.43838562071321
 31
0.0
  0
LINE
  5
EBF
  8
0
 10
104.90064918994889
 20
119.1198608651757
 30
0.0
 11
104.90064918994889
 21
121.43838562071321
 31
0.0
  0
LINE
  5
EC0
  8
0
 10
103.5563502460717
 20
119.1198608651757
 30
0.0
 11
104.90064918994889
 21
119.1198608651757
 31
0.0
  0
LINE
  5
EC1
  8
0
 10
104.90064918994889
 20
121.43838562071321
 30
0.0
 11
105.47800026834
 21
121.48437526077031
 31
0.0
  0
LINE
  5
EC3
  8
0
 10
105.47800026834
 20
118.32866997458039
 30
0.0
 11
104.90064918994889
 21
119.1198608651757
 31
0.0
  0
LINE
  5
EC4
  8
0
 10
105.47800026834
 20
121.48437526077031
 30
0.0
 11
106.055351346731
 21
121.43838562071321
 31
0.0
  0
LINE
  5
EC5
  8
0
 10
106.055351346731
 20
121.43838562071321
 30
0.0
 11
106.055351346731
 21
119.1198608651757
 31
0.0
  0
LINE
  5
EC6
  8
0
 10
106.055351346731
 20
119.1198608651757
 30
0.0
 11
105.47800026834
 21
118.32866997458039
 31
0.0
  0
LINE
  5
EC7
  8
0
 10
106.055351346731
 20
121.43838562071321
 30
0.0
 11
107.39965029060831
 21
121.43838562071321
 31
0.0
  0
LINE
  5
EC8
  8
0
 10
107.39965029060831
 20
119.1198608651757
 30
0.0
 11
107.39965029060831
 21
121.43838562071321
 31
0.0
  0
LINE
  5
EC9
  8
0
 10
106.055351346731
 20
119.1198608651757
 30
0.0
 11
107.39965029060831
 21
119.1198608651757
 31
0.0
  0
LINE
  5
ECA
  8
0
 10
107.39965029060831
 20
121.43838562071321
 30
0.0
 11
107.9769995063542
 21
121.48437526077031
 31
0.0
  0
LINE
  5
ECC
  8
0
 10
107.9769995063542
 20
118.32866997458039
 30
0.0
 11
107.39965029060831
 21
119.1198608651757
 31
0.0
  0
LINE
  5
ECD
  8
0
 10
107.9769995063542
 20
121.48437526077031
 30
0.0
 11
108.55435058474529
 21
121.43838562071321
 31
0.0
  0
LINE
  5
ECE
  8
0
 10
108.55435058474529
 20
121.43838562071321
 30
0.0
 11
108.55435058474529
 21
119.1198608651757
 31
0.0
  0
LINE
  5
ECF
  8
0
 10
108.55435058474529
 20
119.1198608651757
 30
0.0
 11
107.9769995063542
 21
118.32866997458039
 31
0.0
  0
LINE
  5
ED0
  8
0
 10
108.55435058474529
 20
121.43838562071321
 30
0.0
 11
109.8986495286225
 21
121.43838562071321
 31
0.0
  0
LINE
  5
ED1
  8
0
 10
109.8986495286225
 20
119.1198608651757
 30
0.0
 11
109.8986495286225
 21
121.43838562071321
 31
0.0
  0
LINE
  5
ED2
  8
0
 10
108.55435058474529
 20
119.1198608651757
 30
0.0
 11
109.8986495286225
 21
119.1198608651757
 31
0.0
  0
LINE
  5
ED3
  8
0
 10
109.8986495286225
 20
121.43838562071321
 30
0.0
 11
110.4760006070136
 21
121.48437526077031
 31
0.0
  0
LINE
  5
ED5
  8
0
 10
110.4760006070136
 20
118.32866997458039
 30
0.0
 11
109.8986495286225
 21
119.1198608651757
 31
0.0
  0
LINE
  5
ED6
  8
0
 10
100.47999992966641
 20
111.62783152423791
 30
0.0
 11
101.05735100805749
 21
110.8366406336426
 31
0.0
  0
LINE
  5
ED7
  8
0
 10
102.4016499519347
 20
110.8366406336426
 30
0.0
 11
102.9790010303258
 21
111.62783152423791
 31
0.0
  0
LINE
  5
ED8
  8
0
 10
101.05735100805749
 20
110.8366406336426
 30
0.0
 11
102.4016499519347
 21
110.8366406336426
 31
0.0
  0
LINE
  5
ED9
  8
0
 10
101.05735100805749
 20
108.51811587810511
 30
0.0
 11
100.47999992966641
 21
108.47212623804801
 31
0.0
  0
LINE
  5
EDB
  8
0
 10
101.05735100805749
 20
110.8366406336426
 30
0.0
 11
101.05735100805749
 21
108.51811587810511
 31
0.0
  0
LINE
  5
EDC
  8
0
 10
110.4760006070136
 20
121.48437526077031
 30
0.0
 11
111.0533507540821
 21
121.43838562071321
 31
0.0
  0
LINE
  5
EDD
  8
0
 10
111.0533507540821
 20
121.43838562071321
 30
0.0
 11
111.0533507540821
 21
119.1198608651757
 31
0.0
  0
LINE
  5
EDE
  8
0
 10
111.0533507540821
 20
119.1198608651757
 30
0.0
 11
110.4760006070136
 21
118.32866997458039
 31
0.0
  0
LINE
  5
EDF
  8
0
 10
111.0533507540821
 20
121.43838562071321
 30
0.0
 11
112.3976496979593
 21
121.43838562071321
 31
0.0
  0
LINE
  5
EE0
  8
0
 10
112.3976496979593
 20
119.1198608651757
 30
0.0
 11
112.3976496979593
 21
121.43838562071321
 31
0.0
  0
LINE
  5
EE1
  8
0
 10
111.0533507540821
 20
119.1198608651757
 30
0.0
 11
112.3976496979593
 21
119.1198608651757
 31
0.0
  0
LINE
  5
EE2
  8
0
 10
102.4016499519347
 20
108.51811587810511
 30
0.0
 11
102.4016499519347
 21
110.8366406336426
 31
0.0
  0
LINE
  5
EE3
  8
0
 10
101.05735100805749
 20
108.51811587810511
 30
0.0
 11
102.4016499519347
 21
108.51811587810511
 31
0.0
  0
LINE
  5
EE4
  8
0
 10
102.9790010303258
 20
108.47212623804801
 30
0.0
 11
102.4016499519347
 21
108.51811587810511
 31
0.0
  0
LINE
  5
EE6
  8
0
 10
112.3976496979593
 20
121.43838562071321
 30
0.0
 11
112.9749998450278
 21
121.48437526077031
 31
0.0
  0
LINE
  5
EE8
  8
0
 10
112.9749998450278
 20
118.32866997458039
 30
0.0
 11
112.3976496979593
 21
119.1198608651757
 31
0.0
  0
LINE
  5
EE9
  8
0
 10
103.5563502460717
 20
108.51811587810511
 30
0.0
 11
102.9790010303258
 21
108.47212623804801
 31
0.0
  0
LINE
  5
EEA
  8
0
 10
102.9790010303258
 20
111.62783152423791
 30
0.0
 11
103.5563502460717
 21
110.8366406336426
 31
0.0
  0
LINE
  5
EEB
  8
0
 10
103.5563502460717
 20
110.8366406336426
 30
0.0
 11
103.5563502460717
 21
108.51811587810511
 31
0.0
  0
LINE
  5
EEC
  8
0
 10
104.90064918994889
 20
110.8366406336426
 30
0.0
 11
105.47800026834
 21
111.62783152423791
 31
0.0
  0
LINE
  5
EED
  8
0
 10
103.5563502460717
 20
110.8366406336426
 30
0.0
 11
104.90064918994889
 21
110.8366406336426
 31
0.0
  0
LINE
  5
EEE
  8
0
 10
104.90064918994889
 20
108.51811587810511
 30
0.0
 11
104.90064918994889
 21
110.8366406336426
 31
0.0
  0
LINE
  5
EEF
  8
0
 10
103.5563502460717
 20
108.51811587810511
 30
0.0
 11
104.90064918994889
 21
108.51811587810511
 31
0.0
  0
LINE
  5
EF0
  8
0
 10
105.47800026834
 20
108.47212623804801
 30
0.0
 11
104.90064918994889
 21
108.51811587810511
 31
0.0
  0
LINE
  5
EF2
  8
0
 10
106.055351346731
 20
108.51811587810511
 30
0.0
 11
105.47800026834
 21
108.47212623804801
 31
0.0
  0
LINE
  5
EF3
  8
0
 10
105.47800026834
 20
111.62783152423791
 30
0.0
 11
106.055351346731
 21
110.8366406336426
 31
0.0
  0
LINE
  5
EF4
  8
0
 10
106.055351346731
 20
110.8366406336426
 30
0.0
 11
106.055351346731
 21
108.51811587810511
 31
0.0
  0
LINE
  5
EF5
  8
0
 10
107.39965029060831
 20
110.8366406336426
 30
0.0
 11
107.9769995063542
 21
111.62783152423791
 31
0.0
  0
LINE
  5
EF6
  8
0
 10
106.055351346731
 20
110.8366406336426
 30
0.0
 11
107.39965029060831
 21
110.8366406336426
 31
0.0
  0
LINE
  5
EF7
  8
0
 10
107.39965029060831
 20
108.51811587810511
 30
0.0
 11
107.39965029060831
 21
110.8366406336426
 31
0.0
  0
LINE
  5
EF8
  8
0
 10
106.055351346731
 20
108.51811587810511
 30
0.0
 11
107.39965029060831
 21
108.51811587810511
 31
0.0
  0
LINE
  5
EF9
  8
0
 10
107.9769995063542
 20
108.47212623804801
 30
0.0
 11
107.39965029060831
 21
108.51811587810511
 31
0.0
  0
LINE
  5
EFB
  8
0
 10
107.9769995063542
 20
111.62783152423791
 30
0.0
 11
108.55435058474529
 21
110.8366406336426
 31
0.0
  0
LINE
  5
EFC
  8
0
 10
109.8986495286225
 20
110.8366406336426
 30
0.0
 11
110.4760006070136
 21
111.62783152423791
 31
0.0
  0
LINE
  5
EFD
  8
0
 10
108.55435058474529
 20
110.8366406336426
 30
0.0
 11
109.8986495286225
 21
110.8366406336426
 31
0.0
  0
LINE
  5
EFE
  8
0
 10
108.55435058474529
 20
108.51811587810511
 30
0.0
 11
107.9769995063542
 21
108.47212623804801
 31
0.0
  0
LINE
  5
EFF
  8
0
 10
108.55435058474529
 20
110.8366406336426
 30
0.0
 11
108.55435058474529
 21
108.51811587810511
 31
0.0
  0
LINE
  5
F00
  8
0
 10
109.8986495286225
 20
108.51811587810511
 30
0.0
 11
109.8986495286225
 21
110.8366406336426
 31
0.0
  0
LINE
  5
F01
  8
0
 10
108.55435058474529
 20
108.51811587810511
 30
0.0
 11
109.8986495286225
 21
108.51811587810511
 31
0.0
  0
LINE
  5
F02
  8
0
 10
110.4760006070136
 20
108.47212623804801
 30
0.0
 11
109.8986495286225
 21
108.51811587810511
 31
0.0
  0
LINE
  5
F04
  8
0
 10
111.0533507540821
 20
108.51811587810511
 30
0.0
 11
110.4760006070136
 21
108.47212623804801
 31
0.0
  0
LINE
  5
F05
  8
0
 10
110.4760006070136
 20
111.62783152423791
 30
0.0
 11
111.0533507540821
 21
110.8366406336426
 31
0.0
  0
LINE
  5
F06
  8
0
 10
111.0533507540821
 20
110.8366406336426
 30
0.0
 11
111.0533507540821
 21
108.51811587810511
 31
0.0
  0
LINE
  5
F07
  8
0
 10
112.3976496979593
 20
110.8366406336426
 30
0.0
 11
112.9749998450278
 21
111.62783152423791
 31
0.0
  0
LINE
  5
F08
  8
0
 10
111.0533507540821
 20
110.8366406336426
 30
0.0
 11
112.3976496979593
 21
110.8366406336426
 31
0.0
  0
LINE
  5
F09
  8
0
 10
112.3976496979593
 20
108.51811587810511
 30
0.0
 11
112.3976496979593
 21
110.8366406336426
 31
0.0
  0
LINE
  5
F0A
  8
0
 10
111.0533507540821
 20
108.51811587810511
 30
0.0
 11
112.3976496979593
 21
108.51811587810511
 31
0.0
  0
LINE
  5
F0B
  8
0
 10
112.9749998450278
 20
108.47212623804801
 30
0.0
 11
112.3976496979593
 21
108.51811587810511
 31
0.0
  0
LINE
  5
F17
  8
0
 10
99.999999999999886
 20
101.58825077116479
 30
0.0
 11
99.999999999999886
 21
128.36825072765339
 31
0.0
  0
LINE
  5
F18
  8
0
 10
113.5000003501771
 20
101.58825077116479
 30
0.0
 11
113.5000003501771
 21
128.36825072765339
 31
0.0
  0
LINE
  5
F19
  8
0
 10
100.47999992966641
 20
124.26196753978719
 30
0.0
 11
101.05735100805749
 21
124.4904256239533
 31
0.0
  0
LINE
  5
F1A
  8
0
 10
101.05735100805749
 20
124.4904256239533
 30
0.0
 11
101.05735100805749
 21
122.44970368221399
 31
0.0
  0
LINE
  5
F1B
  8
0
 10
101.05735100805749
 20
122.44970368221399
 30
0.0
 11
100.47999992966641
 21
121.48437526077031
 31
0.0
  0
LINE
  5
F1D
  8
0
 10
101.05735100805749
 20
124.4904256239533
 30
0.0
 11
102.4016499519347
 21
124.4904256239533
 31
0.0
  0
LINE
  5
F1E
  8
0
 10
102.4016499519347
 20
122.44970368221399
 30
0.0
 11
102.4016499519347
 21
124.4904256239533
 31
0.0
  0
LINE
  5
F1F
  8
0
 10
101.05735100805749
 20
122.44970368221399
 30
0.0
 11
102.4016499519347
 21
122.44970368221399
 31
0.0
  0
LINE
  5
F20
  8
0
 10
102.4016499519347
 20
124.4904256239533
 30
0.0
 11
102.9790010303258
 21
124.26196753978719
 31
0.0
  0
LINE
  5
F22
  8
0
 10
102.9790010303258
 20
121.48437526077031
 30
0.0
 11
102.4016499519347
 21
122.44970368221399
 31
0.0
  0
LINE
  5
F23
  8
0
 10
102.9790010303258
 20
124.26196753978719
 30
0.0
 11
103.5563502460717
 21
124.4904256239533
 31
0.0
  0
LINE
  5
F24
  8
0
 10
103.5563502460717
 20
124.4904256239533
 30
0.0
 11
103.5563502460717
 21
122.44970368221399
 31
0.0
  0
LINE
  5
F25
  8
0
 10
103.5563502460717
 20
122.44970368221399
 30
0.0
 11
102.9790010303258
 21
121.48437526077031
 31
0.0
  0
LINE
  5
F26
  8
0
 10
103.5563502460717
 20
124.4904256239533
 30
0.0
 11
104.90064918994889
 21
124.4904256239533
 31
0.0
  0
LINE
  5
F27
  8
0
 10
104.90064918994889
 20
122.44970368221399
 30
0.0
 11
104.90064918994889
 21
124.4904256239533
 31
0.0
  0
LINE
  5
F28
  8
0
 10
103.5563502460717
 20
122.44970368221399
 30
0.0
 11
104.90064918994889
 21
122.44970368221399
 31
0.0
  0
LINE
  5
F29
  8
0
 10
104.90064918994889
 20
124.4904256239533
 30
0.0
 11
105.47800026834
 21
124.26196753978719
 31
0.0
  0
LINE
  5
F2B
  8
0
 10
105.47800026834
 20
121.48437526077031
 30
0.0
 11
104.90064918994889
 21
122.44970368221399
 31
0.0
  0
LINE
  5
F2C
  8
0
 10
105.47800026834
 20
124.26196753978719
 30
0.0
 11
106.055351346731
 21
124.4904256239533
 31
0.0
  0
LINE
  5
F2D
  8
0
 10
106.055351346731
 20
124.4904256239533
 30
0.0
 11
106.055351346731
 21
122.44970368221399
 31
0.0
  0
LINE
  5
F2E
  8
0
 10
106.055351346731
 20
122.44970368221399
 30
0.0
 11
105.47800026834
 21
121.48437526077031
 31
0.0
  0
LINE
  5
F2F
  8
0
 10
106.055351346731
 20
124.4904256239533
 30
0.0
 11
107.39965029060831
 21
124.4904256239533
 31
0.0
  0
LINE
  5
F30
  8
0
 10
107.39965029060831
 20
122.44970368221399
 30
0.0
 11
107.39965029060831
 21
124.4904256239533
 31
0.0
  0
LINE
  5
F31
  8
0
 10
106.055351346731
 20
122.44970368221399
 30
0.0
 11
107.39965029060831
 21
122.44970368221399
 31
0.0
  0
LINE
  5
F32
  8
0
 10
107.9769995063542
 20
121.48437526077031
 30
0.0
 11
107.39965029060831
 21
122.44970368221399
 31
0.0
  0
LINE
  5
F33
  8
0
 10
107.39965029060831
 20
124.4904256239533
 30
0.0
 11
107.9769995063542
 21
124.26196753978719
 31
0.0
  0
LINE
  5
F35
  8
0
 10
107.9769995063542
 20
124.26196753978719
 30
0.0
 11
108.55435058474529
 21
124.4904256239533
 31
0.0
  0
LINE
  5
F36
  8
0
 10
108.55435058474529
 20
124.4904256239533
 30
0.0
 11
108.55435058474529
 21
122.44970368221399
 31
0.0
  0
LINE
  5
F37
  8
0
 10
108.55435058474529
 20
122.44970368221399
 30
0.0
 11
107.9769995063542
 21
121.48437526077031
 31
0.0
  0
LINE
  5
F38
  8
0
 10
108.55435058474529
 20
124.4904256239533
 30
0.0
 11
109.8986495286225
 21
124.4904256239533
 31
0.0
  0
LINE
  5
F39
  8
0
 10
109.8986495286225
 20
122.44970368221399
 30
0.0
 11
109.8986495286225
 21
124.4904256239533
 31
0.0
  0
LINE
  5
F3A
  8
0
 10
108.55435058474529
 20
122.44970368221399
 30
0.0
 11
109.8986495286225
 21
122.44970368221399
 31
0.0
  0
LINE
  5
F3B
  8
0
 10
109.8986495286225
 20
124.4904256239533
 30
0.0
 11
110.4760006070136
 21
124.26196753978719
 31
0.0
  0
LINE
  5
F3D
  8
0
 10
110.4760006070136
 20
121.48437526077031
 30
0.0
 11
109.8986495286225
 21
122.44970368221399
 31
0.0
  0
LINE
  5
F3E
  8
0
 10
110.4760006070136
 20
124.26196753978719
 30
0.0
 11
111.0533507540821
 21
124.4904256239533
 31
0.0
  0
LINE
  5
F3F
  8
0
 10
111.0533507540821
 20
124.4904256239533
 30
0.0
 11
111.0533507540821
 21
122.44970368221399
 31
0.0
  0
LINE
  5
F40
  8
0
 10
111.0533507540821
 20
122.44970368221399
 30
0.0
 11
110.4760006070136
 21
121.48437526077031
 31
0.0
  0
LINE
  5
F41
  8
0
 10
111.0533507540821
 20
124.4904256239533
 30
0.0
 11
112.3976496979593
 21
124.4904256239533
 31
0.0
  0
LINE
  5
F42
  8
0
 10
112.3976496979593
 20
122.44970368221399
 30
0.0
 11
112.3976496979593
 21
124.4904256239533
 31
0.0
  0
LINE
  5
F43
  8
0
 10
111.0533507540821
 20
122.44970368221399
 30
0.0
 11
112.3976496979593
 21
122.44970368221399
 31
0.0
  0
LINE
  5
F44
  8
0
 10
112.3976496979593
 20
124.4904256239533
 30
0.0
 11
112.9749998450278
 21
124.26196753978719
 31
0.0
  0
LINE
  5
F45
  8
0
 10
112.9749998450278
 20
121.48437526077031
 30
0.0
 11
112.3976496979593
 21
122.44970368221399
 31
0.0
  0
LINE
  5
F47
  8
0
 10
101.05735100805749
 20
105.466075874865
 30
0.0
 11
100.47999992966641
 21
105.69453395903111
 31
0.0
  0
LINE
  5
F48
  8
0
 10
100.47999992966641
 20
108.47212623804801
 30
0.0
 11
101.05735100805749
 21
107.5067978166043
 31
0.0
  0
LINE
  5
F49
  8
0
 10
101.05735100805749
 20
107.5067978166043
 30
0.0
 11
101.05735100805749
 21
105.466075874865
 31
0.0
  0
LINE
  5
F4B
  8
0
 10
102.4016499519347
 20
107.5067978166043
 30
0.0
 11
102.9790010303258
 21
108.47212623804801
 31
0.0
  0
LINE
  5
F4C
  8
0
 10
101.05735100805749
 20
107.5067978166043
 30
0.0
 11
102.4016499519347
 21
107.5067978166043
 31
0.0
  0
LINE
  5
F4D
  8
0
 10
102.4016499519347
 20
105.466075874865
 30
0.0
 11
102.4016499519347
 21
107.5067978166043
 31
0.0
  0
LINE
  5
F4E
  8
0
 10
101.05735100805749
 20
105.466075874865
 30
0.0
 11
102.4016499519347
 21
105.466075874865
 31
0.0
  0
LINE
  5
F4F
  8
0
 10
102.9790010303258
 20
105.69453395903111
 30
0.0
 11
102.4016499519347
 21
105.466075874865
 31
0.0
  0
LINE
  5
F51
  8
0
 10
103.5563502460717
 20
105.466075874865
 30
0.0
 11
102.9790010303258
 21
105.69453395903111
 31
0.0
  0
LINE
  5
F52
  8
0
 10
102.9790010303258
 20
108.47212623804801
 30
0.0
 11
103.5563502460717
 21
107.5067978166043
 31
0.0
  0
LINE
  5
F53
  8
0
 10
103.5563502460717
 20
107.5067978166043
 30
0.0
 11
103.5563502460717
 21
105.466075874865
 31
0.0
  0
LINE
  5
F54
  8
0
 10
104.90064918994889
 20
107.5067978166043
 30
0.0
 11
105.47800026834
 21
108.47212623804801
 31
0.0
  0
LINE
  5
F55
  8
0
 10
103.5563502460717
 20
107.5067978166043
 30
0.0
 11
104.90064918994889
 21
107.5067978166043
 31
0.0
  0
LINE
  5
F56
  8
0
 10
104.90064918994889
 20
105.466075874865
 30
0.0
 11
104.90064918994889
 21
107.5067978166043
 31
0.0
  0
LINE
  5
F57
  8
0
 10
103.5563502460717
 20
105.466075874865
 30
0.0
 11
104.90064918994889
 21
105.466075874865
 31
0.0
  0
LINE
  5
F58
  8
0
 10
105.47800026834
 20
105.69453395903111
 30
0.0
 11
104.90064918994889
 21
105.466075874865
 31
0.0
  0
LINE
  5
F5A
  8
0
 10
106.055351346731
 20
105.466075874865
 30
0.0
 11
105.47800026834
 21
105.69453395903111
 31
0.0
  0
LINE
  5
F5B
  8
0
 10
105.47800026834
 20
108.47212623804801
 30
0.0
 11
106.055351346731
 21
107.5067978166043
 31
0.0
  0
LINE
  5
F5C
  8
0
 10
106.055351346731
 20
107.5067978166043
 30
0.0
 11
106.055351346731
 21
105.466075874865
 31
0.0
  0
LINE
  5
F5D
  8
0
 10
107.39965029060831
 20
107.5067978166043
 30
0.0
 11
107.9769995063542
 21
108.47212623804801
 31
0.0
  0
LINE
  5
F5E
  8
0
 10
106.055351346731
 20
107.5067978166043
 30
0.0
 11
107.39965029060831
 21
107.5067978166043
 31
0.0
  0
LINE
  5
F5F
  8
0
 10
107.39965029060831
 20
105.466075874865
 30
0.0
 11
107.39965029060831
 21
107.5067978166043
 31
0.0
  0
LINE
  5
F60
  8
0
 10
106.055351346731
 20
105.466075874865
 30
0.0
 11
107.39965029060831
 21
105.466075874865
 31
0.0
  0
LINE
  5
F61
  8
0
 10
107.9769995063542
 20
105.69453395903111
 30
0.0
 11
107.39965029060831
 21
105.466075874865
 31
0.0
  0
LINE
  5
F63
  8
0
 10
108.55435058474529
 20
105.466075874865
 30
0.0
 11
107.9769995063542
 21
105.69453395903111
 31
0.0
  0
LINE
  5
F64
  8
0
 10
107.9769995063542
 20
108.47212623804801
 30
0.0
 11
108.55435058474529
 21
107.5067978166043
 31
0.0
  0
LINE
  5
F65
  8
0
 10
108.55435058474529
 20
107.5067978166043
 30
0.0
 11
108.55435058474529
 21
105.466075874865
 31
0.0
  0
LINE
  5
F66
  8
0
 10
109.8986495286225
 20
107.5067978166043
 30
0.0
 11
110.4760006070136
 21
108.47212623804801
 31
0.0
  0
LINE
  5
F67
  8
0
 10
108.55435058474529
 20
107.5067978166043
 30
0.0
 11
109.8986495286225
 21
107.5067978166043
 31
0.0
  0
LINE
  5
F68
  8
0
 10
109.8986495286225
 20
105.466075874865
 30
0.0
 11
109.8986495286225
 21
107.5067978166043
 31
0.0
  0
LINE
  5
F69
  8
0
 10
108.55435058474529
 20
105.466075874865
 30
0.0
 11
109.8986495286225
 21
105.466075874865
 31
0.0
  0
LINE
  5
F6A
  8
0
 10
110.4760006070136
 20
105.69453395903111
 30
0.0
 11
109.8986495286225
 21
105.466075874865
 31
0.0
  0
LINE
  5
F6C
  8
0
 10
111.0533507540821
 20
105.466075874865
 30
0.0
 11
110.4760006070136
 21
105.69453395903111
 31
0.0
  0
LINE
  5
F6D
  8
0
 10
110.4760006070136
 20
108.47212623804801
 30
0.0
 11
111.0533507540821
 21
107.5067978166043
 31
0.0
  0
LINE
  5
F6E
  8
0
 10
111.0533507540821
 20
107.5067978166043
 30
0.0
 11
111.0533507540821
 21
105.466075874865
 31
0.0
  0
LINE
  5
F6F
  8
0
 10
112.3976496979593
 20
107.5067978166043
 30
0.0
 11
112.9749998450278
 21
108.47212623804801
 31
0.0
  0
LINE
  5
F70
  8
0
 10
111.0533507540821
 20
107.5067978166043
 30
0.0
 11
112.3976496979593
 21
107.5067978166043
 31
0.0
  0
LINE
  5
F71
  8
0
 10
112.3976496979593
 20
105.466075874865
 30
0.0
 11
112.3976496979593
 21
107.5067978166043
 31
0.0
  0
LINE
  5
F72
  8
0
 10
111.0533507540821
 20
105.466075874865
 30
0.0
 11
112.3976496979593
 21
105.466075874865
 31
0.0
  0
LINE
  5
F73
  8
0
 10
112.9749998450278
 20
105.69453395903111
 30
0.0
 11
112.3976496979593
 21
105.466075874865
 31
0.0
  0
LINE
  5
F75
  8
0
 10
123.3700001845135
 20
101.9782504811882
 30
0.0
 11
123.3700001845135
 21
127.97825101763
 31
0.0
  0
POLYLINE
  5
F76
  8
0
 66
     1
 10
0.0
 20
0.0
 30
0.0
 70
   128
  0
VERTEX
  5
23FA
  8
0
 10
117.2764896415173
 20
101.9782504811882
 30
0.0
  0
VERTEX
  5
23FB
  8
0
 10
117.1026689931749
 20
102.000970095396
 30
0.0
  0
VERTEX
  5
23FC
  8
0
 10
116.77191210910659
 20
102.0332609117031
 30
0.0
  0
VERTEX
  5
23FD
  8
0
 10
116.29812130704509
 20
102.0667186751961
 30
0.0
  0
VERTEX
  5
23FE
  8
0
 10
116.016756184399
 20
102.079380005598
 30
0.0
  0
VERTEX
  5
23FF
  8
0
 10
115.7141610980032
 20
102.0869591087102
 30
0.0
  0
VERTEX
  5
2400
  8
0
 10
115.4028721153735
 20
102.08820801228281
 30
0.0
  0
VERTEX
  5
2401
  8
0
 10
115.08554164320221
 20
102.08264335989951
 30
0.0
  0
VERTEX
  5
2402
  8
0
 10
114.7857330739497
 20
102.0710567757487
 30
0.0
  0
VERTEX
  5
2403
  8
0
 10
114.49809316545711
 20
102.0541867986321
 30
0.0
  0
VERTEX
  5
2404
  8
0
 10
114.2525769770144
 20
102.0353610441088
 30
0.0
  0
VERTEX
  5
2405
  8
0
 10
114.0372132882474
 20
102.0155154913663
 30
0.0
  0
VERTEX
  5
2406
  8
0
 10
113.8803878799079
 20
101.9991195574402
 30
0.0
  0
VERTEX
  5
2407
  8
0
 10
113.7668875977396
 20
101.9862384349107
 30
0.0
  0
VERTEX
  5
2408
  8
0
 10
113.71115259826171
 20
101.9796027615666
 30
0.0
  0
VERTEX
  5
2409
  8
0
 10
113.7056484818457
 20
101.9782504811882
 30
0.0
  0
SEQEND
  5
240A
  8
0
  0
LINE
  5
F77
  8
0
 10
100.47999992966641
 20
126.50002509355539
 30
0.0
 11
101.05735100805749
 21
126.9896530359983
 31
0.0
  0
LINE
  5
F78
  8
0
 10
101.05735100805749
 20
126.9896530359983
 30
0.0
 11
101.05735100805749
 21
125.345332249999
 31
0.0
  0
LINE
  5
F79
  8
0
 10
101.05735100805749
 20
125.345332249999
 30
0.0
 11
100.47999992966641
 21
124.26196753978719
 31
0.0
  0
LINE
  5
F7B
  8
0
 10
101.05735100805749
 20
126.9896530359983
 30
0.0
 11
102.4016499519347
 21
126.9896530359983
 31
0.0
  0
LINE
  5
F7C
  8
0
 10
102.4016499519347
 20
125.345332249999
 30
0.0
 11
102.4016499519347
 21
126.9896530359983
 31
0.0
  0
LINE
  5
F7D
  8
0
 10
101.05735100805749
 20
125.345332249999
 30
0.0
 11
102.4016499519347
 21
125.345332249999
 31
0.0
  0
LINE
  5
F7E
  8
0
 10
102.9790010303258
 20
124.26196753978719
 30
0.0
 11
102.4016499519347
 21
125.345332249999
 31
0.0
  0
LINE
  5
F7F
  8
0
 10
102.4016499519347
 20
126.9896530359983
 30
0.0
 11
102.9790010303258
 21
126.50002509355539
 31
0.0
  0
LINE
  5
F81
  8
0
 10
102.9790010303258
 20
126.50002509355539
 30
0.0
 11
103.5563502460717
 21
126.9896530359983
 31
0.0
  0
LINE
  5
F82
  8
0
 10
103.5563502460717
 20
126.9896530359983
 30
0.0
 11
103.5563502460717
 21
125.345332249999
 31
0.0
  0
LINE
  5
F83
  8
0
 10
103.5563502460717
 20
125.345332249999
 30
0.0
 11
102.9790010303258
 21
124.26196753978719
 31
0.0
  0
LINE
  5
F84
  8
0
 10
103.5563502460717
 20
126.9896530359983
 30
0.0
 11
104.90064918994889
 21
126.9896530359983
 31
0.0
  0
LINE
  5
F85
  8
0
 10
104.90064918994889
 20
125.345332249999
 30
0.0
 11
104.90064918994889
 21
126.9896530359983
 31
0.0
  0
LINE
  5
F86
  8
0
 10
103.5563502460717
 20
125.345332249999
 30
0.0
 11
104.90064918994889
 21
125.345332249999
 31
0.0
  0
LINE
  5
F87
  8
0
 10
105.47800026834
 20
124.26196753978719
 30
0.0
 11
104.90064918994889
 21
125.345332249999
 31
0.0
  0
LINE
  5
F88
  8
0
 10
104.90064918994889
 20
126.9896530359983
 30
0.0
 11
105.47800026834
 21
126.50002509355539
 31
0.0
  0
LINE
  5
F8A
  8
0
 10
105.47800026834
 20
126.50002509355539
 30
0.0
 11
106.055351346731
 21
126.9896530359983
 31
0.0
  0
LINE
  5
F8B
  8
0
 10
106.055351346731
 20
126.9896530359983
 30
0.0
 11
106.055351346731
 21
125.345332249999
 31
0.0
  0
LINE
  5
F8C
  8
0
 10
106.055351346731
 20
125.345332249999
 30
0.0
 11
105.47800026834
 21
124.26196753978719
 31
0.0
  0
LINE
  5
F8D
  8
0
 10
106.055351346731
 20
126.9896530359983
 30
0.0
 11
107.39965029060831
 21
126.9896530359983
 31
0.0
  0
LINE
  5
F8E
  8
0
 10
107.39965029060831
 20
125.345332249999
 30
0.0
 11
107.39965029060831
 21
126.9896530359983
 31
0.0
  0
LINE
  5
F8F
  8
0
 10
106.055351346731
 20
125.345332249999
 30
0.0
 11
107.39965029060831
 21
125.345332249999
 31
0.0
  0
LINE
  5
F90
  8
0
 10
107.9769995063542
 20
124.26196753978719
 30
0.0
 11
107.39965029060831
 21
125.345332249999
 31
0.0
  0
LINE
  5
F91
  8
0
 10
107.39965029060831
 20
126.9896530359983
 30
0.0
 11
107.9769995063542
 21
126.50002509355539
 31
0.0
  0
LINE
  5
F93
  8
0
 10
107.9769995063542
 20
126.50002509355539
 30
0.0
 11
108.55435058474529
 21
126.9896530359983
 31
0.0
  0
LINE
  5
F94
  8
0
 10
108.55435058474529
 20
126.9896530359983
 30
0.0
 11
108.55435058474529
 21
125.345332249999
 31
0.0
  0
LINE
  5
F95
  8
0
 10
108.55435058474529
 20
125.345332249999
 30
0.0
 11
107.9769995063542
 21
124.26196753978719
 31
0.0
  0
LINE
  5
F96
  8
0
 10
108.55435058474529
 20
126.9896530359983
 30
0.0
 11
109.8986495286225
 21
126.9896530359983
 31
0.0
  0
LINE
  5
F97
  8
0
 10
109.8986495286225
 20
125.345332249999
 30
0.0
 11
109.8986495286225
 21
126.9896530359983
 31
0.0
  0
LINE
  5
F98
  8
0
 10
108.55435058474529
 20
125.345332249999
 30
0.0
 11
109.8986495286225
 21
125.345332249999
 31
0.0
  0
LINE
  5
F99
  8
0
 10
110.4760006070136
 20
124.26196753978719
 30
0.0
 11
109.8986495286225
 21
125.345332249999
 31
0.0
  0
LINE
  5
F9A
  8
0
 10
109.8986495286225
 20
126.9896530359983
 30
0.0
 11
110.4760006070136
 21
126.50002509355539
 31
0.0
  0
LINE
  5
F9C
  8
0
 10
110.4760006070136
 20
126.50002509355539
 30
0.0
 11
111.0533507540821
 21
126.9896530359983
 31
0.0
  0
LINE
  5
F9D
  8
0
 10
111.0533507540821
 20
126.9896530359983
 30
0.0
 11
111.0533507540821
 21
125.345332249999
 31
0.0
  0
LINE
  5
F9E
  8
0
 10
111.0533507540821
 20
125.345332249999
 30
0.0
 11
110.4760006070136
 21
124.26196753978719
 31
0.0
  0
LINE
  5
F9F
  8
0
 10
111.0533507540821
 20
126.9896530359983
 30
0.0
 11
112.3976496979593
 21
126.9896530359983
 31
0.0
  0
LINE
  5
FA0
  8
0
 10
112.3976496979593
 20
125.345332249999
 30
0.0
 11
112.3976496979593
 21
126.9896530359983
 31
0.0
  0
LINE
  5
FA1
  8
0
 10
111.0533507540821
 20
125.345332249999
 30
0.0
 11
112.3976496979593
 21
125.345332249999
 31
0.0
  0
LINE
  5
FA2
  8
0
 10
112.9749998450278
 20
124.26196753978719
 30
0.0
 11
112.3976496979593
 21
125.345332249999
 31
0.0
  0
LINE
  5
FA3
  8
0
 10
112.3976496979593
 20
126.9896530359983
 30
0.0
 11
112.9749998450278
 21
126.50002509355539
 31
0.0
  0
LINE
  5
FA5
  8
0
 10
101.05735100805749
 20
102.96684846282
 30
0.0
 11
100.47999992966641
 21
103.4564764052629
 31
0.0
  0
LINE
  5
FA6
  8
0
 10
100.47999992966641
 20
105.69453395903111
 30
0.0
 11
101.05735100805749
 21
104.61116924881929
 31
0.0
  0
LINE
  5
FA7
  8
0
 10
101.05735100805749
 20
104.61116924881929
 30
0.0
 11
101.05735100805749
 21
102.96684846282
 31
0.0
  0
LINE
  5
FA9
  8
0
 10
102.4016499519347
 20
104.61116924881929
 30
0.0
 11
102.9790010303258
 21
105.69453395903111
 31
0.0
  0
LINE
  5
FAA
  8
0
 10
101.05735100805749
 20
104.61116924881929
 30
0.0
 11
102.4016499519347
 21
104.61116924881929
 31
0.0
  0
LINE
  5
FAB
  8
0
 10
102.4016499519347
 20
102.96684846282
 30
0.0
 11
102.4016499519347
 21
104.61116924881929
 31
0.0
  0
LINE
  5
FAC
  8
0
 10
101.05735100805749
 20
102.96684846282
 30
0.0
 11
102.4016499519347
 21
102.96684846282
 31
0.0
  0
LINE
  5
FAD
  8
0
 10
102.9790010303258
 20
103.4564764052629
 30
0.0
 11
102.4016499519347
 21
102.96684846282
 31
0.0
  0
LINE
  5
FAF
  8
0
 10
103.5563502460717
 20
102.96684846282
 30
0.0
 11
102.9790010303258
 21
103.4564764052629
 31
0.0
  0
LINE
  5
FB0
  8
0
 10
102.9790010303258
 20
105.69453395903111
 30
0.0
 11
103.5563502460717
 21
104.61116924881929
 31
0.0
  0
LINE
  5
FB1
  8
0
 10
103.5563502460717
 20
104.61116924881929
 30
0.0
 11
103.5563502460717
 21
102.96684846282
 31
0.0
  0
LINE
  5
FB2
  8
0
 10
104.90064918994889
 20
104.61116924881929
 30
0.0
 11
105.47800026834
 21
105.69453395903111
 31
0.0
  0
LINE
  5
FB3
  8
0
 10
103.5563502460717
 20
104.61116924881929
 30
0.0
 11
104.90064918994889
 21
104.61116924881929
 31
0.0
  0
LINE
  5
FB4
  8
0
 10
104.90064918994889
 20
102.96684846282
 30
0.0
 11
104.90064918994889
 21
104.61116924881929
 31
0.0
  0
LINE
  5
FB5
  8
0
 10
103.5563502460717
 20
102.96684846282
 30
0.0
 11
104.90064918994889
 21
102.96684846282
 31
0.0
  0
LINE
  5
FB6
  8
0
 10
105.47800026834
 20
103.4564764052629
 30
0.0
 11
104.90064918994889
 21
102.96684846282
 31
0.0
  0
LINE
  5
FB8
  8
0
 10
106.055351346731
 20
102.96684846282
 30
0.0
 11
105.47800026834
 21
103.4564764052629
 31
0.0
  0
LINE
  5
FB9
  8
0
 10
105.47800026834
 20
105.69453395903111
 30
0.0
 11
106.055351346731
 21
104.61116924881929
 31
0.0
  0
LINE
  5
FBA
  8
0
 10
106.055351346731
 20
104.61116924881929
 30
0.0
 11
106.055351346731
 21
102.96684846282
 31
0.0
  0
LINE
  5
FBB
  8
0
 10
107.39965029060831
 20
104.61116924881929
 30
0.0
 11
107.9769995063542
 21
105.69453395903111
 31
0.0
  0
LINE
  5
FBC
  8
0
 10
106.055351346731
 20
104.61116924881929
 30
0.0
 11
107.39965029060831
 21
104.61116924881929
 31
0.0
  0
LINE
  5
FBD
  8
0
 10
107.39965029060831
 20
102.96684846282
 30
0.0
 11
107.39965029060831
 21
104.61116924881929
 31
0.0
  0
LINE
  5
FBE
  8
0
 10
106.055351346731
 20
102.96684846282
 30
0.0
 11
107.39965029060831
 21
102.96684846282
 31
0.0
  0
LINE
  5
FBF
  8
0
 10
107.9769995063542
 20
103.4564764052629
 30
0.0
 11
107.39965029060831
 21
102.96684846282
 31
0.0
  0
LINE
  5
FC1
  8
0
 10
108.55435058474529
 20
102.96684846282
 30
0.0
 11
107.9769995063542
 21
103.4564764052629
 31
0.0
  0
LINE
  5
FC2
  8
0
 10
107.9769995063542
 20
105.69453395903111
 30
0.0
 11
108.55435058474529
 21
104.61116924881929
 31
0.0
  0
LINE
  5
FC3
  8
0
 10
108.55435058474529
 20
104.61116924881929
 30
0.0
 11
108.55435058474529
 21
102.96684846282
 31
0.0
  0
LINE
  5
FC4
  8
0
 10
109.8986495286225
 20
104.61116924881929
 30
0.0
 11
110.4760006070136
 21
105.69453395903111
 31
0.0
  0
LINE
  5
FC5
  8
0
 10
108.55435058474529
 20
104.61116924881929
 30
0.0
 11
109.8986495286225
 21
104.61116924881929
 31
0.0
  0
LINE
  5
FC6
  8
0
 10
109.8986495286225
 20
102.96684846282
 30
0.0
 11
109.8986495286225
 21
104.61116924881929
 31
0.0
  0
LINE
  5
FC7
  8
0
 10
108.55435058474529
 20
102.96684846282
 30
0.0
 11
109.8986495286225
 21
102.96684846282
 31
0.0
  0
LINE
  5
FC8
  8
0
 10
110.4760006070136
 20
103.4564764052629
 30
0.0
 11
109.8986495286225
 21
102.96684846282
 31
0.0
  0
LINE
  5
FCA
  8
0
 10
111.0533507540821
 20
102.96684846282
 30
0.0
 11
110.4760006070136
 21
103.4564764052629
 31
0.0
  0
LINE
  5
FCB
  8
0
 10
110.4760006070136
 20
105.69453395903111
 30
0.0
 11
111.0533507540821
 21
104.61116924881929
 31
0.0
  0
LINE
  5
FCC
  8
0
 10
111.0533507540821
 20
104.61116924881929
 30
0.0
 11
111.0533507540821
 21
102.96684846282
 31
0.0
  0
LINE
  5
FCD
  8
0
 10
112.3976496979593
 20
104.61116924881929
 30
0.0
 11
112.9749998450278
 21
105.69453395903111
 31
0.0
  0
LINE
  5
FCE
  8
0
 10
111.0533507540821
 20
104.61116924881929
 30
0.0
 11
112.3976496979593
 21
104.61116924881929
 31
0.0
  0
LINE
  5
FCF
  8
0
 10
112.3976496979593
 20
102.96684846282
 30
0.0
 11
112.3976496979593
 21
104.61116924881929
 31
0.0
  0
LINE
  5
FD0
  8
0
 10
111.0533507540821
 20
102.96684846282
 30
0.0
 11
112.3976496979593
 21
102.96684846282
 31
0.0
  0
LINE
  5
FD1
  8
0
 10
112.9749998450278
 20
103.4564764052629
 30
0.0
 11
112.3976496979593
 21
102.96684846282
 31
0.0
  0
LINE
  5
FD3
  8
0
 10
100.47999992966641
 20
128.06847847998131
 30
0.0
 11
101.05735100805749
 21
128.79082158207891
 31
0.0
  0
LINE
  5
FD4
  8
0
 10
101.05735100805749
 20
128.79082158207891
 30
0.0
 11
101.05735100805749
 21
127.63846449553959
 31
0.0
  0
LINE
  5
FD5
  8
0
 10
101.05735100805749
 20
127.63846449553959
 30
0.0
 11
100.47999992966641
 21
126.50002509355539
 31
0.0
  0
LINE
  5
FD7
  8
0
 10
101.05735100805749
 20
128.79082158207891
 30
0.0
 11
102.4016499519347
 21
128.79082158207891
 31
0.0
  0
LINE
  5
FD8
  8
0
 10
102.4016499519347
 20
127.63846449553959
 30
0.0
 11
102.4016499519347
 21
128.79082158207891
 31
0.0
  0
LINE
  5
FD9
  8
0
 10
101.05735100805749
 20
127.63846449553959
 30
0.0
 11
102.4016499519347
 21
127.63846449553959
 31
0.0
  0
LINE
  5
FDA
  8
0
 10
102.9790010303258
 20
126.50002509355539
 30
0.0
 11
102.4016499519347
 21
127.63846449553959
 31
0.0
  0
LINE
  5
FDB
  8
0
 10
102.4016499519347
 20
128.79082158207891
 30
0.0
 11
102.9790010303258
 21
128.06847847998131
 31
0.0
  0
LINE
  5
FDD
  8
0
 10
102.9790010303258
 20
128.06847847998131
 30
0.0
 11
103.5563502460717
 21
128.79082158207891
 31
0.0
  0
LINE
  5
FDE
  8
0
 10
103.5563502460717
 20
128.79082158207891
 30
0.0
 11
103.5563502460717
 21
127.63846449553959
 31
0.0
  0
LINE
  5
FDF
  8
0
 10
103.5563502460717
 20
127.63846449553959
 30
0.0
 11
102.9790010303258
 21
126.50002509355539
 31
0.0
  0
LINE
  5
FE0
  8
0
 10
103.5563502460717
 20
128.79082158207891
 30
0.0
 11
104.90064918994889
 21
128.79082158207891
 31
0.0
  0
LINE
  5
FE1
  8
0
 10
104.90064918994889
 20
127.63846449553959
 30
0.0
 11
104.90064918994889
 21
128.79082158207891
 31
0.0
  0
LINE
  5
FE2
  8
0
 10
103.5563502460717
 20
127.63846449553959
 30
0.0
 11
104.90064918994889
 21
127.63846449553959
 31
0.0
  0
LINE
  5
FE3
  8
0
 10
105.47800026834
 20
126.50002509355539
 30
0.0
 11
104.90064918994889
 21
127.63846449553959
 31
0.0
  0
LINE
  5
FE4
  8
0
 10
104.90064918994889
 20
128.79082158207891
 30
0.0
 11
105.47800026834
 21
128.06847847998131
 31
0.0
  0
LINE
  5
FE6
  8
0
 10
105.47800026834
 20
128.06847847998131
 30
0.0
 11
106.055351346731
 21
128.79082158207891
 31
0.0
  0
LINE
  5
FE7
  8
0
 10
106.055351346731
 20
128.79082158207891
 30
0.0
 11
106.055351346731
 21
127.63846449553959
 31
0.0
  0
LINE
  5
FE8
  8
0
 10
106.055351346731
 20
127.63846449553959
 30
0.0
 11
105.47800026834
 21
126.50002509355539
 31
0.0
  0
LINE
  5
FE9
  8
0
 10
106.055351346731
 20
128.79082158207891
 30
0.0
 11
107.39965029060831
 21
128.79082158207891
 31
0.0
  0
LINE
  5
FEA
  8
0
 10
107.39965029060831
 20
127.63846449553959
 30
0.0
 11
107.39965029060831
 21
128.79082158207891
 31
0.0
  0
LINE
  5
FEB
  8
0
 10
106.055351346731
 20
127.63846449553959
 30
0.0
 11
107.39965029060831
 21
127.63846449553959
 31
0.0
  0
LINE
  5
FEC
  8
0
 10
107.9769995063542
 20
126.50002509355539
 30
0.0
 11
107.39965029060831
 21
127.63846449553959
 31
0.0
  0
LINE
  5
FED
  8
0
 10
107.39965029060831
 20
128.79082158207891
 30
0.0
 11
107.9769995063542
 21
128.06847847998131
 31
0.0
  0
LINE
  5
FEF
  8
0
 10
107.9769995063542
 20
128.06847847998131
 30
0.0
 11
108.55435058474529
 21
128.79082158207891
 31
0.0
  0
LINE
  5
FF0
  8
0
 10
108.55435058474529
 20
128.79082158207891
 30
0.0
 11
108.55435058474529
 21
127.63846449553959
 31
0.0
  0
LINE
  5
FF1
  8
0
 10
108.55435058474529
 20
127.63846449553959
 30
0.0
 11
107.9769995063542
 21
126.50002509355539
 31
0.0
  0
LINE
  5
FF2
  8
0
 10
108.55435058474529
 20
128.79082158207891
 30
0.0
 11
109.8986495286225
 21
128.79082158207891
 31
0.0
  0
LINE
  5
FF3
  8
0
 10
109.8986495286225
 20
127.63846449553959
 30
0.0
 11
109.8986495286225
 21
128.79082158207891
 31
0.0
  0
LINE
  5
FF4
  8
0
 10
108.55435058474529
 20
127.63846449553959
 30
0.0
 11
109.8986495286225
 21
127.63846449553959
 31
0.0
  0
LINE
  5
FF5
  8
0
 10
110.4760006070136
 20
126.50002509355539
 30
0.0
 11
109.8986495286225
 21
127.63846449553959
 31
0.0
  0
LINE
  5
FF6
  8
0
 10
109.8986495286225
 20
128.79082158207891
 30
0.0
 11
110.4760006070136
 21
128.06847847998131
 31
0.0
  0
LINE
  5
FF8
  8
0
 10
110.4760006070136
 20
128.06847847998131
 30
0.0
 11
111.0533507540821
 21
128.79082158207891
 31
0.0
  0
LINE
  5
FF9
  8
0
 10
111.0533507540821
 20
128.79082158207891
 30
0.0
 11
111.0533507540821
 21
127.63846449553959
 31
0.0
  0
LINE
  5
FFA
  8
0
 10
111.0533507540821
 20
127.63846449553959
 30
0.0
 11
110.4760006070136
 21
126.50002509355539
 31
0.0
  0
LINE
  5
FFB
  8
0
 10
111.0533507540821
 20
128.79082158207891
 30
0.0
 11
112.3976496979593
 21
128.79082158207891
 31
0.0
  0
LINE
  5
FFC
  8
0
 10
112.3976496979593
 20
127.63846449553959
 30
0.0
 11
112.3976496979593
 21
128.79082158207891
 31
0.0
  0
LINE
  5
FFD
  8
0
 10
111.0533507540821
 20
127.63846449553959
 30
0.0
 11
112.3976496979593
 21
127.63846449553959
 31
0.0
  0
LINE
  5
FFE
  8
0
 10
112.9749998450278
 20
126.50002509355539
 30
0.0
 11
112.3976496979593
 21
127.63846449553959
 31
0.0
  0
LINE
  5
FFF
  8
0
 10
112.3976496979593
 20
128.79082158207891
 30
0.0
 11
112.9749998450278
 21
128.06847847998131
 31
0.0
  0
LINE
  5
1001
  8
0
 10
100.47999992966641
 20
103.4564764052629
 30
0.0
 11
101.05735100805749
 21
102.3180370032787
 31
0.0
  0
LINE
  5
1002
  8
0
 10
102.4016499519347
 20
102.3180370032787
 30
0.0
 11
102.9790010303258
 21
103.4564764052629
 31
0.0
  0
LINE
  5
1003
  8
0
 10
101.05735100805749
 20
102.3180370032787
 30
0.0
 11
102.4016499519347
 21
102.3180370032787
 31
0.0
  0
LINE
  5
1004
  8
0
 10
101.05735100805749
 20
101.16567991673941
 30
0.0
 11
100.47999992966641
 21
101.8880230188369
 31
0.0
  0
LINE
  5
1005
  8
0
 10
101.05735100805749
 20
102.3180370032787
 30
0.0
 11
101.05735100805749
 21
101.16567991673941
 31
0.0
  0
LINE
  5
1007
  8
0
 10
102.4016499519347
 20
101.16567991673941
 30
0.0
 11
102.4016499519347
 21
102.3180370032787
 31
0.0
  0
LINE
  5
1008
  8
0
 10
101.05735100805749
 20
101.16567991673941
 30
0.0
 11
102.4016499519347
 21
101.16567991673941
 31
0.0
  0
LINE
  5
1009
  8
0
 10
102.9790010303258
 20
101.8880230188369
 30
0.0
 11
102.4016499519347
 21
101.16567991673941
 31
0.0
  0
LINE
  5
100B
  8
0
 10
102.9790010303258
 20
103.4564764052629
 30
0.0
 11
103.5563502460717
 21
102.3180370032787
 31
0.0
  0
LINE
  5
100C
  8
0
 10
104.90064918994889
 20
102.3180370032787
 30
0.0
 11
105.47800026834
 21
103.4564764052629
 31
0.0
  0
LINE
  5
100D
  8
0
 10
103.5563502460717
 20
102.3180370032787
 30
0.0
 11
104.90064918994889
 21
102.3180370032787
 31
0.0
  0
LINE
  5
100E
  8
0
 10
103.5563502460717
 20
101.16567991673941
 30
0.0
 11
102.9790010303258
 21
101.8880230188369
 31
0.0
  0
LINE
  5
100F
  8
0
 10
103.5563502460717
 20
102.3180370032787
 30
0.0
 11
103.5563502460717
 21
101.16567991673941
 31
0.0
  0
LINE
  5
1010
  8
0
 10
104.90064918994889
 20
101.16567991673941
 30
0.0
 11
104.90064918994889
 21
102.3180370032787
 31
0.0
  0
LINE
  5
1011
  8
0
 10
103.5563502460717
 20
101.16567991673941
 30
0.0
 11
104.90064918994889
 21
101.16567991673941
 31
0.0
  0
LINE
  5
1012
  8
0
 10
105.47800026834
 20
101.8880230188369
 30
0.0
 11
104.90064918994889
 21
101.16567991673941
 31
0.0
  0
LINE
  5
1014
  8
0
 10
105.47800026834
 20
103.4564764052629
 30
0.0
 11
106.055351346731
 21
102.3180370032787
 31
0.0
  0
LINE
  5
1015
  8
0
 10
107.39965029060831
 20
102.3180370032787
 30
0.0
 11
107.9769995063542
 21
103.4564764052629
 31
0.0
  0
LINE
  5
1016
  8
0
 10
106.055351346731
 20
102.3180370032787
 30
0.0
 11
107.39965029060831
 21
102.3180370032787
 31
0.0
  0
LINE
  5
1017
  8
0
 10
106.055351346731
 20
101.16567991673941
 30
0.0
 11
105.47800026834
 21
101.8880230188369
 31
0.0
  0
LINE
  5
1018
  8
0
 10
106.055351346731
 20
102.3180370032787
 30
0.0
 11
106.055351346731
 21
101.16567991673941
 31
0.0
  0
LINE
  5
1019
  8
0
 10
107.39965029060831
 20
101.16567991673941
 30
0.0
 11
107.39965029060831
 21
102.3180370032787
 31
0.0
  0
LINE
  5
101A
  8
0
 10
106.055351346731
 20
101.16567991673941
 30
0.0
 11
107.39965029060831
 21
101.16567991673941
 31
0.0
  0
LINE
  5
101B
  8
0
 10
107.9769995063542
 20
101.8880230188369
 30
0.0
 11
107.39965029060831
 21
101.16567991673941
 31
0.0
  0
LINE
  5
101D
  8
0
 10
107.9769995063542
 20
103.4564764052629
 30
0.0
 11
108.55435058474529
 21
102.3180370032787
 31
0.0
  0
LINE
  5
101E
  8
0
 10
109.8986495286225
 20
102.3180370032787
 30
0.0
 11
110.4760006070136
 21
103.4564764052629
 31
0.0
  0
LINE
  5
101F
  8
0
 10
108.55435058474529
 20
102.3180370032787
 30
0.0
 11
109.8986495286225
 21
102.3180370032787
 31
0.0
  0
LINE
  5
1020
  8
0
 10
108.55435058474529
 20
101.16567991673941
 30
0.0
 11
107.9769995063542
 21
101.8880230188369
 31
0.0
  0
LINE
  5
1021
  8
0
 10
108.55435058474529
 20
102.3180370032787
 30
0.0
 11
108.55435058474529
 21
101.16567991673941
 31
0.0
  0
LINE
  5
1022
  8
0
 10
109.8986495286225
 20
101.16567991673941
 30
0.0
 11
109.8986495286225
 21
102.3180370032787
 31
0.0
  0
LINE
  5
1023
  8
0
 10
108.55435058474529
 20
101.16567991673941
 30
0.0
 11
109.8986495286225
 21
101.16567991673941
 31
0.0
  0
LINE
  5
1024
  8
0
 10
110.4760006070136
 20
101.8880230188369
 30
0.0
 11
109.8986495286225
 21
101.16567991673941
 31
0.0
  0
LINE
  5
1026
  8
0
 10
111.0533507540821
 20
101.16567991673941
 30
0.0
 11
110.4760006070136
 21
101.8880230188369
 31
0.0
  0
LINE
  5
1027
  8
0
 10
110.4760006070136
 20
103.4564764052629
 30
0.0
 11
111.0533507540821
 21
102.3180370032787
 31
0.0
  0
LINE
  5
1028
  8
0
 10
111.0533507540821
 20
102.3180370032787
 30
0.0
 11
111.0533507540821
 21
101.16567991673941
 31
0.0
  0
LINE
  5
1029
  8
0
 10
112.3976496979593
 20
102.3180370032787
 30
0.0
 11
112.9749998450278
 21
103.4564764052629
 31
0.0
  0
LINE
  5
102A
  8
0
 10
111.0533507540821
 20
102.3180370032787
 30
0.0
 11
112.3976496979593
 21
102.3180370032787
 31
0.0
  0
LINE
  5
102B
  8
0
 10
112.3976496979593
 20
101.16567991673941
 30
0.0
 11
112.3976496979593
 21
102.3180370032787
 31
0.0
  0
LINE
  5
102C
  8
0
 10
111.0533507540821
 20
101.16567991673941
 30
0.0
 11
112.3976496979593
 21
101.16567991673941
 31
0.0
  0
LINE
  5
102D
  8
0
 10
112.9749998450278
 20
101.8880230188369
 30
0.0
 11
112.3976496979593
 21
101.16567991673941
 31
0.0
  0
LINE
  5
102F
  8
0
 10
123.70000019436689
 20
108.97825069725511
 30
0.0
 11
123.70000019436689
 21
120.97825080156321
 31
0.0
  0
LINE
  5
1030
  8
0
 10
124.0000002086161
 20
109.47825077921151
 30
0.0
 11
124.0000002086161
 21
120.47825071960681
 31
0.0
  0
LINE
  5
1031
  8
0
 10
100.47999992966641
 20
128.87617543339721
 30
0.0
 11
101.05735100805749
 21
129.789253398776
 31
0.0
  0
LINE
  5
1032
  8
0
 10
101.05735100805749
 20
129.789253398776
 30
0.0
 11
101.05735100805749
 21
129.1958314180373
 31
0.0
  0
LINE
  5
1033
  8
0
 10
101.05735100805749
 20
129.1958314180373
 30
0.0
 11
100.47999992966641
 21
128.06847847998131
 31
0.0
  0
LINE
  5
1035
  8
0
 10
101.05735100805749
 20
129.1958314180373
 30
0.0
 11
102.4016499519347
 21
129.1958314180373
 31
0.0
  0
LINE
  5
1036
  8
0
 10
102.9790010303258
 20
128.06847847998131
 30
0.0
 11
102.4016499519347
 21
129.1958314180373
 31
0.0
  0
LINE
  5
1037
  8
0
 10
102.4016499519347
 20
129.789253398776
 30
0.0
 11
102.9790010303258
 21
128.87617543339721
 31
0.0
  0
LINE
  5
1039
  8
0
 10
102.4016499519347
 20
129.1958314180373
 30
0.0
 11
102.4016499519347
 21
129.789253398776
 31
0.0
  0
LINE
  5
103A
  8
0
 10
102.9790010303258
 20
128.87617543339721
 30
0.0
 11
103.5563502460717
 21
129.789253398776
 31
0.0
  0
LINE
  5
103B
  8
0
 10
103.5563502460717
 20
129.789253398776
 30
0.0
 11
103.5563502460717
 21
129.1958314180373
 31
0.0
  0
LINE
  5
103C
  8
0
 10
103.5563502460717
 20
129.1958314180373
 30
0.0
 11
102.9790010303258
 21
128.06847847998131
 31
0.0
  0
LINE
  5
103D
  8
0
 10
103.5563502460717
 20
129.1958314180373
 30
0.0
 11
104.90064918994889
 21
129.1958314180373
 31
0.0
  0
LINE
  5
103E
  8
0
 10
105.47800026834
 20
128.06847847998131
 30
0.0
 11
104.90064918994889
 21
129.1958314180373
 31
0.0
  0
LINE
  5
103F
  8
0
 10
104.90064918994889
 20
129.789253398776
 30
0.0
 11
105.47800026834
 21
128.87617543339721
 31
0.0
  0
LINE
  5
1041
  8
0
 10
104.90064918994889
 20
129.1958314180373
 30
0.0
 11
104.90064918994889
 21
129.789253398776
 31
0.0
  0
LINE
  5
1042
  8
0
 10
105.47800026834
 20
128.87617543339721
 30
0.0
 11
106.055351346731
 21
129.789253398776
 31
0.0
  0
LINE
  5
1043
  8
0
 10
106.055351346731
 20
129.789253398776
 30
0.0
 11
106.055351346731
 21
129.1958314180373
 31
0.0
  0
LINE
  5
1044
  8
0
 10
106.055351346731
 20
129.1958314180373
 30
0.0
 11
105.47800026834
 21
128.06847847998131
 31
0.0
  0
LINE
  5
1045
  8
0
 10
106.055351346731
 20
129.1958314180373
 30
0.0
 11
107.39965029060831
 21
129.1958314180373
 31
0.0
  0
LINE
  5
1046
  8
0
 10
107.9769995063542
 20
128.06847847998131
 30
0.0
 11
107.39965029060831
 21
129.1958314180373
 31
0.0
  0
LINE
  5
1047
  8
0
 10
107.39965029060831
 20
129.789253398776
 30
0.0
 11
107.9769995063542
 21
128.87617543339721
 31
0.0
  0
LINE
  5
1049
  8
0
 10
107.39965029060831
 20
129.1958314180373
 30
0.0
 11
107.39965029060831
 21
129.789253398776
 31
0.0
  0
LINE
  5
104A
  8
0
 10
107.9769995063542
 20
128.87617543339721
 30
0.0
 11
108.55435058474529
 21
129.789253398776
 31
0.0
  0
LINE
  5
104B
  8
0
 10
108.55435058474529
 20
129.789253398776
 30
0.0
 11
108.55435058474529
 21
129.1958314180373
 31
0.0
  0
LINE
  5
104C
  8
0
 10
108.55435058474529
 20
129.1958314180373
 30
0.0
 11
107.9769995063542
 21
128.06847847998131
 31
0.0
  0
LINE
  5
104D
  8
0
 10
108.55435058474529
 20
129.1958314180373
 30
0.0
 11
109.8986495286225
 21
129.1958314180373
 31
0.0
  0
LINE
  5
104E
  8
0
 10
110.4760006070136
 20
128.06847847998131
 30
0.0
 11
109.8986495286225
 21
129.1958314180373
 31
0.0
  0
LINE
  5
104F
  8
0
 10
109.8986495286225
 20
129.789253398776
 30
0.0
 11
110.4760006070136
 21
128.87617543339721
 31
0.0
  0
LINE
  5
1051
  8
0
 10
109.8986495286225
 20
129.1958314180373
 30
0.0
 11
109.8986495286225
 21
129.789253398776
 31
0.0
  0
LINE
  5
1052
  8
0
 10
110.4760006070136
 20
128.87617543339721
 30
0.0
 11
111.0533507540821
 21
129.789253398776
 31
0.0
  0
LINE
  5
1053
  8
0
 10
111.0533507540821
 20
129.789253398776
 30
0.0
 11
111.0533507540821
 21
129.1958314180373
 31
0.0
  0
LINE
  5
1054
  8
0
 10
111.0533507540821
 20
129.1958314180373
 30
0.0
 11
110.4760006070136
 21
128.06847847998131
 31
0.0
  0
LINE
  5
1055
  8
0
 10
111.0533507540821
 20
129.1958314180373
 30
0.0
 11
112.3976496979593
 21
129.1958314180373
 31
0.0
  0
LINE
  5
1056
  8
0
 10
112.9749998450278
 20
128.06847847998131
 30
0.0
 11
112.3976496979593
 21
129.1958314180373
 31
0.0
  0
LINE
  5
1057
  8
0
 10
112.3976496979593
 20
129.789253398776
 30
0.0
 11
112.9749998450278
 21
128.87617543339721
 31
0.0
  0
LINE
  5
1058
  8
0
 10
112.3976496979593
 20
129.1958314180373
 30
0.0
 11
112.3976496979593
 21
129.789253398776
 31
0.0
  0
LINE
  5
105A
  8
0
 10
100.47999992966641
 20
101.8880230188369
 30
0.0
 11
101.05735100805749
 21
100.7606700807809
 31
0.0
  0
LINE
  5
105B
  8
0
 10
102.4016499519347
 20
100.7606700807809
 30
0.0
 11
102.9790010303258
 21
101.8880230188369
 31
0.0
  0
LINE
  5
105C
  8
0
 10
101.05735100805749
 20
100.7606700807809
 30
0.0
 11
102.4016499519347
 21
100.7606700807809
 31
0.0
  0
LINE
  5
105D
  8
0
 10
101.05735100805749
 20
100.1672481000423
 30
0.0
 11
100.47999992966641
 21
101.080326065421
 31
0.0
  0
LINE
  5
105E
  8
0
 10
101.05735100805749
 20
100.7606700807809
 30
0.0
 11
101.05735100805749
 21
100.1672481000423
 31
0.0
  0
LINE
  5
1060
  8
0
 10
102.9790010303258
 20
101.080326065421
 30
0.0
 11
102.4016499519347
 21
100.1672481000423
 31
0.0
  0
LINE
  5
1061
  8
0
 10
102.4016499519347
 20
100.1672481000423
 30
0.0
 11
102.4016499519347
 21
100.7606700807809
 31
0.0
  0
LINE
  5
1063
  8
0
 10
102.9790010303258
 20
101.8880230188369
 30
0.0
 11
103.5563502460717
 21
100.7606700807809
 31
0.0
  0
LINE
  5
1064
  8
0
 10
104.90064918994889
 20
100.7606700807809
 30
0.0
 11
105.47800026834
 21
101.8880230188369
 31
0.0
  0
LINE
  5
1065
  8
0
 10
103.5563502460717
 20
100.7606700807809
 30
0.0
 11
104.90064918994889
 21
100.7606700807809
 31
0.0
  0
LINE
  5
1066
  8
0
 10
103.5563502460717
 20
100.1672481000423
 30
0.0
 11
102.9790010303258
 21
101.080326065421
 31
0.0
  0
LINE
  5
1067
  8
0
 10
103.5563502460717
 20
100.7606700807809
 30
0.0
 11
103.5563502460717
 21
100.1672481000423
 31
0.0
  0
LINE
  5
1068
  8
0
 10
105.47800026834
 20
101.080326065421
 30
0.0
 11
104.90064918994889
 21
100.1672481000423
 31
0.0
  0
LINE
  5
1069
  8
0
 10
104.90064918994889
 20
100.1672481000423
 30
0.0
 11
104.90064918994889
 21
100.7606700807809
 31
0.0
  0
LINE
  5
106B
  8
0
 10
105.47800026834
 20
101.8880230188369
 30
0.0
 11
106.055351346731
 21
100.7606700807809
 31
0.0
  0
LINE
  5
106C
  8
0
 10
107.39965029060831
 20
100.7606700807809
 30
0.0
 11
107.9769995063542
 21
101.8880230188369
 31
0.0
  0
LINE
  5
106D
  8
0
 10
106.055351346731
 20
100.7606700807809
 30
0.0
 11
107.39965029060831
 21
100.7606700807809
 31
0.0
  0
LINE
  5
106E
  8
0
 10
106.055351346731
 20
100.1672481000423
 30
0.0
 11
105.47800026834
 21
101.080326065421
 31
0.0
  0
LINE
  5
106F
  8
0
 10
106.055351346731
 20
100.7606700807809
 30
0.0
 11
106.055351346731
 21
100.1672481000423
 31
0.0
  0
LINE
  5
1070
  8
0
 10
107.9769995063542
 20
101.080326065421
 30
0.0
 11
107.39965029060831
 21
100.1672481000423
 31
0.0
  0
LINE
  5
1071
  8
0
 10
107.39965029060831
 20
100.1672481000423
 30
0.0
 11
107.39965029060831
 21
100.7606700807809
 31
0.0
  0
LINE
  5
1073
  8
0
 10
108.55435058474529
 20
100.1672481000423
 30
0.0
 11
107.9769995063542
 21
101.080326065421
 31
0.0
  0
LINE
  5
1074
  8
0
 10
107.9769995063542
 20
101.8880230188369
 30
0.0
 11
108.55435058474529
 21
100.7606700807809
 31
0.0
  0
LINE
  5
1075
  8
0
 10
108.55435058474529
 20
100.7606700807809
 30
0.0
 11
108.55435058474529
 21
100.1672481000423
 31
0.0
  0
LINE
  5
1076
  8
0
 10
109.8986495286225
 20
100.7606700807809
 30
0.0
 11
110.4760006070136
 21
101.8880230188369
 31
0.0
  0
LINE
  5
1077
  8
0
 10
108.55435058474529
 20
100.7606700807809
 30
0.0
 11
109.8986495286225
 21
100.7606700807809
 31
0.0
  0
LINE
  5
1078
  8
0
 10
110.4760006070136
 20
101.8880230188369
 30
0.0
 11
111.0533507540821
 21
100.7606700807809
 31
0.0
  0
LINE
  5
1079
  8
0
 10
112.3976496979593
 20
100.7606700807809
 30
0.0
 11
112.9749998450278
 21
101.8880230188369
 31
0.0
  0
LINE
  5
107A
  8
0
 10
111.0533507540821
 20
100.7606700807809
 30
0.0
 11
112.3976496979593
 21
100.7606700807809
 31
0.0
  0
LINE
  5
107B
  8
0
 10
110.4760006070136
 20
101.080326065421
 30
0.0
 11
109.8986495286225
 21
100.1672481000423
 31
0.0
  0
LINE
  5
107C
  8
0
 10
109.8986495286225
 20
100.1672481000423
 30
0.0
 11
109.8986495286225
 21
100.7606700807809
 31
0.0
  0
LINE
  5
107E
  8
0
 10
111.0533507540821
 20
100.1672481000423
 30
0.0
 11
110.4760006070136
 21
101.080326065421
 31
0.0
  0
LINE
  5
107F
  8
0
 10
111.0533507540821
 20
100.7606700807809
 30
0.0
 11
111.0533507540821
 21
100.1672481000423
 31
0.0
  0
LINE
  5
1080
  8
0
 10
112.9749998450278
 20
101.080326065421
 30
0.0
 11
112.3976496979593
 21
100.1672481000423
 31
0.0
  0
LINE
  5
1081
  8
0
 10
112.3976496979593
 20
100.1672481000423
 30
0.0
 11
112.3976496979593
 21
100.7606700807809
 31
0.0
  0
LINE
  5
1083
  8
0
 10
101.05735100805749
 20
129.789253398776
 30
0.0
 11
102.4016499519347
 21
129.789253398776
 31
0.0
  0
LINE
  5
1084
  8
0
 10
103.5563502460717
 20
129.789253398776
 30
0.0
 11
104.90064918994889
 21
129.789253398776
 31
0.0
  0
LINE
  5
1085
  8
0
 10
106.055351346731
 20
129.789253398776
 30
0.0
 11
107.39965029060831
 21
129.789253398776
 31
0.0
  0
LINE
  5
1086
  8
0
 10
108.55435058474529
 20
129.789253398776
 30
0.0
 11
109.8986495286225
 21
129.789253398776
 31
0.0
  0
LINE
  5
1087
  8
0
 10
111.0533507540821
 20
129.789253398776
 30
0.0
 11
112.3976496979593
 21
129.789253398776
 31
0.0
  0
LINE
  5
1088
  8
0
 10
101.05735100805749
 20
100.1672481000423
 30
0.0
 11
102.4016499519347
 21
100.1672481000423
 31
0.0
  0
LINE
  5
1089
  8
0
 10
103.5563502460717
 20
100.1672481000423
 30
0.0
 11
104.90064918994889
 21
100.1672481000423
 31
0.0
  0
LINE
  5
108A
  8
0
 10
106.055351346731
 20
100.1672481000423
 30
0.0
 11
107.39965029060831
 21
100.1672481000423
 31
0.0
  0
LINE
  5
108B
  8
0
 10
108.55435058474529
 20
100.1672481000423
 30
0.0
 11
109.8986495286225
 21
100.1672481000423
 31
0.0
  0
LINE
  5
108C
  8
0
 10
111.0533507540821
 20
100.1672481000423
 30
0.0
 11
112.3976496979593
 21
100.1672481000423
 31
0.0
  0
LINE
  5
108D
  8
0
 10
101.05735100805749
 20
129.92692336440081
 30
0.0
 11
100.47999992966641
 21
128.87617543339721
 31
0.0
  0
LINE
  5
108E
  8
0
 10
101.05735100805749
 20
129.92692336440081
 30
0.0
 11
102.4016499519347
 21
129.92692336440081
 31
0.0
  0
LINE
  5
108F
  8
0
 10
102.9790010303258
 20
128.87617543339721
 30
0.0
 11
102.4016499519347
 21
129.92692336440081
 31
0.0
  0
LINE
  5
1090
  8
0
 10
101.05735100805749
 20
129.97825041413299
 30
0.0
 11
101.05735100805749
 21
129.92692336440081
 31
0.0
  0
LINE
  5
1093
  8
0
 10
102.4016499519347
 20
129.92692336440081
 30
0.0
 11
102.4016499519347
 21
129.97825041413299
 31
0.0
  0
LINE
  5
1094
  8
0
 10
103.5563502460717
 20
129.97825041413299
 30
0.0
 11
103.5563502460717
 21
129.92692336440081
 31
0.0
  0
LINE
  5
1095
  8
0
 10
103.5563502460717
 20
129.92692336440081
 30
0.0
 11
102.9790010303258
 21
128.87617543339721
 31
0.0
  0
LINE
  5
1096
  8
0
 10
103.5563502460717
 20
129.92692336440081
 30
0.0
 11
104.90064918994889
 21
129.92692336440081
 31
0.0
  0
LINE
  5
1097
  8
0
 10
105.47800026834
 20
128.87617543339721
 30
0.0
 11
104.90064918994889
 21
129.92692336440081
 31
0.0
  0
LINE
  5
1098
  8
0
 10
106.055351346731
 20
129.92692336440081
 30
0.0
 11
105.47800026834
 21
128.87617543339721
 31
0.0
  0
LINE
  5
1099
  8
0
 10
106.055351346731
 20
129.92692336440081
 30
0.0
 11
107.39965029060831
 21
129.92692336440081
 31
0.0
  0
LINE
  5
109A
  8
0
 10
107.9769995063542
 20
128.87617543339721
 30
0.0
 11
107.39965029060831
 21
129.92692336440081
 31
0.0
  0
LINE
  5
109C
  8
0
 10
104.90064918994889
 20
129.92692336440081
 30
0.0
 11
104.90064918994889
 21
129.97825041413299
 31
0.0
  0
LINE
  5
109D
  8
0
 10
106.055351346731
 20
129.97825041413299
 30
0.0
 11
106.055351346731
 21
129.92692336440081
 31
0.0
  0
LINE
  5
109F
  8
0
 10
107.39965029060831
 20
129.92692336440081
 30
0.0
 11
107.39965029060831
 21
129.97825041413299
 31
0.0
  0
LINE
  5
10A0
  8
0
 10
108.55435058474529
 20
129.97825041413299
 30
0.0
 11
108.55435058474529
 21
129.92692336440081
 31
0.0
  0
LINE
  5
10A1
  8
0
 10
108.55435058474529
 20
129.92692336440081
 30
0.0
 11
107.9769995063542
 21
128.87617543339721
 31
0.0
  0
LINE
  5
10A2
  8
0
 10
108.55435058474529
 20
129.92692336440081
 30
0.0
 11
109.8986495286225
 21
129.92692336440081
 31
0.0
  0
LINE
  5
10A3
  8
0
 10
110.4760006070136
 20
128.87617543339721
 30
0.0
 11
109.8986495286225
 21
129.92692336440081
 31
0.0
  0
LINE
  5
10A5
  8
0
 10
109.8986495286225
 20
129.92692336440081
 30
0.0
 11
109.8986495286225
 21
129.97825041413299
 31
0.0
  0
LINE
  5
10A6
  8
0
 10
111.0533507540821
 20
129.97825041413299
 30
0.0
 11
111.0533507540821
 21
129.92692336440081
 31
0.0
  0
LINE
  5
10A7
  8
0
 10
111.0533507540821
 20
129.92692336440081
 30
0.0
 11
110.4760006070136
 21
128.87617543339721
 31
0.0
  0
LINE
  5
10A8
  8
0
 10
111.0533507540821
 20
129.92692336440081
 30
0.0
 11
112.3976496979593
 21
129.92692336440081
 31
0.0
  0
LINE
  5
10A9
  8
0
 10
112.9749998450278
 20
128.87617543339721
 30
0.0
 11
112.3976496979593
 21
129.92692336440081
 31
0.0
  0
LINE
  5
10AA
  8
0
 10
112.3976496979593
 20
129.92692336440081
 30
0.0
 11
112.3976496979593
 21
129.97825041413299
 31
0.0
  0
LINE
  5
10AC
  8
0
 10
100.47999992966641
 20
101.080326065421
 30
0.0
 11
101.05735100805749
 21
100.02957813441751
 31
0.0
  0
LINE
  5
10AD
  8
0
 10
102.4016499519347
 20
100.02957813441751
 30
0.0
 11
102.9790010303258
 21
101.080326065421
 31
0.0
  0
LINE
  5
10AE
  8
0
 10
101.05735100805749
 20
100.02957813441751
 30
0.0
 11
102.4016499519347
 21
100.02957813441751
 31
0.0
  0
LINE
  5
10AF
  8
0
 10
101.05735100805749
 20
100.02957813441751
 30
0.0
 11
101.05735100805749
 21
99.978251084685297
 31
0.0
  0
LINE
  5
10B0
  8
0
 10
100.47999992966641
 20
100.9782503172755
 30
0.0
 11
100.47999992966641
 21
128.97825118154279
 31
0.0
  0
LINE
  5
10B1
  8
0
 10
102.4016499519347
 20
99.978251084685297
 30
0.0
 11
102.4016499519347
 21
100.02957813441751
 31
0.0
  0
LINE
  5
10B2
  8
0
 10
102.9790010303258
 20
100.9782503172755
 30
0.0
 11
102.9790010303258
 21
128.97825118154279
 31
0.0
  0
LINE
  5
10B3
  8
0
 10
102.9790010303258
 20
101.080326065421
 30
0.0
 11
103.5563502460717
 21
100.02957813441751
 31
0.0
  0
LINE
  5
10B4
  8
0
 10
104.90064918994889
 20
100.02957813441751
 30
0.0
 11
105.47800026834
 21
101.080326065421
 31
0.0
  0
LINE
  5
10B5
  8
0
 10
103.5563502460717
 20
100.02957813441751
 30
0.0
 11
104.90064918994889
 21
100.02957813441751
 31
0.0
  0
LINE
  5
10B6
  8
0
 10
103.5563502460717
 20
100.02957813441751
 30
0.0
 11
103.5563502460717
 21
99.978251084685297
 31
0.0
  0
LINE
  5
10B7
  8
0
 10
104.90064918994889
 20
99.978251084685297
 30
0.0
 11
104.90064918994889
 21
100.02957813441751
 31
0.0
  0
LINE
  5
10B8
  8
0
 10
105.47800026834
 20
100.9782503172755
 30
0.0
 11
105.47800026834
 21
128.97825118154279
 31
0.0
  0
LINE
  5
10B9
  8
0
 10
105.47800026834
 20
101.080326065421
 30
0.0
 11
106.055351346731
 21
100.02957813441751
 31
0.0
  0
LINE
  5
10BA
  8
0
 10
106.055351346731
 20
100.02957813441751
 30
0.0
 11
106.055351346731
 21
99.978251084685297
 31
0.0
  0
LINE
  5
10BB
  8
0
 10
107.39965029060831
 20
100.02957813441751
 30
0.0
 11
107.9769995063542
 21
101.080326065421
 31
0.0
  0
LINE
  5
10BC
  8
0
 10
106.055351346731
 20
100.02957813441751
 30
0.0
 11
107.39965029060831
 21
100.02957813441751
 31
0.0
  0
LINE
  5
10BD
  8
0
 10
107.39965029060831
 20
99.978251084685297
 30
0.0
 11
107.39965029060831
 21
100.02957813441751
 31
0.0
  0
LINE
  5
10BE
  8
0
 10
107.9769995063542
 20
100.9782503172755
 30
0.0
 11
107.9769995063542
 21
128.97825118154279
 31
0.0
  0
LINE
  5
10BF
  8
0
 10
107.9769995063542
 20
101.080326065421
 30
0.0
 11
108.55435058474529
 21
100.02957813441751
 31
0.0
  0
LINE
  5
10C0
  8
0
 10
109.8986495286225
 20
100.02957813441751
 30
0.0
 11
110.4760006070136
 21
101.080326065421
 31
0.0
  0
LINE
  5
10C1
  8
0
 10
108.55435058474529
 20
100.02957813441751
 30
0.0
 11
109.8986495286225
 21
100.02957813441751
 31
0.0
  0
LINE
  5
10C2
  8
0
 10
108.55435058474529
 20
100.02957813441751
 30
0.0
 11
108.55435058474529
 21
99.978251084685297
 31
0.0
  0
LINE
  5
10C3
  8
0
 10
110.4760006070136
 20
101.080326065421
 30
0.0
 11
111.0533507540821
 21
100.02957813441751
 31
0.0
  0
LINE
  5
10C4
  8
0
 10
112.3976496979593
 20
100.02957813441751
 30
0.0
 11
112.9749998450278
 21
101.080326065421
 31
0.0
  0
LINE
  5
10C5
  8
0
 10
111.0533507540821
 20
100.02957813441751
 30
0.0
 11
112.3976496979593
 21
100.02957813441751
 31
0.0
  0
LINE
  5
10C6
  8
0
 10
109.8986495286225
 20
99.978251084685297
 30
0.0
 11
109.8986495286225
 21
100.02957813441751
 31
0.0
  0
LINE
  5
10C7
  8
0
 10
110.4760006070136
 20
100.9782503172755
 30
0.0
 11
110.4760006070136
 21
128.97825118154279
 31
0.0
  0
LINE
  5
10C8
  8
0
 10
111.0533507540821
 20
100.02957813441751
 30
0.0
 11
111.0533507540821
 21
99.978251084685297
 31
0.0
  0
LINE
  5
10C9
  8
0
 10
112.3976496979593
 20
99.978251084685297
 30
0.0
 11
112.3976496979593
 21
100.02957813441751
 31
0.0
  0
LINE
  5
10CA
  8
0
 10
112.9749998450278
 20
100.9782503172755
 30
0.0
 11
112.9749998450278
 21
128.97825118154279
 31
0.0
  0
LINE
  5
10CB
  8
0
 10
113.9295002445577
 20
101.9725982844829
 30
0.0
 11
117.07050018012509
 21
101.9725982844829
 31
0.0
  0
LINE
  5
10ED
  8
2
 10
123.8000002136685
 20
112.4782508052885
 30
0.0
 11
123.8000002136685
 21
117.4782506935298
 31
0.0
  0
LINE
  5
10EE
  8
2
 10
112.000000104308
 20
112.4782508052885
 30
0.0
 11
112.000000104308
 21
117.4782506935298
 31
0.0
  0
POLYLINE
  5
10EF
  8
2
 66
     1
 10
0.0
 20
0.0
 30
0.0
 70
   128
  0
VERTEX
  5
240B
  8
2
 10
113.87900020927179
 20
112.4782508052885
 30
0.0
  0
VERTEX
  5
240C
  8
2
 10
113.952069915831
 20
112.52499830909071
 30
0.0
  0
VERTEX
  5
240D
  8
2
 10
114.1560193151234
 20
112.6483058836311
 30
0.0
  0
VERTEX
  5
240E
  8
2
 10
114.4942365586756
 20
112.8255966398864
 30
0.0
  0
VERTEX
  5
240F
  8
2
 10
114.7299049422144
 20
112.9251054301857
 30
0.0
  0
VERTEX
  5
2410
  8
2
 10
115.0025570765136
 20
113.01106766797599
 30
0.0
  0
VERTEX
  5
2411
  8
2
 10
115.4291242361067
 20
113.0736818816512
 30
0.0
  0
VERTEX
  5
2412
  8
2
 10
115.86507260799389
 20
113.0403042118996
 30
0.0
  0
VERTEX
  5
2413
  8
2
 10
116.2505586631595
 20
112.932353215292
 30
0.0
  0
VERTEX
  5
2414
  8
2
 10
116.63781004026519
 20
112.7608264144509
 30
0.0
  0
VERTEX
  5
2415
  8
2
 10
116.821025405079
 20
112.6614712923765
 30
0.0
  0
VERTEX
  5
2416
  8
2
 10
116.9698609970509
 20
112.5734950695186
 30
0.0
  0
VERTEX
  5
2417
  8
2
 10
117.102714627981
 20
112.4782508052885
 30
0.0
  0
SEQEND
  5
2418
  8
2
  0
LINE
  5
10FF
  8
2
 10
115.4999997466801
 20
101.9725982844829
 30
0.0
 11
115.4999997466801
 21
103.9782508090138
 31
0.0
  0
LINE
  5
1100
  8
2
 10
116.16666652262199
 20
103.9782508090138
 30
0.0
 11
114.8333339020608
 21
103.9782508090138
 31
0.0
  0
LINE
  5
1101
  8
2
 10
114.8333339020608
 20
101.9725982844829
 30
0.0
 11
114.8333339020608
 21
103.9782508090138
 31
0.0
  0
LINE
  5
1102
  8
2
 10
116.16666652262199
 20
101.9725982844829
 30
0.0
 11
116.16666652262199
 21
103.9782508090138
 31
0.0
  0
LINE
  5
1107
  8
2
 10
124.0000002086161
 20
117.6782508194446
 30
0.0
 11
123.8000002136685
 21
117.4782506935298
 31
0.0
  0
LINE
  5
1108
  8
2
 10
123.8000002136685
 20
112.4782508052885
 30
0.0
 11
124.0000002086161
 21
112.2782506793737
 31
0.0
  0
LINE
  5
1109
  8
2
 10
112.000000104308
 20
117.4782506935298
 30
0.0
 11
110.5566242709755
 21
114.9782507494091
 31
0.0
  0
LINE
  5
110A
  8
2
 10
110.5566242709755
 20
114.9782507494091
 30
0.0
 11
112.000000104308
 21
112.4782508052885
 31
0.0
  0
LINE
  5
110B
  8
2
 10
117.102714627981
 20
112.4782508052885
 30
0.0
 11
123.8000002136685
 21
112.4782508052885
 31
0.0
  0
LINE
  5
110C
  8
2
 10
112.000000104308
 20
112.4782508052885
 30
0.0
 11
113.87900020927179
 21
112.4782508052885
 31
0.0
  0
LINE
  5
110D
  8
2
 10
123.8000002136685
 20
117.4782506935298
 30
0.0
 11
112.000000104308
 21
117.4782506935298
 31
0.0
  0
LINE
  5
1119
  8
0
 10
112.9749998450278
 20
161.5773759782314
 30
0.0
 11
113.5000003501771
 21
161.5773759782314
 31
0.0
  0
LINE
  5
111A
  8
0
 10
113.5000003501771
 20
188.35737593472001
 30
0.0
 11
112.9749998450278
 21
188.35737593472001
 31
0.0
  0
LINE
  5
111B
  8
0
 10
99.999999999999886
 20
161.5773759782314
 30
0.0
 11
100.47999992966641
 21
161.5773759782314
 31
0.0
  0
LINE
  5
111C
  8
0
 10
100.47999992966641
 20
188.35737593472001
 30
0.0
 11
99.999999999999886
 21
188.35737593472001
 31
0.0
  0
LINE
  5
111D
  8
0
 10
113.5000003501771
 20
161.9673756882548
 30
0.0
 11
123.3700001845135
 21
161.9673756882548
 31
0.0
  0
LINE
  5
111E
  8
0
 10
123.3700001845135
 20
187.96737622469661
 30
0.0
 11
113.5000003501771
 21
187.96737622469661
 31
0.0
  0
LINE
  5
111F
  8
0
 10
123.3700001845135
 20
168.96737590432161
 30
0.0
 11
123.70000019436689
 21
168.96737590432161
 31
0.0
  0
LINE
  5
1120
  8
0
 10
123.70000019436689
 20
180.96737600862971
 30
0.0
 11
123.3700001845135
 21
180.96737600862971
 31
0.0
  0
LINE
  5
1121
  8
0
 10
123.70000019436689
 20
169.467375986278
 30
0.0
 11
124.0000002086161
 21
169.467375986278
 31
0.0
  0
LINE
  5
1122
  8
0
 10
124.0000002086161
 20
180.4673759266733
 30
0.0
 11
123.70000019436689
 21
180.4673759266733
 31
0.0
  0
LINE
  5
1123
  8
0
 10
107.9769995063542
 20
176.654889504425
 30
0.0
 11
108.55435058474529
 21
176.20720739942021
 31
0.0
  0
LINE
  5
1124
  8
0
 10
108.55435058474529
 20
176.20720739942021
 30
0.0
 11
108.55435058474529
 21
173.7275445135308
 31
0.0
  0
LINE
  5
1125
  8
0
 10
108.55435058474529
 20
173.7275445135308
 30
0.0
 11
107.9769995063542
 21
173.27986240852599
 31
0.0
  0
LINE
  5
1127
  8
0
 10
104.90064918994889
 20
176.20720739942021
 30
0.0
 11
105.47800026834
 21
176.654889504425
 31
0.0
  0
LINE
  5
1129
  8
0
 10
105.47800026834
 20
173.27986240852599
 30
0.0
 11
104.90064918994889
 21
173.7275445135308
 31
0.0
  0
LINE
  5
112A
  8
0
 10
104.90064918994889
 20
173.7275445135308
 30
0.0
 11
104.90064918994889
 21
176.20720739942021
 31
0.0
  0
LINE
  5
112B
  8
0
 10
102.4016499519347
 20
176.20720739942021
 30
0.0
 11
102.9790010303258
 21
176.654889504425
 31
0.0
  0
LINE
  5
112D
  8
0
 10
102.9790010303258
 20
173.27986240852599
 30
0.0
 11
102.4016499519347
 21
173.7275445135308
 31
0.0
  0
LINE
  5
112E
  8
0
 10
102.4016499519347
 20
173.7275445135308
 30
0.0
 11
102.4016499519347
 21
176.20720739942021
 31
0.0
  0
LINE
  5
112F
  8
0
 10
112.3976496979593
 20
176.20720739942021
 30
0.0
 11
112.9749998450278
 21
176.654889504425
 31
0.0
  0
LINE
  5
1131
  8
0
 10
112.9749998450278
 20
173.27986240852599
 30
0.0
 11
112.3976496979593
 21
173.7275445135308
 31
0.0
  0
LINE
  5
1132
  8
0
 10
112.3976496979593
 20
173.7275445135308
 30
0.0
 11
112.3976496979593
 21
176.20720739942021
 31
0.0
  0
LINE
  5
1133
  8
0
 10
102.9790010303258
 20
176.654889504425
 30
0.0
 11
103.5563502460717
 21
176.20720739942021
 31
0.0
  0
LINE
  5
1134
  8
0
 10
103.5563502460717
 20
176.20720739942021
 30
0.0
 11
103.5563502460717
 21
173.7275445135308
 31
0.0
  0
LINE
  5
1135
  8
0
 10
103.5563502460717
 20
173.7275445135308
 30
0.0
 11
102.9790010303258
 21
173.27986240852599
 31
0.0
  0
LINE
  5
1136
  8
0
 10
110.4760006070136
 20
176.654889504425
 30
0.0
 11
111.0533507540821
 21
176.20720739942021
 31
0.0
  0
LINE
  5
1137
  8
0
 10
111.0533507540821
 20
176.20720739942021
 30
0.0
 11
111.0533507540821
 21
173.7275445135308
 31
0.0
  0
LINE
  5
1138
  8
0
 10
111.0533507540821
 20
173.7275445135308
 30
0.0
 11
110.4760006070136
 21
173.27986240852599
 31
0.0
  0
LINE
  5
113A
  8
0
 10
109.8986495286225
 20
176.20720739942021
 30
0.0
 11
110.4760006070136
 21
176.654889504425
 31
0.0
  0
LINE
  5
113B
  8
0
 10
110.4760006070136
 20
173.27986240852599
 30
0.0
 11
109.8986495286225
 21
173.7275445135308
 31
0.0
  0
LINE
  5
113C
  8
0
 10
109.8986495286225
 20
173.7275445135308
 30
0.0
 11
109.8986495286225
 21
176.20720739942021
 31
0.0
  0
LINE
  5
113D
  8
0
 10
107.39965029060831
 20
176.20720739942021
 30
0.0
 11
107.9769995063542
 21
176.654889504425
 31
0.0
  0
LINE
  5
113E
  8
0
 10
107.9769995063542
 20
173.27986240852599
 30
0.0
 11
107.39965029060831
 21
173.7275445135308
 31
0.0
  0
LINE
  5
113F
  8
0
 10
107.39965029060831
 20
173.7275445135308
 30
0.0
 11
107.39965029060831
 21
176.20720739942021
 31
0.0
  0
LINE
  5
1140
  8
0
 10
100.47999992966641
 20
176.654889504425
 30
0.0
 11
101.05735100805749
 21
176.20720739942021
 31
0.0
  0
LINE
  5
1141
  8
0
 10
101.05735100805749
 20
176.20720739942021
 30
0.0
 11
101.05735100805749
 21
173.7275445135308
 31
0.0
  0
LINE
  5
1142
  8
0
 10
101.05735100805749
 20
173.7275445135308
 30
0.0
 11
100.47999992966641
 21
173.27986240852599
 31
0.0
  0
LINE
  5
1144
  8
0
 10
105.47800026834
 20
176.654889504425
 30
0.0
 11
106.055351346731
 21
176.20720739942021
 31
0.0
  0
LINE
  5
1145
  8
0
 10
106.055351346731
 20
176.20720739942021
 30
0.0
 11
106.055351346731
 21
173.7275445135308
 31
0.0
  0
LINE
  5
1146
  8
0
 10
106.055351346731
 20
173.7275445135308
 30
0.0
 11
105.47800026834
 21
173.27986240852599
 31
0.0
  0
LINE
  5
1147
  8
0
 10
106.055351346731
 20
176.20720739942021
 30
0.0
 11
107.39965029060831
 21
176.20720739942021
 31
0.0
  0
LINE
  5
1148
  8
0
 10
106.055351346731
 20
173.7275445135308
 30
0.0
 11
107.39965029060831
 21
173.7275445135308
 31
0.0
  0
LINE
  5
1149
  8
0
 10
103.5563502460717
 20
176.20720739942021
 30
0.0
 11
104.90064918994889
 21
176.20720739942021
 31
0.0
  0
LINE
  5
114A
  8
0
 10
103.5563502460717
 20
173.7275445135308
 30
0.0
 11
104.90064918994889
 21
173.7275445135308
 31
0.0
  0
LINE
  5
114B
  8
0
 10
111.0533507540821
 20
176.20720739942021
 30
0.0
 11
112.3976496979593
 21
176.20720739942021
 31
0.0
  0
LINE
  5
114C
  8
0
 10
111.0533507540821
 20
173.7275445135308
 30
0.0
 11
112.3976496979593
 21
173.7275445135308
 31
0.0
  0
LINE
  5
114D
  8
0
 10
108.55435058474529
 20
176.20720739942021
 30
0.0
 11
109.8986495286225
 21
176.20720739942021
 31
0.0
  0
LINE
  5
114E
  8
0
 10
108.55435058474529
 20
173.7275445135308
 30
0.0
 11
109.8986495286225
 21
173.7275445135308
 31
0.0
  0
LINE
  5
114F
  8
0
 10
101.05735100805749
 20
176.20720739942021
 30
0.0
 11
102.4016499519347
 21
176.20720739942021
 31
0.0
  0
LINE
  5
1150
  8
0
 10
101.05735100805749
 20
173.7275445135308
 30
0.0
 11
102.4016499519347
 21
173.7275445135308
 31
0.0
  0
LINE
  5
1153
  8
0
 10
100.47999992966641
 20
176.654889504425
 30
0.0
 11
112.9749998450278
 21
176.654889504425
 31
0.0
  0
LINE
  5
1158
  8
0
 10
100.47999992966641
 20
173.27986240852599
 30
0.0
 11
112.9749998450278
 21
173.27986240852599
 31
0.0
  0
LINE
  5
115B
  8
0
 10
102.9790010303258
 20
179.93184449151141
 30
0.0
 11
103.5563502460717
 21
179.74863145500399
 31
0.0
  0
LINE
  5
115C
  8
0
 10
103.5563502460717
 20
179.74863145500399
 30
0.0
 11
103.5563502460717
 21
177.3410233668981
 31
0.0
  0
LINE
  5
115D
  8
0
 10
103.5563502460717
 20
177.3410233668981
 30
0.0
 11
102.9790010303258
 21
176.654889504425
 31
0.0
  0
LINE
  5
115F
  8
0
 10
104.90064918994889
 20
179.74863145500399
 30
0.0
 11
105.47800026834
 21
179.93184449151141
 31
0.0
  0
LINE
  5
1161
  8
0
 10
105.47800026834
 20
176.654889504425
 30
0.0
 11
104.90064918994889
 21
177.3410233668981
 31
0.0
  0
LINE
  5
1162
  8
0
 10
104.90064918994889
 20
177.3410233668981
 30
0.0
 11
104.90064918994889
 21
179.74863145500399
 31
0.0
  0
LINE
  5
1163
  8
0
 10
107.39965029060831
 20
179.74863145500399
 30
0.0
 11
107.9769995063542
 21
179.93184449151141
 31
0.0
  0
LINE
  5
1165
  8
0
 10
107.9769995063542
 20
176.654889504425
 30
0.0
 11
107.39965029060831
 21
177.3410233668981
 31
0.0
  0
LINE
  5
1166
  8
0
 10
107.39965029060831
 20
177.3410233668981
 30
0.0
 11
107.39965029060831
 21
179.74863145500399
 31
0.0
  0
LINE
  5
1167
  8
0
 10
109.8986495286225
 20
179.74863145500399
 30
0.0
 11
110.4760006070136
 21
179.93184449151141
 31
0.0
  0
LINE
  5
1169
  8
0
 10
110.4760006070136
 20
176.654889504425
 30
0.0
 11
109.8986495286225
 21
177.3410233668981
 31
0.0
  0
LINE
  5
116A
  8
0
 10
109.8986495286225
 20
177.3410233668981
 30
0.0
 11
109.8986495286225
 21
179.74863145500399
 31
0.0
  0
LINE
  5
116B
  8
0
 10
112.3976496979593
 20
179.74863145500399
 30
0.0
 11
112.9749998450278
 21
179.93184449151141
 31
0.0
  0
LINE
  5
116D
  8
0
 10
112.9749998450278
 20
176.654889504425
 30
0.0
 11
112.3976496979593
 21
177.3410233668981
 31
0.0
  0
LINE
  5
116E
  8
0
 10
112.3976496979593
 20
177.3410233668981
 30
0.0
 11
112.3976496979593
 21
179.74863145500399
 31
0.0
  0
LINE
  5
116F
  8
0
 10
102.4016499519347
 20
179.74863145500399
 30
0.0
 11
102.9790010303258
 21
179.93184449151141
 31
0.0
  0
LINE
  5
1170
  8
0
 10
102.9790010303258
 20
176.654889504425
 30
0.0
 11
102.4016499519347
 21
177.3410233668981
 31
0.0
  0
LINE
  5
1171
  8
0
 10
102.4016499519347
 20
177.3410233668981
 30
0.0
 11
102.4016499519347
 21
179.74863145500399
 31
0.0
  0
LINE
  5
1172
  8
0
 10
110.4760006070136
 20
179.93184449151141
 30
0.0
 11
111.0533507540821
 21
179.74863145500399
 31
0.0
  0
LINE
  5
1173
  8
0
 10
111.0533507540821
 20
179.74863145500399
 30
0.0
 11
111.0533507540821
 21
177.3410233668981
 31
0.0
  0
LINE
  5
1174
  8
0
 10
111.0533507540821
 20
177.3410233668981
 30
0.0
 11
110.4760006070136
 21
176.654889504425
 31
0.0
  0
LINE
  5
1175
  8
0
 10
107.9769995063542
 20
179.93184449151141
 30
0.0
 11
108.55435058474529
 21
179.74863145500399
 31
0.0
  0
LINE
  5
1176
  8
0
 10
108.55435058474529
 20
179.74863145500399
 30
0.0
 11
108.55435058474529
 21
177.3410233668981
 31
0.0
  0
LINE
  5
1177
  8
0
 10
108.55435058474529
 20
177.3410233668981
 30
0.0
 11
107.9769995063542
 21
176.654889504425
 31
0.0
  0
LINE
  5
1178
  8
0
 10
100.47999992966641
 20
179.93184449151141
 30
0.0
 11
101.05735100805749
 21
179.74863145500399
 31
0.0
  0
LINE
  5
1179
  8
0
 10
101.05735100805749
 20
179.74863145500399
 30
0.0
 11
101.05735100805749
 21
177.3410233668981
 31
0.0
  0
LINE
  5
117A
  8
0
 10
101.05735100805749
 20
177.3410233668981
 30
0.0
 11
100.47999992966641
 21
176.654889504425
 31
0.0
  0
LINE
  5
117C
  8
0
 10
105.47800026834
 20
179.93184449151141
 30
0.0
 11
106.055351346731
 21
179.74863145500399
 31
0.0
  0
LINE
  5
117D
  8
0
 10
106.055351346731
 20
179.74863145500399
 30
0.0
 11
106.055351346731
 21
177.3410233668981
 31
0.0
  0
LINE
  5
117E
  8
0
 10
106.055351346731
 20
177.3410233668981
 30
0.0
 11
105.47800026834
 21
176.654889504425
 31
0.0
  0
LINE
  5
117F
  8
0
 10
108.55435058474529
 20
179.74863145500399
 30
0.0
 11
109.8986495286225
 21
179.74863145500399
 31
0.0
  0
LINE
  5
1180
  8
0
 10
108.55435058474529
 20
177.3410233668981
 30
0.0
 11
109.8986495286225
 21
177.3410233668981
 31
0.0
  0
LINE
  5
1181
  8
0
 10
103.5563502460717
 20
179.74863145500399
 30
0.0
 11
104.90064918994889
 21
179.74863145500399
 31
0.0
  0
LINE
  5
1182
  8
0
 10
103.5563502460717
 20
177.3410233668981
 30
0.0
 11
104.90064918994889
 21
177.3410233668981
 31
0.0
  0
LINE
  5
1183
  8
0
 10
111.0533507540821
 20
179.74863145500399
 30
0.0
 11
112.3976496979593
 21
179.74863145500399
 31
0.0
  0
LINE
  5
1184
  8
0
 10
111.0533507540821
 20
177.3410233668981
 30
0.0
 11
112.3976496979593
 21
177.3410233668981
 31
0.0
  0
LINE
  5
1185
  8
0
 10
106.055351346731
 20
179.74863145500399
 30
0.0
 11
107.39965029060831
 21
179.74863145500399
 31
0.0
  0
LINE
  5
1186
  8
0
 10
106.055351346731
 20
177.3410233668981
 30
0.0
 11
107.39965029060831
 21
177.3410233668981
 31
0.0
  0
LINE
  5
1187
  8
0
 10
101.05735100805749
 20
179.74863145500399
 30
0.0
 11
102.4016499519347
 21
179.74863145500399
 31
0.0
  0
LINE
  5
1188
  8
0
 10
101.05735100805749
 20
177.3410233668981
 30
0.0
 11
102.4016499519347
 21
177.3410233668981
 31
0.0
  0
LINE
  5
1189
  8
0
 10
105.47800026834
 20
173.27986240852599
 30
0.0
 11
106.055351346731
 21
172.59372854605289
 31
0.0
  0
LINE
  5
118A
  8
0
 10
107.39965029060831
 20
172.59372854605289
 30
0.0
 11
107.9769995063542
 21
173.27986240852599
 31
0.0
  0
LINE
  5
118B
  8
0
 10
106.055351346731
 20
172.59372854605289
 30
0.0
 11
107.39965029060831
 21
172.59372854605289
 31
0.0
  0
LINE
  5
118D
  8
0
 10
107.9769995063542
 20
170.00290742143969
 30
0.0
 11
107.39965029060831
 21
170.186120457947
 31
0.0
  0
LINE
  5
118E
  8
0
 10
107.39965029060831
 20
170.186120457947
 30
0.0
 11
107.39965029060831
 21
172.59372854605289
 31
0.0
  0
LINE
  5
118F
  8
0
 10
110.4760006070136
 20
173.27986240852599
 30
0.0
 11
111.0533507540821
 21
172.59372854605289
 31
0.0
  0
LINE
  5
1190
  8
0
 10
111.0533507540821
 20
172.59372854605289
 30
0.0
 11
111.0533507540821
 21
170.186120457947
 31
0.0
  0
LINE
  5
1191
  8
0
 10
111.0533507540821
 20
170.186120457947
 30
0.0
 11
110.4760006070136
 21
170.00290742143969
 31
0.0
  0
LINE
  5
1193
  8
0
 10
102.4016499519347
 20
172.59372854605289
 30
0.0
 11
102.9790010303258
 21
173.27986240852599
 31
0.0
  0
LINE
  5
1195
  8
0
 10
102.9790010303258
 20
170.00290742143969
 30
0.0
 11
102.4016499519347
 21
170.186120457947
 31
0.0
  0
LINE
  5
1196
  8
0
 10
102.4016499519347
 20
170.186120457947
 30
0.0
 11
102.4016499519347
 21
172.59372854605289
 31
0.0
  0
LINE
  5
1197
  8
0
 10
109.8986495286225
 20
172.59372854605289
 30
0.0
 11
110.4760006070136
 21
173.27986240852599
 31
0.0
  0
LINE
  5
1198
  8
0
 10
110.4760006070136
 20
170.00290742143969
 30
0.0
 11
109.8986495286225
 21
170.186120457947
 31
0.0
  0
LINE
  5
1199
  8
0
 10
109.8986495286225
 20
170.186120457947
 30
0.0
 11
109.8986495286225
 21
172.59372854605289
 31
0.0
  0
LINE
  5
119A
  8
0
 10
102.9790010303258
 20
173.27986240852599
 30
0.0
 11
103.5563502460717
 21
172.59372854605289
 31
0.0
  0
LINE
  5
119B
  8
0
 10
103.5563502460717
 20
172.59372854605289
 30
0.0
 11
103.5563502460717
 21
170.186120457947
 31
0.0
  0
LINE
  5
119C
  8
0
 10
103.5563502460717
 20
170.186120457947
 30
0.0
 11
102.9790010303258
 21
170.00290742143969
 31
0.0
  0
LINE
  5
119D
  8
0
 10
104.90064918994889
 20
172.59372854605289
 30
0.0
 11
105.47800026834
 21
173.27986240852599
 31
0.0
  0
LINE
  5
119F
  8
0
 10
105.47800026834
 20
170.00290742143969
 30
0.0
 11
104.90064918994889
 21
170.186120457947
 31
0.0
  0
LINE
  5
11A0
  8
0
 10
104.90064918994889
 20
170.186120457947
 30
0.0
 11
104.90064918994889
 21
172.59372854605289
 31
0.0
  0
LINE
  5
11A1
  8
0
 10
100.47999992966641
 20
173.27986240852599
 30
0.0
 11
101.05735100805749
 21
172.59372854605289
 31
0.0
  0
LINE
  5
11A2
  8
0
 10
101.05735100805749
 20
172.59372854605289
 30
0.0
 11
102.4016499519347
 21
172.59372854605289
 31
0.0
  0
LINE
  5
11A3
  8
0
 10
112.3976496979593
 20
172.59372854605289
 30
0.0
 11
112.9749998450278
 21
173.27986240852599
 31
0.0
  0
LINE
  5
11A4
  8
0
 10
111.0533507540821
 20
172.59372854605289
 30
0.0
 11
112.3976496979593
 21
172.59372854605289
 31
0.0
  0
LINE
  5
11A5
  8
0
 10
107.9769995063542
 20
173.27986240852599
 30
0.0
 11
108.55435058474529
 21
172.59372854605289
 31
0.0
  0
LINE
  5
11A6
  8
0
 10
108.55435058474529
 20
172.59372854605289
 30
0.0
 11
109.8986495286225
 21
172.59372854605289
 31
0.0
  0
LINE
  5
11A7
  8
0
 10
108.55435058474529
 20
172.59372854605289
 30
0.0
 11
108.55435058474529
 21
170.186120457947
 31
0.0
  0
LINE
  5
11A8
  8
0
 10
108.55435058474529
 20
170.186120457947
 30
0.0
 11
107.9769995063542
 21
170.00290742143969
 31
0.0
  0
LINE
  5
11AA
  8
0
 10
112.9749998450278
 20
170.00290742143969
 30
0.0
 11
112.3976496979593
 21
170.186120457947
 31
0.0
  0
LINE
  5
11AB
  8
0
 10
112.3976496979593
 20
170.186120457947
 30
0.0
 11
112.3976496979593
 21
172.59372854605289
 31
0.0
  0
LINE
  5
11AC
  8
0
 10
106.055351346731
 20
172.59372854605289
 30
0.0
 11
106.055351346731
 21
170.186120457947
 31
0.0
  0
LINE
  5
11AD
  8
0
 10
106.055351346731
 20
170.186120457947
 30
0.0
 11
105.47800026834
 21
170.00290742143969
 31
0.0
  0
LINE
  5
11AE
  8
0
 10
103.5563502460717
 20
172.59372854605289
 30
0.0
 11
104.90064918994889
 21
172.59372854605289
 31
0.0
  0
LINE
  5
11AF
  8
0
 10
101.05735100805749
 20
172.59372854605289
 30
0.0
 11
101.05735100805749
 21
170.186120457947
 31
0.0
  0
LINE
  5
11B0
  8
0
 10
101.05735100805749
 20
170.186120457947
 30
0.0
 11
100.47999992966641
 21
170.00290742143969
 31
0.0
  0
LINE
  5
11B2
  8
0
 10
103.5563502460717
 20
170.186120457947
 30
0.0
 11
104.90064918994889
 21
170.186120457947
 31
0.0
  0
LINE
  5
11B3
  8
0
 10
106.055351346731
 20
170.186120457947
 30
0.0
 11
107.39965029060831
 21
170.186120457947
 31
0.0
  0
LINE
  5
11B4
  8
0
 10
101.05735100805749
 20
170.186120457947
 30
0.0
 11
102.4016499519347
 21
170.186120457947
 31
0.0
  0
LINE
  5
11B5
  8
0
 10
111.0533507540821
 20
170.186120457947
 30
0.0
 11
112.3976496979593
 21
170.186120457947
 31
0.0
  0
LINE
  5
11B6
  8
0
 10
108.55435058474529
 20
170.186120457947
 30
0.0
 11
109.8986495286225
 21
170.186120457947
 31
0.0
  0
LINE
  5
11B8
  8
0
 10
100.47999992966641
 20
179.93184449151141
 30
0.0
 11
112.9749998450278
 21
179.93184449151141
 31
0.0
  0
LINE
  5
11BD
  8
0
 10
100.47999992966641
 20
170.00290742143969
 30
0.0
 11
112.9749998450278
 21
170.00290742143969
 31
0.0
  0
LINE
  5
11C1
  8
0
 10
104.90064918994889
 20
183.0121869221328
 30
0.0
 11
105.47800026834
 21
182.92028214782459
 31
0.0
  0
LINE
  5
11C3
  8
0
 10
105.47800026834
 20
179.93184449151141
 30
0.0
 11
104.90064918994889
 21
180.8165543712673
 31
0.0
  0
LINE
  5
11C4
  8
0
 10
104.90064918994889
 20
180.8165543712673
 30
0.0
 11
104.90064918994889
 21
183.0121869221328
 31
0.0
  0
LINE
  5
11C5
  8
0
 10
103.5563502460717
 20
183.0121869221328
 30
0.0
 11
103.5563502460717
 21
180.8165543712673
 31
0.0
  0
LINE
  5
11C6
  8
0
 10
103.5563502460717
 20
183.0121869221328
 30
0.0
 11
104.90064918994889
 21
183.0121869221328
 31
0.0
  0
LINE
  5
11C7
  8
0
 10
103.5563502460717
 20
180.8165543712673
 30
0.0
 11
104.90064918994889
 21
180.8165543712673
 31
0.0
  0
LINE
  5
11C8
  8
0
 10
110.4760006070136
 20
182.92028214782459
 30
0.0
 11
111.0533507540821
 21
183.0121869221328
 31
0.0
  0
LINE
  5
11C9
  8
0
 10
111.0533507540821
 20
183.0121869221328
 30
0.0
 11
111.0533507540821
 21
180.8165543712673
 31
0.0
  0
LINE
  5
11CA
  8
0
 10
111.0533507540821
 20
180.8165543712673
 30
0.0
 11
110.4760006070136
 21
179.93184449151141
 31
0.0
  0
LINE
  5
11CC
  8
0
 10
106.055351346731
 20
183.0121869221328
 30
0.0
 11
106.055351346731
 21
180.8165543712673
 31
0.0
  0
LINE
  5
11CD
  8
0
 10
106.055351346731
 20
183.0121869221328
 30
0.0
 11
107.39965029060831
 21
183.0121869221328
 31
0.0
  0
LINE
  5
11CE
  8
0
 10
107.39965029060831
 20
180.8165543712673
 30
0.0
 11
107.39965029060831
 21
183.0121869221328
 31
0.0
  0
LINE
  5
11CF
  8
0
 10
106.055351346731
 20
180.8165543712673
 30
0.0
 11
107.39965029060831
 21
180.8165543712673
 31
0.0
  0
LINE
  5
11D0
  8
0
 10
107.39965029060831
 20
183.0121869221328
 30
0.0
 11
107.9769995063542
 21
182.92028214782459
 31
0.0
  0
LINE
  5
11D2
  8
0
 10
107.9769995063542
 20
179.93184449151141
 30
0.0
 11
107.39965029060831
 21
180.8165543712673
 31
0.0
  0
LINE
  5
11D3
  8
0
 10
107.9769995063542
 20
182.92028214782459
 30
0.0
 11
108.55435058474529
 21
183.0121869221328
 31
0.0
  0
LINE
  5
11D4
  8
0
 10
108.55435058474529
 20
183.0121869221328
 30
0.0
 11
108.55435058474529
 21
180.8165543712673
 31
0.0
  0
LINE
  5
11D5
  8
0
 10
108.55435058474529
 20
180.8165543712673
 30
0.0
 11
107.9769995063542
 21
179.93184449151141
 31
0.0
  0
LINE
  5
11D6
  8
0
 10
102.4016499519347
 20
183.0121869221328
 30
0.0
 11
102.9790010303258
 21
182.92028214782459
 31
0.0
  0
LINE
  5
11D8
  8
0
 10
102.9790010303258
 20
179.93184449151141
 30
0.0
 11
102.4016499519347
 21
180.8165543712673
 31
0.0
  0
LINE
  5
11D9
  8
0
 10
102.4016499519347
 20
180.8165543712673
 30
0.0
 11
102.4016499519347
 21
183.0121869221328
 31
0.0
  0
LINE
  5
11DA
  8
0
 10
109.8986495286225
 20
183.0121869221328
 30
0.0
 11
110.4760006070136
 21
182.92028214782459
 31
0.0
  0
LINE
  5
11DB
  8
0
 10
110.4760006070136
 20
179.93184449151141
 30
0.0
 11
109.8986495286225
 21
180.8165543712673
 31
0.0
  0
LINE
  5
11DC
  8
0
 10
109.8986495286225
 20
180.8165543712673
 30
0.0
 11
109.8986495286225
 21
183.0121869221328
 31
0.0
  0
LINE
  5
11DD
  8
0
 10
101.05735100805749
 20
183.0121869221328
 30
0.0
 11
101.05735100805749
 21
180.8165543712673
 31
0.0
  0
LINE
  5
11DE
  8
0
 10
101.05735100805749
 20
183.0121869221328
 30
0.0
 11
102.4016499519347
 21
183.0121869221328
 31
0.0
  0
LINE
  5
11DF
  8
0
 10
101.05735100805749
 20
180.8165543712673
 30
0.0
 11
102.4016499519347
 21
180.8165543712673
 31
0.0
  0
LINE
  5
11E0
  8
0
 10
111.0533507540821
 20
183.0121869221328
 30
0.0
 11
112.3976496979593
 21
183.0121869221328
 31
0.0
  0
LINE
  5
11E1
  8
0
 10
112.3976496979593
 20
180.8165543712673
 30
0.0
 11
112.3976496979593
 21
183.0121869221328
 31
0.0
  0
LINE
  5
11E2
  8
0
 10
111.0533507540821
 20
180.8165543712673
 30
0.0
 11
112.3976496979593
 21
180.8165543712673
 31
0.0
  0
LINE
  5
11E3
  8
0
 10
105.47800026834
 20
182.92028214782459
 30
0.0
 11
106.055351346731
 21
183.0121869221328
 31
0.0
  0
LINE
  5
11E4
  8
0
 10
106.055351346731
 20
180.8165543712673
 30
0.0
 11
105.47800026834
 21
179.93184449151141
 31
0.0
  0
LINE
  5
11E5
  8
0
 10
102.9790010303258
 20
182.92028214782459
 30
0.0
 11
103.5563502460717
 21
183.0121869221328
 31
0.0
  0
LINE
  5
11E6
  8
0
 10
103.5563502460717
 20
180.8165543712673
 30
0.0
 11
102.9790010303258
 21
179.93184449151141
 31
0.0
  0
LINE
  5
11E7
  8
0
 10
100.47999992966641
 20
182.92028214782459
 30
0.0
 11
101.05735100805749
 21
183.0121869221328
 31
0.0
  0
LINE
  5
11E8
  8
0
 10
101.05735100805749
 20
180.8165543712673
 30
0.0
 11
100.47999992966641
 21
179.93184449151141
 31
0.0
  0
LINE
  5
11EA
  8
0
 10
108.55435058474529
 20
183.0121869221328
 30
0.0
 11
109.8986495286225
 21
183.0121869221328
 31
0.0
  0
LINE
  5
11EB
  8
0
 10
108.55435058474529
 20
180.8165543712673
 30
0.0
 11
109.8986495286225
 21
180.8165543712673
 31
0.0
  0
LINE
  5
11EC
  8
0
 10
112.3976496979593
 20
183.0121869221328
 30
0.0
 11
112.9749998450278
 21
182.92028214782459
 31
0.0
  0
LINE
  5
11ED
  8
0
 10
112.9749998450278
 20
179.93184449151141
 30
0.0
 11
112.3976496979593
 21
180.8165543712673
 31
0.0
  0
LINE
  5
11EF
  8
0
 10
102.9790010303258
 20
170.00290742143969
 30
0.0
 11
103.5563502460717
 21
169.11819754168371
 31
0.0
  0
LINE
  5
11F0
  8
0
 10
104.90064918994889
 20
169.11819754168371
 30
0.0
 11
105.47800026834
 21
170.00290742143969
 31
0.0
  0
LINE
  5
11F1
  8
0
 10
103.5563502460717
 20
169.11819754168371
 30
0.0
 11
104.90064918994889
 21
169.11819754168371
 31
0.0
  0
LINE
  5
11F2
  8
0
 10
102.4016499519347
 20
169.11819754168371
 30
0.0
 11
102.9790010303258
 21
170.00290742143969
 31
0.0
  0
LINE
  5
11F4
  8
0
 10
102.9790010303258
 20
167.01446976512651
 30
0.0
 11
102.4016499519347
 21
166.9225649908183
 31
0.0
  0
LINE
  5
11F5
  8
0
 10
102.4016499519347
 20
166.9225649908183
 30
0.0
 11
102.4016499519347
 21
169.11819754168371
 31
0.0
  0
LINE
  5
11F6
  8
0
 10
105.47800026834
 20
170.00290742143969
 30
0.0
 11
106.055351346731
 21
169.11819754168371
 31
0.0
  0
LINE
  5
11F7
  8
0
 10
107.39965029060831
 20
169.11819754168371
 30
0.0
 11
107.9769995063542
 21
170.00290742143969
 31
0.0
  0
LINE
  5
11F8
  8
0
 10
106.055351346731
 20
169.11819754168371
 30
0.0
 11
107.39965029060831
 21
169.11819754168371
 31
0.0
  0
LINE
  5
11F9
  8
0
 10
109.8986495286225
 20
169.11819754168371
 30
0.0
 11
110.4760006070136
 21
170.00290742143969
 31
0.0
  0
LINE
  5
11FB
  8
0
 10
110.4760006070136
 20
167.01446976512651
 30
0.0
 11
109.8986495286225
 21
166.9225649908183
 31
0.0
  0
LINE
  5
11FC
  8
0
 10
109.8986495286225
 20
166.9225649908183
 30
0.0
 11
109.8986495286225
 21
169.11819754168371
 31
0.0
  0
LINE
  5
11FD
  8
0
 10
100.47999992966641
 20
170.00290742143969
 30
0.0
 11
101.05735100805749
 21
169.11819754168371
 31
0.0
  0
LINE
  5
11FE
  8
0
 10
101.05735100805749
 20
169.11819754168371
 30
0.0
 11
101.05735100805749
 21
166.9225649908183
 31
0.0
  0
LINE
  5
11FF
  8
0
 10
101.05735100805749
 20
166.9225649908183
 30
0.0
 11
100.47999992966641
 21
167.01446976512651
 31
0.0
  0
LINE
  5
1201
  8
0
 10
103.5563502460717
 20
169.11819754168371
 30
0.0
 11
103.5563502460717
 21
166.9225649908183
 31
0.0
  0
LINE
  5
1202
  8
0
 10
103.5563502460717
 20
166.9225649908183
 30
0.0
 11
102.9790010303258
 21
167.01446976512651
 31
0.0
  0
LINE
  5
1204
  8
0
 10
107.9769995063542
 20
167.01446976512651
 30
0.0
 11
107.39965029060831
 21
166.9225649908183
 31
0.0
  0
LINE
  5
1205
  8
0
 10
107.39965029060831
 20
166.9225649908183
 30
0.0
 11
107.39965029060831
 21
169.11819754168371
 31
0.0
  0
LINE
  5
1207
  8
0
 10
105.47800026834
 20
167.01446976512651
 30
0.0
 11
104.90064918994889
 21
166.9225649908183
 31
0.0
  0
LINE
  5
1208
  8
0
 10
104.90064918994889
 20
166.9225649908183
 30
0.0
 11
104.90064918994889
 21
169.11819754168371
 31
0.0
  0
LINE
  5
1209
  8
0
 10
112.3976496979593
 20
169.11819754168371
 30
0.0
 11
112.9749998450278
 21
170.00290742143969
 31
0.0
  0
LINE
  5
120A
  8
0
 10
112.9749998450278
 20
167.01446976512651
 30
0.0
 11
112.3976496979593
 21
166.9225649908183
 31
0.0
  0
LINE
  5
120B
  8
0
 10
112.3976496979593
 20
166.9225649908183
 30
0.0
 11
112.3976496979593
 21
169.11819754168371
 31
0.0
  0
LINE
  5
120D
  8
0
 10
107.9769995063542
 20
170.00290742143969
 30
0.0
 11
108.55435058474529
 21
169.11819754168371
 31
0.0
  0
LINE
  5
120E
  8
0
 10
108.55435058474529
 20
169.11819754168371
 30
0.0
 11
108.55435058474529
 21
166.9225649908183
 31
0.0
  0
LINE
  5
120F
  8
0
 10
108.55435058474529
 20
166.9225649908183
 30
0.0
 11
107.9769995063542
 21
167.01446976512651
 31
0.0
  0
LINE
  5
1210
  8
0
 10
106.055351346731
 20
169.11819754168371
 30
0.0
 11
106.055351346731
 21
166.9225649908183
 31
0.0
  0
LINE
  5
1211
  8
0
 10
106.055351346731
 20
166.9225649908183
 30
0.0
 11
105.47800026834
 21
167.01446976512651
 31
0.0
  0
LINE
  5
1212
  8
0
 10
101.05735100805749
 20
169.11819754168371
 30
0.0
 11
102.4016499519347
 21
169.11819754168371
 31
0.0
  0
LINE
  5
1213
  8
0
 10
110.4760006070136
 20
170.00290742143969
 30
0.0
 11
111.0533507540821
 21
169.11819754168371
 31
0.0
  0
LINE
  5
1214
  8
0
 10
111.0533507540821
 20
169.11819754168371
 30
0.0
 11
111.0533507540821
 21
166.9225649908183
 31
0.0
  0
LINE
  5
1215
  8
0
 10
111.0533507540821
 20
166.9225649908183
 30
0.0
 11
110.4760006070136
 21
167.01446976512651
 31
0.0
  0
LINE
  5
1216
  8
0
 10
108.55435058474529
 20
169.11819754168371
 30
0.0
 11
109.8986495286225
 21
169.11819754168371
 31
0.0
  0
LINE
  5
1217
  8
0
 10
111.0533507540821
 20
169.11819754168371
 30
0.0
 11
112.3976496979593
 21
169.11819754168371
 31
0.0
  0
LINE
  5
1218
  8
0
 10
106.055351346731
 20
166.9225649908183
 30
0.0
 11
107.39965029060831
 21
166.9225649908183
 31
0.0
  0
LINE
  5
1219
  8
0
 10
101.05735100805749
 20
166.9225649908183
 30
0.0
 11
102.4016499519347
 21
166.9225649908183
 31
0.0
  0
LINE
  5
121A
  8
0
 10
108.55435058474529
 20
166.9225649908183
 30
0.0
 11
109.8986495286225
 21
166.9225649908183
 31
0.0
  0
LINE
  5
121B
  8
0
 10
103.5563502460717
 20
166.9225649908183
 30
0.0
 11
104.90064918994889
 21
166.9225649908183
 31
0.0
  0
LINE
  5
121C
  8
0
 10
111.0533507540821
 20
166.9225649908183
 30
0.0
 11
112.3976496979593
 21
166.9225649908183
 31
0.0
  0
LINE
  5
121D
  8
0
 10
113.5000003501771
 20
161.5773759782314
 30
0.0
 11
113.5000003501771
 21
188.35737593472001
 31
0.0
  0
LINE
  5
121E
  8
0
 10
99.999999999999886
 20
161.5773759782314
 30
0.0
 11
99.999999999999886
 21
188.35737593472001
 31
0.0
  0
LINE
  5
121F
  8
0
 10
123.3700001845135
 20
161.9673756882548
 30
0.0
 11
123.3700001845135
 21
187.96737622469661
 31
0.0
  0
LINE
  5
1220
  8
0
 10
105.47800026834
 20
182.92028214782459
 30
0.0
 11
104.90064918994889
 21
183.95215217024071
 31
0.0
  0
LINE
  5
1221
  8
0
 10
104.90064918994889
 20
183.95215217024071
 30
0.0
 11
104.90064918994889
 21
185.80820634961111
 31
0.0
  0
LINE
  5
1222
  8
0
 10
104.90064918994889
 20
185.80820634961111
 30
0.0
 11
105.47800026834
 21
185.44652629643659
 31
0.0
  0
LINE
  5
1224
  8
0
 10
108.55435058474529
 20
183.95215217024071
 30
0.0
 11
107.9769995063542
 21
182.92028214782459
 31
0.0
  0
LINE
  5
1226
  8
0
 10
107.9769995063542
 20
185.44652629643659
 30
0.0
 11
108.55435058474529
 21
185.80820634961111
 31
0.0
  0
LINE
  5
1227
  8
0
 10
108.55435058474529
 20
185.80820634961111
 30
0.0
 11
108.55435058474529
 21
183.95215217024071
 31
0.0
  0
LINE
  5
1228
  8
0
 10
107.9769995063542
 20
182.92028214782459
 30
0.0
 11
107.39965029060831
 21
183.95215217024071
 31
0.0
  0
LINE
  5
1229
  8
0
 10
107.39965029060831
 20
183.95215217024071
 30
0.0
 11
107.39965029060831
 21
185.80820634961111
 31
0.0
  0
LINE
  5
122A
  8
0
 10
107.39965029060831
 20
185.80820634961111
 30
0.0
 11
107.9769995063542
 21
185.44652629643659
 31
0.0
  0
LINE
  5
122B
  8
0
 10
102.9790010303258
 20
182.92028214782459
 30
0.0
 11
102.4016499519347
 21
183.95215217024071
 31
0.0
  0
LINE
  5
122C
  8
0
 10
102.4016499519347
 20
183.95215217024071
 30
0.0
 11
102.4016499519347
 21
185.80820634961111
 31
0.0
  0
LINE
  5
122D
  8
0
 10
102.4016499519347
 20
185.80820634961111
 30
0.0
 11
102.9790010303258
 21
185.44652629643659
 31
0.0
  0
LINE
  5
122F
  8
0
 10
112.9749998450278
 20
182.92028214782459
 30
0.0
 11
112.3976496979593
 21
183.95215217024071
 31
0.0
  0
LINE
  5
1230
  8
0
 10
112.3976496979593
 20
183.95215217024071
 30
0.0
 11
112.3976496979593
 21
185.80820634961111
 31
0.0
  0
LINE
  5
1231
  8
0
 10
112.3976496979593
 20
185.80820634961111
 30
0.0
 11
112.9749998450278
 21
185.44652629643659
 31
0.0
  0
LINE
  5
1233
  8
0
 10
111.0533507540821
 20
183.95215217024071
 30
0.0
 11
110.4760006070136
 21
182.92028214782459
 31
0.0
  0
LINE
  5
1235
  8
0
 10
110.4760006070136
 20
185.44652629643659
 30
0.0
 11
111.0533507540821
 21
185.80820634961111
 31
0.0
  0
LINE
  5
1236
  8
0
 10
111.0533507540821
 20
185.80820634961111
 30
0.0
 11
111.0533507540821
 21
183.95215217024071
 31
0.0
  0
LINE
  5
1237
  8
0
 10
103.5563502460717
 20
183.95215217024071
 30
0.0
 11
102.9790010303258
 21
182.92028214782459
 31
0.0
  0
LINE
  5
1238
  8
0
 10
102.9790010303258
 20
185.44652629643659
 30
0.0
 11
103.5563502460717
 21
185.80820634961111
 31
0.0
  0
LINE
  5
1239
  8
0
 10
103.5563502460717
 20
185.80820634961111
 30
0.0
 11
103.5563502460717
 21
183.95215217024071
 31
0.0
  0
LINE
  5
123A
  8
0
 10
103.5563502460717
 20
185.80820634961111
 30
0.0
 11
104.90064918994889
 21
185.80820634961111
 31
0.0
  0
LINE
  5
123B
  8
0
 10
103.5563502460717
 20
183.95215217024071
 30
0.0
 11
104.90064918994889
 21
183.95215217024071
 31
0.0
  0
LINE
  5
123C
  8
0
 10
111.0533507540821
 20
185.80820634961111
 30
0.0
 11
112.3976496979593
 21
185.80820634961111
 31
0.0
  0
LINE
  5
123D
  8
0
 10
111.0533507540821
 20
183.95215217024071
 30
0.0
 11
112.3976496979593
 21
183.95215217024071
 31
0.0
  0
LINE
  5
123E
  8
0
 10
110.4760006070136
 20
182.92028214782459
 30
0.0
 11
109.8986495286225
 21
183.95215217024071
 31
0.0
  0
LINE
  5
123F
  8
0
 10
109.8986495286225
 20
183.95215217024071
 30
0.0
 11
109.8986495286225
 21
185.80820634961111
 31
0.0
  0
LINE
  5
1240
  8
0
 10
109.8986495286225
 20
185.80820634961111
 30
0.0
 11
110.4760006070136
 21
185.44652629643659
 31
0.0
  0
LINE
  5
1241
  8
0
 10
101.05735100805749
 20
183.95215217024071
 30
0.0
 11
100.47999992966641
 21
182.92028214782459
 31
0.0
  0
LINE
  5
1242
  8
0
 10
100.47999992966641
 20
185.44652629643659
 30
0.0
 11
101.05735100805749
 21
185.80820634961111
 31
0.0
  0
LINE
  5
1243
  8
0
 10
101.05735100805749
 20
185.80820634961111
 30
0.0
 11
101.05735100805749
 21
183.95215217024071
 31
0.0
  0
LINE
  5
1245
  8
0
 10
106.055351346731
 20
185.80820634961111
 30
0.0
 11
106.055351346731
 21
183.95215217024071
 31
0.0
  0
LINE
  5
1246
  8
0
 10
106.055351346731
 20
185.80820634961111
 30
0.0
 11
107.39965029060831
 21
185.80820634961111
 31
0.0
  0
LINE
  5
1247
  8
0
 10
106.055351346731
 20
183.95215217024071
 30
0.0
 11
107.39965029060831
 21
183.95215217024071
 31
0.0
  0
LINE
  5
1248
  8
0
 10
101.05735100805749
 20
185.80820634961111
 30
0.0
 11
102.4016499519347
 21
185.80820634961111
 31
0.0
  0
LINE
  5
1249
  8
0
 10
101.05735100805749
 20
183.95215217024071
 30
0.0
 11
102.4016499519347
 21
183.95215217024071
 31
0.0
  0
LINE
  5
124A
  8
0
 10
106.055351346731
 20
183.95215217024071
 30
0.0
 11
105.47800026834
 21
182.92028214782459
 31
0.0
  0
LINE
  5
124B
  8
0
 10
105.47800026834
 20
185.44652629643659
 30
0.0
 11
106.055351346731
 21
185.80820634961111
 31
0.0
  0
LINE
  5
124C
  8
0
 10
108.55435058474529
 20
185.80820634961111
 30
0.0
 11
109.8986495286225
 21
185.80820634961111
 31
0.0
  0
LINE
  5
124D
  8
0
 10
108.55435058474529
 20
183.95215217024071
 30
0.0
 11
109.8986495286225
 21
183.95215217024071
 31
0.0
  0
LINE
  5
124E
  8
0
 10
110.4760006070136
 20
167.01446976512651
 30
0.0
 11
111.0533507540821
 21
165.98259974271039
 31
0.0
  0
LINE
  5
124F
  8
0
 10
112.3976496979593
 20
165.98259974271039
 30
0.0
 11
112.9749998450278
 21
167.01446976512651
 31
0.0
  0
LINE
  5
1250
  8
0
 10
111.0533507540821
 20
165.98259974271039
 30
0.0
 11
112.3976496979593
 21
165.98259974271039
 31
0.0
  0
LINE
  5
1251
  8
0
 10
112.9749998450278
 20
164.48822561651451
 30
0.0
 11
112.3976496979593
 21
164.12654556333999
 31
0.0
  0
LINE
  5
1252
  8
0
 10
112.3976496979593
 20
164.12654556333999
 30
0.0
 11
112.3976496979593
 21
165.98259974271039
 31
0.0
  0
LINE
  5
1254
  8
0
 10
102.9790010303258
 20
167.01446976512651
 30
0.0
 11
103.5563502460717
 21
165.98259974271039
 31
0.0
  0
LINE
  5
1255
  8
0
 10
104.90064918994889
 20
165.98259974271039
 30
0.0
 11
105.47800026834
 21
167.01446976512651
 31
0.0
  0
LINE
  5
1256
  8
0
 10
103.5563502460717
 20
165.98259974271039
 30
0.0
 11
104.90064918994889
 21
165.98259974271039
 31
0.0
  0
LINE
  5
1257
  8
0
 10
100.47999992966641
 20
167.01446976512651
 30
0.0
 11
101.05735100805749
 21
165.98259974271039
 31
0.0
  0
LINE
  5
1258
  8
0
 10
102.4016499519347
 20
165.98259974271039
 30
0.0
 11
102.9790010303258
 21
167.01446976512651
 31
0.0
  0
LINE
  5
1259
  8
0
 10
101.05735100805749
 20
165.98259974271039
 30
0.0
 11
102.4016499519347
 21
165.98259974271039
 31
0.0
  0
LINE
  5
125A
  8
0
 10
107.39965029060831
 20
165.98259974271039
 30
0.0
 11
107.9769995063542
 21
167.01446976512651
 31
0.0
  0
LINE
  5
125C
  8
0
 10
107.9769995063542
 20
164.48822561651451
 30
0.0
 11
107.39965029060831
 21
164.12654556333999
 31
0.0
  0
LINE
  5
125D
  8
0
 10
107.39965029060831
 20
164.12654556333999
 30
0.0
 11
107.39965029060831
 21
165.98259974271039
 31
0.0
  0
LINE
  5
125E
  8
0
 10
107.9769995063542
 20
167.01446976512651
 30
0.0
 11
108.55435058474529
 21
165.98259974271039
 31
0.0
  0
LINE
  5
125F
  8
0
 10
109.8986495286225
 20
165.98259974271039
 30
0.0
 11
110.4760006070136
 21
167.01446976512651
 31
0.0
  0
LINE
  5
1260
  8
0
 10
108.55435058474529
 20
165.98259974271039
 30
0.0
 11
109.8986495286225
 21
165.98259974271039
 31
0.0
  0
LINE
  5
1261
  8
0
 10
105.47800026834
 20
167.01446976512651
 30
0.0
 11
106.055351346731
 21
165.98259974271039
 31
0.0
  0
LINE
  5
1262
  8
0
 10
106.055351346731
 20
165.98259974271039
 30
0.0
 11
107.39965029060831
 21
165.98259974271039
 31
0.0
  0
LINE
  5
1263
  8
0
 10
111.0533507540821
 20
165.98259974271039
 30
0.0
 11
111.0533507540821
 21
164.12654556333999
 31
0.0
  0
LINE
  5
1264
  8
0
 10
111.0533507540821
 20
164.12654556333999
 30
0.0
 11
110.4760006070136
 21
164.48822561651451
 31
0.0
  0
LINE
  5
1266
  8
0
 10
108.55435058474529
 20
165.98259974271039
 30
0.0
 11
108.55435058474529
 21
164.12654556333999
 31
0.0
  0
LINE
  5
1267
  8
0
 10
108.55435058474529
 20
164.12654556333999
 30
0.0
 11
107.9769995063542
 21
164.48822561651451
 31
0.0
  0
LINE
  5
1268
  8
0
 10
101.05735100805749
 20
165.98259974271039
 30
0.0
 11
101.05735100805749
 21
164.12654556333999
 31
0.0
  0
LINE
  5
1269
  8
0
 10
101.05735100805749
 20
164.12654556333999
 30
0.0
 11
100.47999992966641
 21
164.48822561651451
 31
0.0
  0
LINE
  5
126B
  8
0
 10
103.5563502460717
 20
165.98259974271039
 30
0.0
 11
103.5563502460717
 21
164.12654556333999
 31
0.0
  0
LINE
  5
126C
  8
0
 10
103.5563502460717
 20
164.12654556333999
 30
0.0
 11
102.9790010303258
 21
164.48822561651451
 31
0.0
  0
LINE
  5
126E
  8
0
 10
106.055351346731
 20
165.98259974271039
 30
0.0
 11
106.055351346731
 21
164.12654556333999
 31
0.0
  0
LINE
  5
126F
  8
0
 10
106.055351346731
 20
164.12654556333999
 30
0.0
 11
105.47800026834
 21
164.48822561651451
 31
0.0
  0
LINE
  5
1271
  8
0
 10
110.4760006070136
 20
164.48822561651451
 30
0.0
 11
109.8986495286225
 21
164.12654556333999
 31
0.0
  0
LINE
  5
1272
  8
0
 10
109.8986495286225
 20
164.12654556333999
 30
0.0
 11
109.8986495286225
 21
165.98259974271039
 31
0.0
  0
LINE
  5
1273
  8
0
 10
102.9790010303258
 20
164.48822561651451
 30
0.0
 11
102.4016499519347
 21
164.12654556333999
 31
0.0
  0
LINE
  5
1274
  8
0
 10
102.4016499519347
 20
164.12654556333999
 30
0.0
 11
102.4016499519347
 21
165.98259974271039
 31
0.0
  0
LINE
  5
1275
  8
0
 10
105.47800026834
 20
164.48822561651451
 30
0.0
 11
104.90064918994889
 21
164.12654556333999
 31
0.0
  0
LINE
  5
1276
  8
0
 10
104.90064918994889
 20
164.12654556333999
 30
0.0
 11
104.90064918994889
 21
165.98259974271039
 31
0.0
  0
LINE
  5
1277
  8
0
 10
101.05735100805749
 20
164.12654556333999
 30
0.0
 11
102.4016499519347
 21
164.12654556333999
 31
0.0
  0
LINE
  5
1278
  8
0
 10
108.55435058474529
 20
164.12654556333999
 30
0.0
 11
109.8986495286225
 21
164.12654556333999
 31
0.0
  0
LINE
  5
1279
  8
0
 10
106.055351346731
 20
164.12654556333999
 30
0.0
 11
107.39965029060831
 21
164.12654556333999
 31
0.0
  0
LINE
  5
127A
  8
0
 10
103.5563502460717
 20
164.12654556333999
 30
0.0
 11
104.90064918994889
 21
164.12654556333999
 31
0.0
  0
LINE
  5
127B
  8
0
 10
111.0533507540821
 20
164.12654556333999
 30
0.0
 11
112.3976496979593
 21
164.12654556333999
 31
0.0
  0
LINE
  5
127C
  8
0
 10
103.5563502460717
 20
186.56558766961081
 30
0.0
 11
102.9790010303258
 21
185.44652629643659
 31
0.0
  0
LINE
  5
127E
  8
0
 10
102.9790010303258
 20
187.36375998705611
 30
0.0
 11
103.5563502460717
 21
187.97419723123301
 31
0.0
  0
LINE
  5
127F
  8
0
 10
103.5563502460717
 20
187.97419723123301
 30
0.0
 11
103.5563502460717
 21
186.56558766961081
 31
0.0
  0
LINE
  5
1280
  8
0
 10
103.5563502460717
 20
187.97419723123301
 30
0.0
 11
104.90064918994889
 21
187.97419723123301
 31
0.0
  0
LINE
  5
1281
  8
0
 10
104.90064918994889
 20
186.56558766961081
 30
0.0
 11
104.90064918994889
 21
187.97419723123301
 31
0.0
  0
LINE
  5
1282
  8
0
 10
103.5563502460717
 20
186.56558766961081
 30
0.0
 11
104.90064918994889
 21
186.56558766961081
 31
0.0
  0
LINE
  5
1283
  8
0
 10
108.55435058474529
 20
187.97419723123301
 30
0.0
 11
108.55435058474529
 21
186.56558766961081
 31
0.0
  0
LINE
  5
1284
  8
0
 10
108.55435058474529
 20
187.97419723123301
 30
0.0
 11
109.8986495286225
 21
187.97419723123301
 31
0.0
  0
LINE
  5
1285
  8
0
 10
109.8986495286225
 20
186.56558766961081
 30
0.0
 11
109.8986495286225
 21
187.97419723123301
 31
0.0
  0
LINE
  5
1286
  8
0
 10
108.55435058474529
 20
186.56558766961081
 30
0.0
 11
109.8986495286225
 21
186.56558766961081
 31
0.0
  0
LINE
  5
1287
  8
0
 10
106.055351346731
 20
186.56558766961081
 30
0.0
 11
105.47800026834
 21
185.44652629643659
 31
0.0
  0
LINE
  5
1289
  8
0
 10
105.47800026834
 20
187.36375998705611
 30
0.0
 11
106.055351346731
 21
187.97419723123301
 31
0.0
  0
LINE
  5
128A
  8
0
 10
106.055351346731
 20
187.97419723123301
 30
0.0
 11
106.055351346731
 21
186.56558766961081
 31
0.0
  0
LINE
  5
128B
  8
0
 10
106.055351346731
 20
187.97419723123301
 30
0.0
 11
107.39965029060831
 21
187.97419723123301
 31
0.0
  0
LINE
  5
128C
  8
0
 10
107.39965029060831
 20
186.56558766961081
 30
0.0
 11
107.39965029060831
 21
187.97419723123301
 31
0.0
  0
LINE
  5
128D
  8
0
 10
106.055351346731
 20
186.56558766961081
 30
0.0
 11
107.39965029060831
 21
186.56558766961081
 31
0.0
  0
LINE
  5
128E
  8
0
 10
102.9790010303258
 20
185.44652629643659
 30
0.0
 11
102.4016499519347
 21
186.56558766961081
 31
0.0
  0
LINE
  5
128F
  8
0
 10
102.4016499519347
 20
186.56558766961081
 30
0.0
 11
102.4016499519347
 21
187.97419723123301
 31
0.0
  0
LINE
  5
1290
  8
0
 10
102.4016499519347
 20
187.97419723123301
 30
0.0
 11
102.9790010303258
 21
187.36375998705611
 31
0.0
  0
LINE
  5
1291
  8
0
 10
112.9749998450278
 20
185.44652629643659
 30
0.0
 11
112.3976496979593
 21
186.56558766961081
 31
0.0
  0
LINE
  5
1292
  8
0
 10
112.3976496979593
 20
186.56558766961081
 30
0.0
 11
112.3976496979593
 21
187.97419723123301
 31
0.0
  0
LINE
  5
1293
  8
0
 10
112.3976496979593
 20
187.97419723123301
 30
0.0
 11
112.9749998450278
 21
187.36375998705611
 31
0.0
  0
LINE
  5
1295
  8
0
 10
101.05735100805749
 20
186.56558766961081
 30
0.0
 11
100.47999992966641
 21
185.44652629643659
 31
0.0
  0
LINE
  5
1296
  8
0
 10
100.47999992966641
 20
187.36375998705611
 30
0.0
 11
101.05735100805749
 21
187.97419723123301
 31
0.0
  0
LINE
  5
1297
  8
0
 10
101.05735100805749
 20
187.97419723123301
 30
0.0
 11
101.05735100805749
 21
186.56558766961081
 31
0.0
  0
LINE
  5
1299
  8
0
 10
105.47800026834
 20
185.44652629643659
 30
0.0
 11
104.90064918994889
 21
186.56558766961081
 31
0.0
  0
LINE
  5
129A
  8
0
 10
104.90064918994889
 20
187.97419723123301
 30
0.0
 11
105.47800026834
 21
187.36375998705611
 31
0.0
  0
LINE
  5
129B
  8
0
 10
101.05735100805749
 20
187.97419723123301
 30
0.0
 11
102.4016499519347
 21
187.97419723123301
 31
0.0
  0
LINE
  5
129C
  8
0
 10
101.05735100805749
 20
186.56558766961081
 30
0.0
 11
102.4016499519347
 21
186.56558766961081
 31
0.0
  0
LINE
  5
129D
  8
0
 10
108.55435058474529
 20
186.56558766961081
 30
0.0
 11
107.9769995063542
 21
185.44652629643659
 31
0.0
  0
LINE
  5
129F
  8
0
 10
107.9769995063542
 20
187.36375998705611
 30
0.0
 11
108.55435058474529
 21
187.97419723123301
 31
0.0
  0
LINE
  5
12A0
  8
0
 10
107.9769995063542
 20
185.44652629643659
 30
0.0
 11
107.39965029060831
 21
186.56558766961081
 31
0.0
  0
LINE
  5
12A1
  8
0
 10
107.39965029060831
 20
187.97419723123301
 30
0.0
 11
107.9769995063542
 21
187.36375998705611
 31
0.0
  0
LINE
  5
12A2
  8
0
 10
110.4760006070136
 20
185.44652629643659
 30
0.0
 11
109.8986495286225
 21
186.56558766961081
 31
0.0
  0
LINE
  5
12A3
  8
0
 10
109.8986495286225
 20
187.97419723123301
 30
0.0
 11
110.4760006070136
 21
187.36375998705611
 31
0.0
  0
LINE
  5
12A5
  8
0
 10
111.0533507540821
 20
186.56558766961081
 30
0.0
 11
110.4760006070136
 21
185.44652629643659
 31
0.0
  0
LINE
  5
12A6
  8
0
 10
110.4760006070136
 20
187.36375998705611
 30
0.0
 11
111.0533507540821
 21
187.97419723123301
 31
0.0
  0
LINE
  5
12A7
  8
0
 10
111.0533507540821
 20
187.97419723123301
 30
0.0
 11
111.0533507540821
 21
186.56558766961081
 31
0.0
  0
LINE
  5
12A8
  8
0
 10
111.0533507540821
 20
187.97419723123301
 30
0.0
 11
112.3976496979593
 21
187.97419723123301
 31
0.0
  0
LINE
  5
12A9
  8
0
 10
111.0533507540821
 20
186.56558766961081
 30
0.0
 11
112.3976496979593
 21
186.56558766961081
 31
0.0
  0
LINE
  5
12AA
  8
0
 10
110.4760006070136
 20
164.48822561651451
 30
0.0
 11
111.0533507540821
 21
163.36916424334041
 31
0.0
  0
LINE
  5
12AB
  8
0
 10
112.3976496979593
 20
163.36916424334041
 30
0.0
 11
112.9749998450278
 21
164.48822561651451
 31
0.0
  0
LINE
  5
12AC
  8
0
 10
111.0533507540821
 20
163.36916424334041
 30
0.0
 11
112.3976496979593
 21
163.36916424334041
 31
0.0
  0
LINE
  5
12AD
  8
0
 10
105.47800026834
 20
164.48822561651451
 30
0.0
 11
106.055351346731
 21
163.36916424334041
 31
0.0
  0
LINE
  5
12AE
  8
0
 10
106.055351346731
 20
163.36916424334041
 30
0.0
 11
106.055351346731
 21
161.96055468171821
 31
0.0
  0
LINE
  5
12AF
  8
0
 10
106.055351346731
 20
161.96055468171821
 30
0.0
 11
105.47800026834
 21
162.5709919258951
 31
0.0
  0
LINE
  5
12B1
  8
0
 10
102.9790010303258
 20
164.48822561651451
 30
0.0
 11
103.5563502460717
 21
163.36916424334041
 31
0.0
  0
LINE
  5
12B2
  8
0
 10
103.5563502460717
 20
163.36916424334041
 30
0.0
 11
103.5563502460717
 21
161.96055468171821
 31
0.0
  0
LINE
  5
12B3
  8
0
 10
103.5563502460717
 20
161.96055468171821
 30
0.0
 11
102.9790010303258
 21
162.5709919258951
 31
0.0
  0
LINE
  5
12B5
  8
0
 10
107.9769995063542
 20
164.48822561651451
 30
0.0
 11
108.55435058474529
 21
163.36916424334041
 31
0.0
  0
LINE
  5
12B6
  8
0
 10
109.8986495286225
 20
163.36916424334041
 30
0.0
 11
110.4760006070136
 21
164.48822561651451
 31
0.0
  0
LINE
  5
12B7
  8
0
 10
108.55435058474529
 20
163.36916424334041
 30
0.0
 11
109.8986495286225
 21
163.36916424334041
 31
0.0
  0
LINE
  5
12B8
  8
0
 10
100.47999992966641
 20
164.48822561651451
 30
0.0
 11
101.05735100805749
 21
163.36916424334041
 31
0.0
  0
LINE
  5
12B9
  8
0
 10
102.4016499519347
 20
163.36916424334041
 30
0.0
 11
102.9790010303258
 21
164.48822561651451
 31
0.0
  0
LINE
  5
12BA
  8
0
 10
101.05735100805749
 20
163.36916424334041
 30
0.0
 11
102.4016499519347
 21
163.36916424334041
 31
0.0
  0
LINE
  5
12BB
  8
0
 10
104.90064918994889
 20
163.36916424334041
 30
0.0
 11
105.47800026834
 21
164.48822561651451
 31
0.0
  0
LINE
  5
12BC
  8
0
 10
105.47800026834
 20
162.5709919258951
 30
0.0
 11
104.90064918994889
 21
161.96055468171821
 31
0.0
  0
LINE
  5
12BD
  8
0
 10
104.90064918994889
 20
161.96055468171821
 30
0.0
 11
104.90064918994889
 21
163.36916424334041
 31
0.0
  0
LINE
  5
12BE
  8
0
 10
103.5563502460717
 20
163.36916424334041
 30
0.0
 11
104.90064918994889
 21
163.36916424334041
 31
0.0
  0
LINE
  5
12BF
  8
0
 10
112.9749998450278
 20
162.5709919258951
 30
0.0
 11
112.3976496979593
 21
161.96055468171821
 31
0.0
  0
LINE
  5
12C0
  8
0
 10
112.3976496979593
 20
161.96055468171821
 30
0.0
 11
112.3976496979593
 21
163.36916424334041
 31
0.0
  0
LINE
  5
12C2
  8
0
 10
111.0533507540821
 20
163.36916424334041
 30
0.0
 11
111.0533507540821
 21
161.96055468171821
 31
0.0
  0
LINE
  5
12C3
  8
0
 10
111.0533507540821
 20
161.96055468171821
 30
0.0
 11
110.4760006070136
 21
162.5709919258951
 31
0.0
  0
LINE
  5
12C5
  8
0
 10
107.39965029060831
 20
163.36916424334041
 30
0.0
 11
107.9769995063542
 21
164.48822561651451
 31
0.0
  0
LINE
  5
12C6
  8
0
 10
106.055351346731
 20
163.36916424334041
 30
0.0
 11
107.39965029060831
 21
163.36916424334041
 31
0.0
  0
LINE
  5
12C8
  8
0
 10
107.9769995063542
 20
162.5709919258951
 30
0.0
 11
107.39965029060831
 21
161.96055468171821
 31
0.0
  0
LINE
  5
12C9
  8
0
 10
107.39965029060831
 20
161.96055468171821
 30
0.0
 11
107.39965029060831
 21
163.36916424334041
 31
0.0
  0
LINE
  5
12CA
  8
0
 10
110.4760006070136
 20
162.5709919258951
 30
0.0
 11
109.8986495286225
 21
161.96055468171821
 31
0.0
  0
LINE
  5
12CB
  8
0
 10
109.8986495286225
 20
161.96055468171821
 30
0.0
 11
109.8986495286225
 21
163.36916424334041
 31
0.0
  0
LINE
  5
12CC
  8
0
 10
101.05735100805749
 20
163.36916424334041
 30
0.0
 11
101.05735100805749
 21
161.96055468171821
 31
0.0
  0
LINE
  5
12CD
  8
0
 10
101.05735100805749
 20
161.96055468171821
 30
0.0
 11
100.47999992966641
 21
162.5709919258951
 31
0.0
  0
LINE
  5
12CF
  8
0
 10
102.9790010303258
 20
162.5709919258951
 30
0.0
 11
102.4016499519347
 21
161.96055468171821
 31
0.0
  0
LINE
  5
12D0
  8
0
 10
102.4016499519347
 20
161.96055468171821
 30
0.0
 11
102.4016499519347
 21
163.36916424334041
 31
0.0
  0
LINE
  5
12D1
  8
0
 10
108.55435058474529
 20
163.36916424334041
 30
0.0
 11
108.55435058474529
 21
161.96055468171821
 31
0.0
  0
LINE
  5
12D2
  8
0
 10
108.55435058474529
 20
161.96055468171821
 30
0.0
 11
107.9769995063542
 21
162.5709919258951
 31
0.0
  0
LINE
  5
12D3
  8
0
 10
101.05735100805749
 20
161.96055468171821
 30
0.0
 11
102.4016499519347
 21
161.96055468171821
 31
0.0
  0
LINE
  5
12D4
  8
0
 10
108.55435058474529
 20
161.96055468171821
 30
0.0
 11
109.8986495286225
 21
161.96055468171821
 31
0.0
  0
LINE
  5
12D5
  8
0
 10
103.5563502460717
 20
161.96055468171821
 30
0.0
 11
104.90064918994889
 21
161.96055468171821
 31
0.0
  0
LINE
  5
12D6
  8
0
 10
106.055351346731
 20
161.96055468171821
 30
0.0
 11
107.39965029060831
 21
161.96055468171821
 31
0.0
  0
LINE
  5
12D7
  8
0
 10
111.0533507540821
 20
161.96055468171821
 30
0.0
 11
112.3976496979593
 21
161.96055468171821
 31
0.0
  0
LINE
  5
12D8
  8
0
 10
105.47800026834
 20
187.36375998705611
 30
0.0
 11
104.90064918994889
 21
188.50497752428041
 31
0.0
  0
LINE
  5
12D9
  8
0
 10
104.90064918994889
 20
188.50497752428041
 30
0.0
 11
104.90064918994889
 21
189.38427828252301
 31
0.0
  0
LINE
  5
12DA
  8
0
 10
104.90064918994889
 20
189.38427828252301
 30
0.0
 11
105.47800026834
 21
188.5605616495013
 31
0.0
  0
LINE
  5
12DC
  8
0
 10
103.5563502460717
 20
188.50497752428041
 30
0.0
 11
102.9790010303258
 21
187.36375998705611
 31
0.0
  0
LINE
  5
12DE
  8
0
 10
102.9790010303258
 20
188.5605616495013
 30
0.0
 11
103.5563502460717
 21
189.38427828252301
 31
0.0
  0
LINE
  5
12DF
  8
0
 10
103.5563502460717
 20
189.38427828252301
 30
0.0
 11
103.5563502460717
 21
188.50497752428041
 31
0.0
  0
LINE
  5
12E0
  8
0
 10
107.9769995063542
 20
187.36375998705611
 30
0.0
 11
107.39965029060831
 21
188.50497752428041
 31
0.0
  0
LINE
  5
12E1
  8
0
 10
107.39965029060831
 20
188.50497752428041
 30
0.0
 11
107.39965029060831
 21
189.38427828252301
 31
0.0
  0
LINE
  5
12E2
  8
0
 10
107.39965029060831
 20
189.38427828252301
 30
0.0
 11
107.9769995063542
 21
188.5605616495013
 31
0.0
  0
LINE
  5
12E4
  8
0
 10
110.4760006070136
 20
187.36375998705611
 30
0.0
 11
109.8986495286225
 21
188.50497752428041
 31
0.0
  0
LINE
  5
12E5
  8
0
 10
109.8986495286225
 20
188.50497752428041
 30
0.0
 11
109.8986495286225
 21
189.38427828252301
 31
0.0
  0
LINE
  5
12E6
  8
0
 10
109.8986495286225
 20
189.38427828252301
 30
0.0
 11
110.4760006070136
 21
188.5605616495013
 31
0.0
  0
LINE
  5
12E8
  8
0
 10
111.0533507540821
 20
188.50497752428041
 30
0.0
 11
110.4760006070136
 21
187.36375998705611
 31
0.0
  0
LINE
  5
12E9
  8
0
 10
110.4760006070136
 20
188.5605616495013
 30
0.0
 11
111.0533507540821
 21
189.38427828252301
 31
0.0
  0
LINE
  5
12EA
  8
0
 10
111.0533507540821
 20
189.38427828252301
 30
0.0
 11
111.0533507540821
 21
188.50497752428041
 31
0.0
  0
LINE
  5
12EB
  8
0
 10
106.055351346731
 20
188.50497752428041
 30
0.0
 11
105.47800026834
 21
187.36375998705611
 31
0.0
  0
LINE
  5
12EC
  8
0
 10
105.47800026834
 20
188.5605616495013
 30
0.0
 11
106.055351346731
 21
189.38427828252301
 31
0.0
  0
LINE
  5
12ED
  8
0
 10
106.055351346731
 20
189.38427828252301
 30
0.0
 11
106.055351346731
 21
188.50497752428041
 31
0.0
  0
LINE
  5
12EE
  8
0
 10
108.55435058474529
 20
188.50497752428041
 30
0.0
 11
107.9769995063542
 21
187.36375998705611
 31
0.0
  0
LINE
  5
12EF
  8
0
 10
107.9769995063542
 20
188.5605616495013
 30
0.0
 11
108.55435058474529
 21
189.38427828252301
 31
0.0
  0
LINE
  5
12F0
  8
0
 10
108.55435058474529
 20
189.38427828252301
 30
0.0
 11
108.55435058474529
 21
188.50497752428041
 31
0.0
  0
LINE
  5
12F1
  8
0
 10
112.9749998450278
 20
187.36375998705611
 30
0.0
 11
112.3976496979593
 21
188.50497752428041
 31
0.0
  0
LINE
  5
12F2
  8
0
 10
112.3976496979593
 20
188.50497752428041
 30
0.0
 11
112.3976496979593
 21
189.38427828252301
 31
0.0
  0
LINE
  5
12F3
  8
0
 10
112.3976496979593
 20
189.38427828252301
 30
0.0
 11
112.9749998450278
 21
188.5605616495013
 31
0.0
  0
LINE
  5
12F5
  8
0
 10
102.9790010303258
 20
187.36375998705611
 30
0.0
 11
102.4016499519347
 21
188.50497752428041
 31
0.0
  0
LINE
  5
12F6
  8
0
 10
102.4016499519347
 20
188.50497752428041
 30
0.0
 11
102.4016499519347
 21
189.38427828252301
 31
0.0
  0
LINE
  5
12F7
  8
0
 10
102.4016499519347
 20
189.38427828252301
 30
0.0
 11
102.9790010303258
 21
188.5605616495013
 31
0.0
  0
LINE
  5
12F8
  8
0
 10
101.05735100805749
 20
188.50497752428041
 30
0.0
 11
100.47999992966641
 21
187.36375998705611
 31
0.0
  0
LINE
  5
12F9
  8
0
 10
100.47999992966641
 20
188.5605616495013
 30
0.0
 11
101.05735100805749
 21
189.38427828252301
 31
0.0
  0
LINE
  5
12FA
  8
0
 10
101.05735100805749
 20
189.38427828252301
 30
0.0
 11
101.05735100805749
 21
188.50497752428041
 31
0.0
  0
LINE
  5
12FC
  8
0
 10
106.055351346731
 20
188.50497752428041
 30
0.0
 11
107.39965029060831
 21
188.50497752428041
 31
0.0
  0
LINE
  5
12FD
  8
0
 10
103.5563502460717
 20
188.50497752428041
 30
0.0
 11
104.90064918994889
 21
188.50497752428041
 31
0.0
  0
LINE
  5
12FE
  8
0
 10
111.0533507540821
 20
188.50497752428041
 30
0.0
 11
112.3976496979593
 21
188.50497752428041
 31
0.0
  0
LINE
  5
12FF
  8
0
 10
108.55435058474529
 20
188.50497752428041
 30
0.0
 11
109.8986495286225
 21
188.50497752428041
 31
0.0
  0
LINE
  5
1300
  8
0
 10
101.05735100805749
 20
188.50497752428041
 30
0.0
 11
102.4016499519347
 21
188.50497752428041
 31
0.0
  0
LINE
  5
1301
  8
0
 10
100.47999992966641
 20
162.5709919258951
 30
0.0
 11
101.05735100805749
 21
161.42977438867081
 31
0.0
  0
LINE
  5
1302
  8
0
 10
101.05735100805749
 20
161.42977438867081
 30
0.0
 11
101.05735100805749
 21
160.5504736304282
 31
0.0
  0
LINE
  5
1303
  8
0
 10
101.05735100805749
 20
160.5504736304282
 30
0.0
 11
100.47999992966641
 21
161.37419026345009
 31
0.0
  0
LINE
  5
1305
  8
0
 10
102.4016499519347
 20
161.42977438867081
 30
0.0
 11
102.9790010303258
 21
162.5709919258951
 31
0.0
  0
LINE
  5
1306
  8
0
 10
101.05735100805749
 20
161.42977438867081
 30
0.0
 11
102.4016499519347
 21
161.42977438867081
 31
0.0
  0
LINE
  5
1307
  8
0
 10
102.9790010303258
 20
162.5709919258951
 30
0.0
 11
103.5563502460717
 21
161.42977438867081
 31
0.0
  0
LINE
  5
1308
  8
0
 10
103.5563502460717
 20
161.42977438867081
 30
0.0
 11
103.5563502460717
 21
160.5504736304282
 31
0.0
  0
LINE
  5
1309
  8
0
 10
103.5563502460717
 20
160.5504736304282
 30
0.0
 11
102.9790010303258
 21
161.37419026345009
 31
0.0
  0
LINE
  5
130B
  8
0
 10
105.47800026834
 20
162.5709919258951
 30
0.0
 11
106.055351346731
 21
161.42977438867081
 31
0.0
  0
LINE
  5
130C
  8
0
 10
106.055351346731
 20
161.42977438867081
 30
0.0
 11
106.055351346731
 21
160.5504736304282
 31
0.0
  0
LINE
  5
130D
  8
0
 10
106.055351346731
 20
160.5504736304282
 30
0.0
 11
105.47800026834
 21
161.37419026345009
 31
0.0
  0
LINE
  5
130F
  8
0
 10
104.90064918994889
 20
161.42977438867081
 30
0.0
 11
105.47800026834
 21
162.5709919258951
 31
0.0
  0
LINE
  5
1310
  8
0
 10
103.5563502460717
 20
161.42977438867081
 30
0.0
 11
104.90064918994889
 21
161.42977438867081
 31
0.0
  0
LINE
  5
1311
  8
0
 10
107.39965029060831
 20
161.42977438867081
 30
0.0
 11
107.9769995063542
 21
162.5709919258951
 31
0.0
  0
LINE
  5
1312
  8
0
 10
106.055351346731
 20
161.42977438867081
 30
0.0
 11
107.39965029060831
 21
161.42977438867081
 31
0.0
  0
LINE
  5
1313
  8
0
 10
105.47800026834
 20
161.37419026345009
 30
0.0
 11
104.90064918994889
 21
160.5504736304282
 31
0.0
  0
LINE
  5
1314
  8
0
 10
104.90064918994889
 20
160.5504736304282
 30
0.0
 11
104.90064918994889
 21
161.42977438867081
 31
0.0
  0
LINE
  5
1315
  8
0
 10
102.9790010303258
 20
161.37419026345009
 30
0.0
 11
102.4016499519347
 21
160.5504736304282
 31
0.0
  0
LINE
  5
1316
  8
0
 10
102.4016499519347
 20
160.5504736304282
 30
0.0
 11
102.4016499519347
 21
161.42977438867081
 31
0.0
  0
LINE
  5
1317
  8
0
 10
110.4760006070136
 20
162.5709919258951
 30
0.0
 11
111.0533507540821
 21
161.42977438867081
 31
0.0
  0
LINE
  5
1318
  8
0
 10
112.3976496979593
 20
161.42977438867081
 30
0.0
 11
112.9749998450278
 21
162.5709919258951
 31
0.0
  0
LINE
  5
1319
  8
0
 10
111.0533507540821
 20
161.42977438867081
 30
0.0
 11
112.3976496979593
 21
161.42977438867081
 31
0.0
  0
LINE
  5
131A
  8
0
 10
107.9769995063542
 20
162.5709919258951
 30
0.0
 11
108.55435058474529
 21
161.42977438867081
 31
0.0
  0
LINE
  5
131B
  8
0
 10
108.55435058474529
 20
161.42977438867081
 30
0.0
 11
108.55435058474529
 21
160.5504736304282
 31
0.0
  0
LINE
  5
131C
  8
0
 10
108.55435058474529
 20
160.5504736304282
 30
0.0
 11
107.9769995063542
 21
161.37419026345009
 31
0.0
  0
LINE
  5
131E
  8
0
 10
107.9769995063542
 20
161.37419026345009
 30
0.0
 11
107.39965029060831
 21
160.5504736304282
 31
0.0
  0
LINE
  5
131F
  8
0
 10
107.39965029060831
 20
160.5504736304282
 30
0.0
 11
107.39965029060831
 21
161.42977438867081
 31
0.0
  0
LINE
  5
1320
  8
0
 10
109.8986495286225
 20
161.42977438867081
 30
0.0
 11
110.4760006070136
 21
162.5709919258951
 31
0.0
  0
LINE
  5
1321
  8
0
 10
108.55435058474529
 20
161.42977438867081
 30
0.0
 11
109.8986495286225
 21
161.42977438867081
 31
0.0
  0
LINE
  5
1322
  8
0
 10
112.9749998450278
 20
161.37419026345009
 30
0.0
 11
112.3976496979593
 21
160.5504736304282
 31
0.0
  0
LINE
  5
1323
  8
0
 10
112.3976496979593
 20
160.5504736304282
 30
0.0
 11
112.3976496979593
 21
161.42977438867081
 31
0.0
  0
LINE
  5
1326
  8
0
 10
110.4760006070136
 20
161.37419026345009
 30
0.0
 11
109.8986495286225
 21
160.5504736304282
 31
0.0
  0
LINE
  5
1327
  8
0
 10
109.8986495286225
 20
160.5504736304282
 30
0.0
 11
109.8986495286225
 21
161.42977438867081
 31
0.0
  0
LINE
  5
1328
  8
0
 10
111.0533507540821
 20
161.42977438867081
 30
0.0
 11
111.0533507540821
 21
160.5504736304282
 31
0.0
  0
LINE
  5
1329
  8
0
 10
111.0533507540821
 20
160.5504736304282
 30
0.0
 11
110.4760006070136
 21
161.37419026345009
 31
0.0
  0
LINE
  5
132A
  8
0
 10
103.5563502460717
 20
189.38427828252301
 30
0.0
 11
104.90064918994889
 21
189.38427828252301
 31
0.0
  0
LINE
  5
132B
  8
0
 10
108.55435058474529
 20
189.38427828252301
 30
0.0
 11
109.8986495286225
 21
189.38427828252301
 31
0.0
  0
LINE
  5
132C
  8
0
 10
111.0533507540821
 20
189.38427828252301
 30
0.0
 11
112.3976496979593
 21
189.38427828252301
 31
0.0
  0
LINE
  5
132D
  8
0
 10
101.05735100805749
 20
189.38427828252301
 30
0.0
 11
102.4016499519347
 21
189.38427828252301
 31
0.0
  0
LINE
  5
132E
  8
0
 10
106.055351346731
 20
189.38427828252301
 30
0.0
 11
107.39965029060831
 21
189.38427828252301
 31
0.0
  0
LINE
  5
132F
  8
0
 10
111.0533507540821
 20
160.5504736304282
 30
0.0
 11
112.3976496979593
 21
160.5504736304282
 31
0.0
  0
LINE
  5
1330
  8
0
 10
108.55435058474529
 20
160.5504736304282
 30
0.0
 11
109.8986495286225
 21
160.5504736304282
 31
0.0
  0
LINE
  5
1331
  8
0
 10
101.05735100805749
 20
160.5504736304282
 30
0.0
 11
102.4016499519347
 21
160.5504736304282
 31
0.0
  0
LINE
  5
1332
  8
0
 10
106.055351346731
 20
160.5504736304282
 30
0.0
 11
107.39965029060831
 21
160.5504736304282
 31
0.0
  0
LINE
  5
1333
  8
0
 10
103.5563502460717
 20
160.5504736304282
 30
0.0
 11
104.90064918994889
 21
160.5504736304282
 31
0.0
  0
LINE
  5
1334
  8
0
 10
123.70000019436689
 20
168.96737590432161
 30
0.0
 11
123.70000019436689
 21
180.96737600862971
 31
0.0
  0
LINE
  5
1335
  8
0
 10
124.0000002086161
 20
169.467375986278
 30
0.0
 11
124.0000002086161
 21
180.4673759266733
 31
0.0
  0
LINE
  5
1336
  8
0
 10
111.0533507540821
 20
189.65761121362439
 30
0.0
 11
110.4760006070136
 21
188.5605616495013
 31
0.0
  0
LINE
  5
1338
  8
0
 10
110.4760006070136
 20
188.9673763886093
 30
0.0
 11
111.0533507540821
 21
189.95650149881831
 31
0.0
  0
LINE
  5
1339
  8
0
 10
111.0533507540821
 20
189.95650149881831
 30
0.0
 11
111.0533507540821
 21
189.65761121362439
 31
0.0
  0
LINE
  5
133A
  8
0
 10
106.055351346731
 20
189.65761121362439
 30
0.0
 11
105.47800026834
 21
188.5605616495013
 31
0.0
  0
LINE
  5
133C
  8
0
 10
105.47800026834
 20
188.9673763886093
 30
0.0
 11
106.055351346731
 21
189.95650149881831
 31
0.0
  0
LINE
  5
133D
  8
0
 10
106.055351346731
 20
189.95650149881831
 30
0.0
 11
106.055351346731
 21
189.65761121362439
 31
0.0
  0
LINE
  5
133E
  8
0
 10
112.9749998450278
 20
188.5605616495013
 30
0.0
 11
112.3976496979593
 21
189.65761121362439
 31
0.0
  0
LINE
  5
133F
  8
0
 10
112.3976496979593
 20
189.65761121362439
 30
0.0
 11
112.3976496979593
 21
189.95650149881831
 31
0.0
  0
LINE
  5
1340
  8
0
 10
112.3976496979593
 20
189.95650149881831
 30
0.0
 11
112.9749998450278
 21
188.9673763886093
 31
0.0
  0
LINE
  5
1342
  8
0
 10
107.9769995063542
 20
188.5605616495013
 30
0.0
 11
107.39965029060831
 21
189.65761121362439
 31
0.0
  0
LINE
  5
1343
  8
0
 10
107.39965029060831
 20
189.65761121362439
 30
0.0
 11
107.39965029060831
 21
189.95650149881831
 31
0.0
  0
LINE
  5
1344
  8
0
 10
107.39965029060831
 20
189.95650149881831
 30
0.0
 11
107.9769995063542
 21
188.9673763886093
 31
0.0
  0
LINE
  5
1346
  8
0
 10
105.47800026834
 20
188.5605616495013
 30
0.0
 11
104.90064918994889
 21
189.65761121362439
 31
0.0
  0
LINE
  5
1347
  8
0
 10
104.90064918994889
 20
189.65761121362439
 30
0.0
 11
104.90064918994889
 21
189.95650149881831
 31
0.0
  0
LINE
  5
1348
  8
0
 10
104.90064918994889
 20
189.95650149881831
 30
0.0
 11
105.47800026834
 21
188.9673763886093
 31
0.0
  0
LINE
  5
1349
  8
0
 10
108.55435058474529
 20
189.65761121362439
 30
0.0
 11
107.9769995063542
 21
188.5605616495013
 31
0.0
  0
LINE
  5
134A
  8
0
 10
107.9769995063542
 20
188.9673763886093
 30
0.0
 11
108.55435058474529
 21
189.95650149881831
 31
0.0
  0
LINE
  5
134B
  8
0
 10
108.55435058474529
 20
189.95650149881831
 30
0.0
 11
108.55435058474529
 21
189.65761121362439
 31
0.0
  0
LINE
  5
134C
  8
0
 10
110.4760006070136
 20
188.5605616495013
 30
0.0
 11
109.8986495286225
 21
189.65761121362439
 31
0.0
  0
LINE
  5
134D
  8
0
 10
109.8986495286225
 20
189.65761121362439
 30
0.0
 11
109.8986495286225
 21
189.95650149881831
 31
0.0
  0
LINE
  5
134E
  8
0
 10
109.8986495286225
 20
189.95650149881831
 30
0.0
 11
110.4760006070136
 21
188.9673763886093
 31
0.0
  0
LINE
  5
134F
  8
0
 10
108.55435058474529
 20
189.65761121362439
 30
0.0
 11
109.8986495286225
 21
189.65761121362439
 31
0.0
  0
LINE
  5
1350
  8
0
 10
106.055351346731
 20
189.65761121362439
 30
0.0
 11
107.39965029060831
 21
189.65761121362439
 31
0.0
  0
LINE
  5
1351
  8
0
 10
111.0533507540821
 20
189.65761121362439
 30
0.0
 11
112.3976496979593
 21
189.65761121362439
 31
0.0
  0
LINE
  5
1352
  8
0
 10
103.5563502460717
 20
189.65761121362439
 30
0.0
 11
102.9790010303258
 21
188.5605616495013
 31
0.0
  0
LINE
  5
1353
  8
0
 10
103.5563502460717
 20
189.65761121362439
 30
0.0
 11
104.90064918994889
 21
189.65761121362439
 31
0.0
  0
LINE
  5
1354
  8
0
 10
101.05735100805749
 20
189.65761121362439
 30
0.0
 11
100.47999992966641
 21
188.5605616495013
 31
0.0
  0
LINE
  5
1355
  8
0
 10
100.47999992966641
 20
188.9673763886093
 30
0.0
 11
101.05735100805749
 21
189.95650149881831
 31
0.0
  0
LINE
  5
1356
  8
0
 10
101.05735100805749
 20
189.95650149881831
 30
0.0
 11
101.05735100805749
 21
189.65761121362439
 31
0.0
  0
LINE
  5
1358
  8
0
 10
102.9790010303258
 20
188.5605616495013
 30
0.0
 11
102.4016499519347
 21
189.65761121362439
 31
0.0
  0
LINE
  5
1359
  8
0
 10
102.4016499519347
 20
189.65761121362439
 30
0.0
 11
102.4016499519347
 21
189.95650149881831
 31
0.0
  0
LINE
  5
135A
  8
0
 10
102.4016499519347
 20
189.95650149881831
 30
0.0
 11
102.9790010303258
 21
188.9673763886093
 31
0.0
  0
LINE
  5
135C
  8
0
 10
102.9790010303258
 20
188.9673763886093
 30
0.0
 11
103.5563502460717
 21
189.95650149881831
 31
0.0
  0
LINE
  5
135D
  8
0
 10
103.5563502460717
 20
189.95650149881831
 30
0.0
 11
103.5563502460717
 21
189.65761121362439
 31
0.0
  0
LINE
  5
135E
  8
0
 10
101.05735100805749
 20
189.65761121362439
 30
0.0
 11
102.4016499519347
 21
189.65761121362439
 31
0.0
  0
LINE
  5
135F
  8
0
 10
100.47999992966641
 20
161.37419026345009
 30
0.0
 11
101.05735100805749
 21
160.27714069932691
 31
0.0
  0
LINE
  5
1360
  8
0
 10
102.4016499519347
 20
160.27714069932691
 30
0.0
 11
102.9790010303258
 21
161.37419026345009
 31
0.0
  0
LINE
  5
1361
  8
0
 10
101.05735100805749
 20
160.27714069932691
 30
0.0
 11
102.4016499519347
 21
160.27714069932691
 31
0.0
  0
LINE
  5
1362
  8
0
 10
101.05735100805749
 20
160.27714069932691
 30
0.0
 11
101.05735100805749
 21
159.97825041413299
 31
0.0
  0
LINE
  5
1363
  8
0
 10
101.05735100805749
 20
159.97825041413299
 30
0.0
 11
100.47999992966641
 21
160.967375524342
 31
0.0
  0
LINE
  5
1364
  8
0
 10
100.47999992966641
 20
160.967375524342
 30
0.0
 11
100.47999992966641
 21
188.9673763886093
 31
0.0
  0
LINE
  5
1365
  8
0
 10
102.9790010303258
 20
160.967375524342
 30
0.0
 11
102.9790010303258
 21
188.9673763886093
 31
0.0
  0
LINE
  5
1366
  8
0
 10
102.9790010303258
 20
160.967375524342
 30
0.0
 11
102.4016499519347
 21
159.97825041413299
 31
0.0
  0
LINE
  5
1367
  8
0
 10
102.4016499519347
 20
159.97825041413299
 30
0.0
 11
102.4016499519347
 21
160.27714069932691
 31
0.0
  0
LINE
  5
1368
  8
0
 10
102.9790010303258
 20
161.37419026345009
 30
0.0
 11
103.5563502460717
 21
160.27714069932691
 31
0.0
  0
LINE
  5
1369
  8
0
 10
103.5563502460717
 20
160.27714069932691
 30
0.0
 11
103.5563502460717
 21
159.97825041413299
 31
0.0
  0
LINE
  5
136A
  8
0
 10
103.5563502460717
 20
159.97825041413299
 30
0.0
 11
102.9790010303258
 21
160.967375524342
 31
0.0
  0
LINE
  5
136B
  8
0
 10
104.90064918994889
 20
160.27714069932691
 30
0.0
 11
105.47800026834
 21
161.37419026345009
 31
0.0
  0
LINE
  5
136C
  8
0
 10
103.5563502460717
 20
160.27714069932691
 30
0.0
 11
104.90064918994889
 21
160.27714069932691
 31
0.0
  0
LINE
  5
136D
  8
0
 10
105.47800026834
 20
161.37419026345009
 30
0.0
 11
106.055351346731
 21
160.27714069932691
 31
0.0
  0
LINE
  5
136E
  8
0
 10
106.055351346731
 20
160.27714069932691
 30
0.0
 11
106.055351346731
 21
159.97825041413299
 31
0.0
  0
LINE
  5
136F
  8
0
 10
106.055351346731
 20
159.97825041413299
 30
0.0
 11
105.47800026834
 21
160.967375524342
 31
0.0
  0
LINE
  5
1370
  8
0
 10
105.47800026834
 20
160.967375524342
 30
0.0
 11
105.47800026834
 21
188.9673763886093
 31
0.0
  0
LINE
  5
1371
  8
0
 10
107.39965029060831
 20
160.27714069932691
 30
0.0
 11
107.9769995063542
 21
161.37419026345009
 31
0.0
  0
LINE
  5
1372
  8
0
 10
106.055351346731
 20
160.27714069932691
 30
0.0
 11
107.39965029060831
 21
160.27714069932691
 31
0.0
  0
LINE
  5
1373
  8
0
 10
105.47800026834
 20
160.967375524342
 30
0.0
 11
104.90064918994889
 21
159.97825041413299
 31
0.0
  0
LINE
  5
1374
  8
0
 10
104.90064918994889
 20
159.97825041413299
 30
0.0
 11
104.90064918994889
 21
160.27714069932691
 31
0.0
  0
LINE
  5
1375
  8
0
 10
110.4760006070136
 20
161.37419026345009
 30
0.0
 11
111.0533507540821
 21
160.27714069932691
 31
0.0
  0
LINE
  5
1376
  8
0
 10
112.3976496979593
 20
160.27714069932691
 30
0.0
 11
112.9749998450278
 21
161.37419026345009
 31
0.0
  0
LINE
  5
1377
  8
0
 10
111.0533507540821
 20
160.27714069932691
 30
0.0
 11
112.3976496979593
 21
160.27714069932691
 31
0.0
  0
LINE
  5
1378
  8
0
 10
107.9769995063542
 20
161.37419026345009
 30
0.0
 11
108.55435058474529
 21
160.27714069932691
 31
0.0
  0
LINE
  5
1379
  8
0
 10
109.8986495286225
 20
160.27714069932691
 30
0.0
 11
110.4760006070136
 21
161.37419026345009
 31
0.0
  0
LINE
  5
137A
  8
0
 10
108.55435058474529
 20
160.27714069932691
 30
0.0
 11
109.8986495286225
 21
160.27714069932691
 31
0.0
  0
LINE
  5
137B
  8
0
 10
108.55435058474529
 20
160.27714069932691
 30
0.0
 11
108.55435058474529
 21
159.97825041413299
 31
0.0
  0
LINE
  5
137C
  8
0
 10
108.55435058474529
 20
159.97825041413299
 30
0.0
 11
107.9769995063542
 21
160.967375524342
 31
0.0
  0
LINE
  5
137D
  8
0
 10
107.9769995063542
 20
160.967375524342
 30
0.0
 11
107.9769995063542
 21
188.9673763886093
 31
0.0
  0
LINE
  5
137E
  8
0
 10
112.9749998450278
 20
160.967375524342
 30
0.0
 11
112.3976496979593
 21
159.97825041413299
 31
0.0
  0
LINE
  5
137F
  8
0
 10
112.3976496979593
 20
159.97825041413299
 30
0.0
 11
112.3976496979593
 21
160.27714069932691
 31
0.0
  0
LINE
  5
1380
  8
0
 10
112.9749998450278
 20
160.967375524342
 30
0.0
 11
112.9749998450278
 21
188.9673763886093
 31
0.0
  0
LINE
  5
1381
  8
0
 10
107.9769995063542
 20
160.967375524342
 30
0.0
 11
107.39965029060831
 21
159.97825041413299
 31
0.0
  0
LINE
  5
1382
  8
0
 10
107.39965029060831
 20
159.97825041413299
 30
0.0
 11
107.39965029060831
 21
160.27714069932691
 31
0.0
  0
LINE
  5
1383
  8
0
 10
111.0533507540821
 20
160.27714069932691
 30
0.0
 11
111.0533507540821
 21
159.97825041413299
 31
0.0
  0
LINE
  5
1384
  8
0
 10
111.0533507540821
 20
159.97825041413299
 30
0.0
 11
110.4760006070136
 21
160.967375524342
 31
0.0
  0
LINE
  5
1385
  8
0
 10
110.4760006070136
 20
160.967375524342
 30
0.0
 11
110.4760006070136
 21
188.9673763886093
 31
0.0
  0
LINE
  5
1386
  8
0
 10
110.4760006070136
 20
160.967375524342
 30
0.0
 11
109.8986495286225
 21
159.97825041413299
 31
0.0
  0
LINE
  5
1387
  8
0
 10
109.8986495286225
 20
159.97825041413299
 30
0.0
 11
109.8986495286225
 21
160.27714069932691
 31
0.0
  0
LINE
  5
1388
  8
0
 10
111.0533507540821
 20
189.95650149881831
 30
0.0
 11
112.3976496979593
 21
189.95650149881831
 31
0.0
  0
LINE
  5
1389
  8
0
 10
106.055351346731
 20
189.95650149881831
 30
0.0
 11
107.39965029060831
 21
189.95650149881831
 31
0.0
  0
LINE
  5
138A
  8
0
 10
103.5563502460717
 20
189.95650149881831
 30
0.0
 11
104.90064918994889
 21
189.95650149881831
 31
0.0
  0
LINE
  5
138B
  8
0
 10
108.55435058474529
 20
189.95650149881831
 30
0.0
 11
109.8986495286225
 21
189.95650149881831
 31
0.0
  0
LINE
  5
138C
  8
0
 10
101.05735100805749
 20
189.95650149881831
 30
0.0
 11
102.4016499519347
 21
189.95650149881831
 31
0.0
  0
LINE
  5
138D
  8
0
 10
106.055351346731
 20
159.97825041413299
 30
0.0
 11
107.39965029060831
 21
159.97825041413299
 31
0.0
  0
LINE
  5
138E
  8
0
 10
111.0533507540821
 20
159.97825041413299
 30
0.0
 11
112.3976496979593
 21
159.97825041413299
 31
0.0
  0
LINE
  5
138F
  8
0
 10
101.05735100805749
 20
159.97825041413299
 30
0.0
 11
102.4016499519347
 21
159.97825041413299
 31
0.0
  0
LINE
  5
1390
  8
0
 10
103.5563502460717
 20
159.97825041413299
 30
0.0
 11
104.90064918994889
 21
159.97825041413299
 31
0.0
  0
LINE
  5
1391
  8
0
 10
108.55435058474529
 20
159.97825041413299
 30
0.0
 11
109.8986495286225
 21
159.97825041413299
 31
0.0
  0
LINE
  5
13DE
  8
0
 10
99.999999999999886
 20
41.599125564098372
 30
0.0
 11
100.47999992966641
 21
41.599125564098372
 31
0.0
  0
LINE
  5
13DF
  8
0
 10
100.47999992966641
 20
68.379125520586953
 30
0.0
 11
99.999999999999886
 21
68.379125520586953
 31
0.0
  0
LINE
  5
13E0
  8
0
 10
112.9749998450278
 20
41.599125564098372
 30
0.0
 11
113.5000003501771
 21
41.599125564098372
 31
0.0
  0
LINE
  5
13E1
  8
0
 10
113.5000003501771
 20
68.379125520586953
 30
0.0
 11
112.9749998450278
 21
68.379125520586953
 31
0.0
  0
LINE
  5
13E2
  8
0
 10
113.5000003501771
 20
41.989125274121768
 30
0.0
 11
123.3700001845135
 21
41.989125274121768
 31
0.0
  0
LINE
  5
13E3
  8
0
 10
123.3700001845135
 20
67.989125810563564
 30
0.0
 11
113.5000003501771
 21
67.989125810563564
 31
0.0
  0
LINE
  5
13E4
  8
0
 10
123.3700001845135
 20
48.989125490188592
 30
0.0
 11
123.70000019436689
 21
48.989125490188592
 31
0.0
  0
LINE
  5
13E5
  8
0
 10
123.70000019436689
 20
60.98912559449672
 30
0.0
 11
123.3700001845135
 21
60.98912559449672
 31
0.0
  0
LINE
  5
13E6
  8
0
 10
123.70000019436689
 20
49.489125572144978
 30
0.0
 11
124.0000002086161
 21
49.489125572144978
 31
0.0
  0
LINE
  5
13E7
  8
0
 10
124.0000002086161
 20
60.48912551254034
 30
0.0
 11
123.70000019436689
 21
60.48912551254034
 31
0.0
  0
LINE
  5
13E8
  8
0
 10
112.3976496979593
 20
53.74929409939795
 30
0.0
 11
112.3976496979593
 21
56.228956985287361
 31
0.0
  0
LINE
  5
13E9
  8
0
 10
112.3976496979593
 20
56.228956985287361
 30
0.0
 11
112.9749998450278
 21
56.676639090292149
 31
0.0
  0
LINE
  5
13EB
  8
0
 10
112.9749998450278
 20
53.301611994393163
 30
0.0
 11
112.3976496979593
 21
53.74929409939795
 31
0.0
  0
LINE
  5
13EC
  8
0
 10
105.47800026834
 20
53.301611994393163
 30
0.0
 11
104.90064918994889
 21
53.74929409939795
 31
0.0
  0
LINE
  5
13ED
  8
0
 10
104.90064918994889
 20
53.74929409939795
 30
0.0
 11
104.90064918994889
 21
56.228956985287361
 31
0.0
  0
LINE
  5
13EE
  8
0
 10
104.90064918994889
 20
56.228956985287361
 30
0.0
 11
105.47800026834
 21
56.676639090292149
 31
0.0
  0
LINE
  5
13F0
  8
0
 10
102.9790010303258
 20
53.301611994393163
 30
0.0
 11
102.4016499519347
 21
53.74929409939795
 31
0.0
  0
LINE
  5
13F1
  8
0
 10
102.4016499519347
 20
53.74929409939795
 30
0.0
 11
102.4016499519347
 21
56.228956985287361
 31
0.0
  0
LINE
  5
13F2
  8
0
 10
102.4016499519347
 20
56.228956985287361
 30
0.0
 11
102.9790010303258
 21
56.676639090292149
 31
0.0
  0
LINE
  5
13F4
  8
0
 10
110.4760006070136
 20
53.301611994393163
 30
0.0
 11
109.8986495286225
 21
53.74929409939795
 31
0.0
  0
LINE
  5
13F5
  8
0
 10
109.8986495286225
 20
53.74929409939795
 30
0.0
 11
109.8986495286225
 21
56.228956985287361
 31
0.0
  0
LINE
  5
13F6
  8
0
 10
109.8986495286225
 20
56.228956985287361
 30
0.0
 11
110.4760006070136
 21
56.676639090292149
 31
0.0
  0
LINE
  5
13F8
  8
0
 10
107.9769995063542
 20
53.301611994393163
 30
0.0
 11
107.39965029060831
 21
53.74929409939795
 31
0.0
  0
LINE
  5
13F9
  8
0
 10
107.39965029060831
 20
53.74929409939795
 30
0.0
 11
107.39965029060831
 21
56.228956985287361
 31
0.0
  0
LINE
  5
13FA
  8
0
 10
107.39965029060831
 20
56.228956985287361
 30
0.0
 11
107.9769995063542
 21
56.676639090292149
 31
0.0
  0
LINE
  5
13FC
  8
0
 10
108.55435058474529
 20
53.74929409939795
 30
0.0
 11
107.9769995063542
 21
53.301611994393163
 31
0.0
  0
LINE
  5
13FD
  8
0
 10
107.9769995063542
 20
56.676639090292149
 30
0.0
 11
108.55435058474529
 21
56.228956985287361
 31
0.0
  0
LINE
  5
13FE
  8
0
 10
108.55435058474529
 20
56.228956985287361
 30
0.0
 11
108.55435058474529
 21
53.74929409939795
 31
0.0
  0
LINE
  5
13FF
  8
0
 10
101.05735100805749
 20
53.74929409939795
 30
0.0
 11
100.47999992966641
 21
53.301611994393163
 31
0.0
  0
LINE
  5
1401
  8
0
 10
100.47999992966641
 20
56.676639090292149
 30
0.0
 11
101.05735100805749
 21
56.228956985287361
 31
0.0
  0
LINE
  5
1402
  8
0
 10
101.05735100805749
 20
56.228956985287361
 30
0.0
 11
101.05735100805749
 21
53.74929409939795
 31
0.0
  0
LINE
  5
1403
  8
0
 10
106.055351346731
 20
53.74929409939795
 30
0.0
 11
105.47800026834
 21
53.301611994393163
 31
0.0
  0
LINE
  5
1404
  8
0
 10
105.47800026834
 20
56.676639090292149
 30
0.0
 11
106.055351346731
 21
56.228956985287361
 31
0.0
  0
LINE
  5
1405
  8
0
 10
106.055351346731
 20
56.228956985287361
 30
0.0
 11
106.055351346731
 21
53.74929409939795
 31
0.0
  0
LINE
  5
1406
  8
0
 10
103.5563502460717
 20
53.74929409939795
 30
0.0
 11
102.9790010303258
 21
53.301611994393163
 31
0.0
  0
LINE
  5
1407
  8
0
 10
102.9790010303258
 20
56.676639090292149
 30
0.0
 11
103.5563502460717
 21
56.228956985287361
 31
0.0
  0
LINE
  5
1408
  8
0
 10
103.5563502460717
 20
56.228956985287361
 30
0.0
 11
103.5563502460717
 21
53.74929409939795
 31
0.0
  0
LINE
  5
1409
  8
0
 10
111.0533507540821
 20
53.74929409939795
 30
0.0
 11
110.4760006070136
 21
53.301611994393163
 31
0.0
  0
LINE
  5
140A
  8
0
 10
110.4760006070136
 20
56.676639090292149
 30
0.0
 11
111.0533507540821
 21
56.228956985287361
 31
0.0
  0
LINE
  5
140B
  8
0
 10
111.0533507540821
 20
56.228956985287361
 30
0.0
 11
111.0533507540821
 21
53.74929409939795
 31
0.0
  0
LINE
  5
140C
  8
0
 10
103.5563502460717
 20
53.74929409939795
 30
0.0
 11
104.90064918994889
 21
53.74929409939795
 31
0.0
  0
LINE
  5
140D
  8
0
 10
103.5563502460717
 20
56.228956985287361
 30
0.0
 11
104.90064918994889
 21
56.228956985287361
 31
0.0
  0
LINE
  5
140E
  8
0
 10
101.05735100805749
 20
53.74929409939795
 30
0.0
 11
102.4016499519347
 21
53.74929409939795
 31
0.0
  0
LINE
  5
140F
  8
0
 10
101.05735100805749
 20
56.228956985287361
 30
0.0
 11
102.4016499519347
 21
56.228956985287361
 31
0.0
  0
LINE
  5
1410
  8
0
 10
111.0533507540821
 20
53.74929409939795
 30
0.0
 11
112.3976496979593
 21
53.74929409939795
 31
0.0
  0
LINE
  5
1411
  8
0
 10
111.0533507540821
 20
56.228956985287361
 30
0.0
 11
112.3976496979593
 21
56.228956985287361
 31
0.0
  0
LINE
  5
1412
  8
0
 10
106.055351346731
 20
53.74929409939795
 30
0.0
 11
107.39965029060831
 21
53.74929409939795
 31
0.0
  0
LINE
  5
1413
  8
0
 10
106.055351346731
 20
56.228956985287361
 30
0.0
 11
107.39965029060831
 21
56.228956985287361
 31
0.0
  0
LINE
  5
1414
  8
0
 10
108.55435058474529
 20
53.74929409939795
 30
0.0
 11
109.8986495286225
 21
53.74929409939795
 31
0.0
  0
LINE
  5
1415
  8
0
 10
108.55435058474529
 20
56.228956985287361
 30
0.0
 11
109.8986495286225
 21
56.228956985287361
 31
0.0
  0
LINE
  5
1419
  8
0
 10
100.47999992966631
 20
56.676639090292149
 30
0.0
 11
112.9749998450278
 21
56.676639090292149
 31
0.0
  0
LINE
  5
141B
  8
0
 10
100.47999992966631
 20
53.301611994393163
 30
0.0
 11
112.9749998450278
 21
53.301611994393163
 31
0.0
  0
LINE
  5
1420
  8
0
 10
110.4760006070136
 20
56.676639090292149
 30
0.0
 11
109.8986495286225
 21
57.362772952765219
 31
0.0
  0
LINE
  5
1421
  8
0
 10
109.8986495286225
 20
57.362772952765219
 30
0.0
 11
109.8986495286225
 21
59.770381040871143
 31
0.0
  0
LINE
  5
1422
  8
0
 10
109.8986495286225
 20
59.770381040871143
 30
0.0
 11
110.4760006070136
 21
59.953594077378511
 31
0.0
  0
LINE
  5
1424
  8
0
 10
107.9769995063542
 20
56.676639090292149
 30
0.0
 11
107.39965029060831
 21
57.362772952765219
 31
0.0
  0
LINE
  5
1425
  8
0
 10
107.39965029060831
 20
57.362772952765219
 30
0.0
 11
107.39965029060831
 21
59.770381040871143
 31
0.0
  0
LINE
  5
1426
  8
0
 10
107.39965029060831
 20
59.770381040871143
 30
0.0
 11
107.9769995063542
 21
59.953594077378511
 31
0.0
  0
LINE
  5
1428
  8
0
 10
103.5563502460717
 20
57.362772952765219
 30
0.0
 11
102.9790010303258
 21
56.676639090292149
 31
0.0
  0
LINE
  5
142A
  8
0
 10
102.9790010303258
 20
59.953594077378511
 30
0.0
 11
103.5563502460717
 21
59.770381040871143
 31
0.0
  0
LINE
  5
142B
  8
0
 10
103.5563502460717
 20
59.770381040871143
 30
0.0
 11
103.5563502460717
 21
57.362772952765219
 31
0.0
  0
LINE
  5
142C
  8
0
 10
112.9749998450278
 20
56.676639090292149
 30
0.0
 11
112.3976496979593
 21
57.362772952765219
 31
0.0
  0
LINE
  5
142D
  8
0
 10
112.3976496979593
 20
57.362772952765219
 30
0.0
 11
112.3976496979593
 21
59.770381040871143
 31
0.0
  0
LINE
  5
142E
  8
0
 10
112.3976496979593
 20
59.770381040871143
 30
0.0
 11
112.9749998450278
 21
59.953594077378511
 31
0.0
  0
LINE
  5
1430
  8
0
 10
101.05735100805749
 20
57.362772952765219
 30
0.0
 11
100.47999992966641
 21
56.676639090292149
 31
0.0
  0
LINE
  5
1432
  8
0
 10
100.47999992966641
 20
59.953594077378511
 30
0.0
 11
101.05735100805749
 21
59.770381040871143
 31
0.0
  0
LINE
  5
1433
  8
0
 10
101.05735100805749
 20
59.770381040871143
 30
0.0
 11
101.05735100805749
 21
57.362772952765219
 31
0.0
  0
LINE
  5
1434
  8
0
 10
105.47800026834
 20
56.676639090292149
 30
0.0
 11
104.90064918994889
 21
57.362772952765219
 31
0.0
  0
LINE
  5
1435
  8
0
 10
104.90064918994889
 20
57.362772952765219
 30
0.0
 11
104.90064918994889
 21
59.770381040871143
 31
0.0
  0
LINE
  5
1436
  8
0
 10
104.90064918994889
 20
59.770381040871143
 30
0.0
 11
105.47800026834
 21
59.953594077378511
 31
0.0
  0
LINE
  5
1438
  8
0
 10
106.055351346731
 20
57.362772952765219
 30
0.0
 11
105.47800026834
 21
56.676639090292149
 31
0.0
  0
LINE
  5
1439
  8
0
 10
105.47800026834
 20
59.953594077378511
 30
0.0
 11
106.055351346731
 21
59.770381040871143
 31
0.0
  0
LINE
  5
143A
  8
0
 10
106.055351346731
 20
59.770381040871143
 30
0.0
 11
106.055351346731
 21
57.362772952765219
 31
0.0
  0
LINE
  5
143B
  8
0
 10
108.55435058474529
 20
57.362772952765219
 30
0.0
 11
107.9769995063542
 21
56.676639090292149
 31
0.0
  0
LINE
  5
143C
  8
0
 10
107.9769995063542
 20
59.953594077378511
 30
0.0
 11
108.55435058474529
 21
59.770381040871143
 31
0.0
  0
LINE
  5
143D
  8
0
 10
108.55435058474529
 20
59.770381040871143
 30
0.0
 11
108.55435058474529
 21
57.362772952765219
 31
0.0
  0
LINE
  5
143E
  8
0
 10
102.9790010303258
 20
56.676639090292149
 30
0.0
 11
102.4016499519347
 21
57.362772952765219
 31
0.0
  0
LINE
  5
143F
  8
0
 10
102.4016499519347
 20
57.362772952765219
 30
0.0
 11
102.4016499519347
 21
59.770381040871143
 31
0.0
  0
LINE
  5
1440
  8
0
 10
102.4016499519347
 20
59.770381040871143
 30
0.0
 11
102.9790010303258
 21
59.953594077378511
 31
0.0
  0
LINE
  5
1441
  8
0
 10
111.0533507540821
 20
57.362772952765219
 30
0.0
 11
110.4760006070136
 21
56.676639090292149
 31
0.0
  0
LINE
  5
1442
  8
0
 10
110.4760006070136
 20
59.953594077378511
 30
0.0
 11
111.0533507540821
 21
59.770381040871143
 31
0.0
  0
LINE
  5
1443
  8
0
 10
111.0533507540821
 20
59.770381040871143
 30
0.0
 11
111.0533507540821
 21
57.362772952765219
 31
0.0
  0
LINE
  5
1444
  8
0
 10
101.05735100805749
 20
59.770381040871143
 30
0.0
 11
102.4016499519347
 21
59.770381040871143
 31
0.0
  0
LINE
  5
1445
  8
0
 10
101.05735100805749
 20
57.362772952765219
 30
0.0
 11
102.4016499519347
 21
57.362772952765219
 31
0.0
  0
LINE
  5
1446
  8
0
 10
106.055351346731
 20
59.770381040871143
 30
0.0
 11
107.39965029060831
 21
59.770381040871143
 31
0.0
  0
LINE
  5
1447
  8
0
 10
106.055351346731
 20
57.362772952765219
 30
0.0
 11
107.39965029060831
 21
57.362772952765219
 31
0.0
  0
LINE
  5
1448
  8
0
 10
103.5563502460717
 20
59.770381040871143
 30
0.0
 11
104.90064918994889
 21
59.770381040871143
 31
0.0
  0
LINE
  5
1449
  8
0
 10
103.5563502460717
 20
57.362772952765219
 30
0.0
 11
104.90064918994889
 21
57.362772952765219
 31
0.0
  0
LINE
  5
144A
  8
0
 10
108.55435058474529
 20
59.770381040871143
 30
0.0
 11
109.8986495286225
 21
59.770381040871143
 31
0.0
  0
LINE
  5
144B
  8
0
 10
108.55435058474529
 20
57.362772952765219
 30
0.0
 11
109.8986495286225
 21
57.362772952765219
 31
0.0
  0
LINE
  5
144C
  8
0
 10
111.0533507540821
 20
59.770381040871143
 30
0.0
 11
112.3976496979593
 21
59.770381040871143
 31
0.0
  0
LINE
  5
144D
  8
0
 10
111.0533507540821
 20
57.362772952765219
 30
0.0
 11
112.3976496979593
 21
57.362772952765219
 31
0.0
  0
LINE
  5
144E
  8
0
 10
106.055351346731
 20
50.207870043814182
 30
0.0
 11
105.47800026834
 21
50.024657007306807
 31
0.0
  0
LINE
  5
1450
  8
0
 10
105.47800026834
 20
53.301611994393163
 30
0.0
 11
106.055351346731
 21
52.615478131920092
 31
0.0
  0
LINE
  5
1451
  8
0
 10
106.055351346731
 20
52.615478131920092
 30
0.0
 11
106.055351346731
 21
50.207870043814182
 31
0.0
  0
LINE
  5
1452
  8
0
 10
112.9749998450278
 20
50.024657007306807
 30
0.0
 11
112.3976496979593
 21
50.207870043814182
 31
0.0
  0
LINE
  5
1453
  8
0
 10
112.3976496979593
 20
50.207870043814182
 30
0.0
 11
112.3976496979593
 21
52.615478131920092
 31
0.0
  0
LINE
  5
1454
  8
0
 10
112.3976496979593
 20
52.615478131920092
 30
0.0
 11
112.9749998450278
 21
53.301611994393163
 31
0.0
  0
LINE
  5
1456
  8
0
 10
101.05735100805749
 20
50.207870043814182
 30
0.0
 11
100.47999992966641
 21
50.024657007306807
 31
0.0
  0
LINE
  5
1458
  8
0
 10
100.47999992966641
 20
53.301611994393163
 30
0.0
 11
101.05735100805749
 21
52.615478131920092
 31
0.0
  0
LINE
  5
1459
  8
0
 10
101.05735100805749
 20
52.615478131920092
 30
0.0
 11
101.05735100805749
 21
50.207870043814182
 31
0.0
  0
LINE
  5
145A
  8
0
 10
102.9790010303258
 20
53.301611994393163
 30
0.0
 11
103.5563502460717
 21
52.615478131920092
 31
0.0
  0
LINE
  5
145B
  8
0
 10
104.90064918994889
 20
52.615478131920092
 30
0.0
 11
105.47800026834
 21
53.301611994393163
 31
0.0
  0
LINE
  5
145C
  8
0
 10
103.5563502460717
 20
52.615478131920092
 30
0.0
 11
104.90064918994889
 21
52.615478131920092
 31
0.0
  0
LINE
  5
145D
  8
0
 10
110.4760006070136
 20
53.301611994393163
 30
0.0
 11
111.0533507540821
 21
52.615478131920092
 31
0.0
  0
LINE
  5
145E
  8
0
 10
111.0533507540821
 20
52.615478131920092
 30
0.0
 11
112.3976496979593
 21
52.615478131920092
 31
0.0
  0
LINE
  5
145F
  8
0
 10
108.55435058474529
 20
50.207870043814182
 30
0.0
 11
107.9769995063542
 21
50.024657007306807
 31
0.0
  0
LINE
  5
1461
  8
0
 10
107.9769995063542
 20
53.301611994393163
 30
0.0
 11
108.55435058474529
 21
52.615478131920092
 31
0.0
  0
LINE
  5
1462
  8
0
 10
108.55435058474529
 20
52.615478131920092
 30
0.0
 11
108.55435058474529
 21
50.207870043814182
 31
0.0
  0
LINE
  5
1463
  8
0
 10
103.5563502460717
 20
50.207870043814182
 30
0.0
 11
102.9790010303258
 21
50.024657007306807
 31
0.0
  0
LINE
  5
1465
  8
0
 10
103.5563502460717
 20
52.615478131920092
 30
0.0
 11
103.5563502460717
 21
50.207870043814182
 31
0.0
  0
LINE
  5
1466
  8
0
 10
109.8986495286225
 20
52.615478131920092
 30
0.0
 11
110.4760006070136
 21
53.301611994393163
 31
0.0
  0
LINE
  5
1467
  8
0
 10
108.55435058474529
 20
52.615478131920092
 30
0.0
 11
109.8986495286225
 21
52.615478131920092
 31
0.0
  0
LINE
  5
1468
  8
0
 10
111.0533507540821
 20
50.207870043814182
 30
0.0
 11
110.4760006070136
 21
50.024657007306807
 31
0.0
  0
LINE
  5
146A
  8
0
 10
111.0533507540821
 20
52.615478131920092
 30
0.0
 11
111.0533507540821
 21
50.207870043814182
 31
0.0
  0
LINE
  5
146B
  8
0
 10
105.47800026834
 20
50.024657007306807
 30
0.0
 11
104.90064918994889
 21
50.207870043814182
 31
0.0
  0
LINE
  5
146C
  8
0
 10
104.90064918994889
 20
50.207870043814182
 30
0.0
 11
104.90064918994889
 21
52.615478131920092
 31
0.0
  0
LINE
  5
146D
  8
0
 10
107.9769995063542
 20
50.024657007306807
 30
0.0
 11
107.39965029060831
 21
50.207870043814182
 31
0.0
  0
LINE
  5
146E
  8
0
 10
107.39965029060831
 20
50.207870043814182
 30
0.0
 11
107.39965029060831
 21
52.615478131920092
 31
0.0
  0
LINE
  5
146F
  8
0
 10
107.39965029060831
 20
52.615478131920092
 30
0.0
 11
107.9769995063542
 21
53.301611994393163
 31
0.0
  0
LINE
  5
1470
  8
0
 10
102.9790010303258
 20
50.024657007306807
 30
0.0
 11
102.4016499519347
 21
50.207870043814182
 31
0.0
  0
LINE
  5
1471
  8
0
 10
102.4016499519347
 20
50.207870043814182
 30
0.0
 11
102.4016499519347
 21
52.615478131920092
 31
0.0
  0
LINE
  5
1472
  8
0
 10
102.4016499519347
 20
52.615478131920092
 30
0.0
 11
102.9790010303258
 21
53.301611994393163
 31
0.0
  0
LINE
  5
1473
  8
0
 10
110.4760006070136
 20
50.024657007306807
 30
0.0
 11
109.8986495286225
 21
50.207870043814182
 31
0.0
  0
LINE
  5
1474
  8
0
 10
109.8986495286225
 20
50.207870043814182
 30
0.0
 11
109.8986495286225
 21
52.615478131920092
 31
0.0
  0
LINE
  5
1475
  8
0
 10
106.055351346731
 20
52.615478131920092
 30
0.0
 11
107.39965029060831
 21
52.615478131920092
 31
0.0
  0
LINE
  5
1476
  8
0
 10
101.05735100805749
 20
52.615478131920092
 30
0.0
 11
102.4016499519347
 21
52.615478131920092
 31
0.0
  0
LINE
  5
1477
  8
0
 10
111.0533507540821
 20
50.207870043814182
 30
0.0
 11
112.3976496979593
 21
50.207870043814182
 31
0.0
  0
LINE
  5
1478
  8
0
 10
106.055351346731
 20
50.207870043814182
 30
0.0
 11
107.39965029060831
 21
50.207870043814182
 31
0.0
  0
LINE
  5
1479
  8
0
 10
108.55435058474529
 20
50.207870043814182
 30
0.0
 11
109.8986495286225
 21
50.207870043814182
 31
0.0
  0
LINE
  5
147A
  8
0
 10
103.5563502460717
 20
50.207870043814182
 30
0.0
 11
104.90064918994889
 21
50.207870043814182
 31
0.0
  0
LINE
  5
147B
  8
0
 10
101.05735100805749
 20
50.207870043814182
 30
0.0
 11
102.4016499519347
 21
50.207870043814182
 31
0.0
  0
LINE
  5
147D
  8
0
 10
100.47999992966631
 20
59.953594077378497
 30
0.0
 11
112.9749998450278
 21
59.953594077378511
 31
0.0
  0
LINE
  5
1485
  8
0
 10
100.47999992966631
 20
50.0246570073068
 30
0.0
 11
112.9749998450278
 21
50.024657007306807
 31
0.0
  0
LINE
  5
1486
  8
0
 10
105.47800026834
 20
59.953594077378511
 30
0.0
 11
104.90064918994889
 21
60.838303957134478
 31
0.0
  0
LINE
  5
1487
  8
0
 10
104.90064918994889
 20
60.838303957134478
 30
0.0
 11
104.90064918994889
 21
63.033936507999911
 31
0.0
  0
LINE
  5
1488
  8
0
 10
104.90064918994889
 20
63.033936507999911
 30
0.0
 11
105.47800026834
 21
62.942031733691707
 31
0.0
  0
LINE
  5
148A
  8
0
 10
108.55435058474529
 20
60.838303957134478
 30
0.0
 11
107.9769995063542
 21
59.953594077378511
 31
0.0
  0
LINE
  5
148C
  8
0
 10
107.9769995063542
 20
62.942031733691707
 30
0.0
 11
108.55435058474529
 21
63.033936507999911
 31
0.0
  0
LINE
  5
148D
  8
0
 10
108.55435058474529
 20
63.033936507999911
 30
0.0
 11
108.55435058474529
 21
60.838303957134478
 31
0.0
  0
LINE
  5
148E
  8
0
 10
111.0533507540821
 20
60.838303957134478
 30
0.0
 11
110.4760006070136
 21
59.953594077378511
 31
0.0
  0
LINE
  5
1490
  8
0
 10
110.4760006070136
 20
62.942031733691707
 30
0.0
 11
111.0533507540821
 21
63.033936507999911
 31
0.0
  0
LINE
  5
1491
  8
0
 10
111.0533507540821
 20
63.033936507999911
 30
0.0
 11
111.0533507540821
 21
60.838303957134478
 31
0.0
  0
LINE
  5
1492
  8
0
 10
101.05735100805749
 20
63.033936507999911
 30
0.0
 11
101.05735100805749
 21
60.838303957134478
 31
0.0
  0
LINE
  5
1493
  8
0
 10
101.05735100805749
 20
63.033936507999911
 30
0.0
 11
102.4016499519347
 21
63.033936507999911
 31
0.0
  0
LINE
  5
1494
  8
0
 10
102.4016499519347
 20
60.838303957134478
 30
0.0
 11
102.4016499519347
 21
63.033936507999911
 31
0.0
  0
LINE
  5
1495
  8
0
 10
101.05735100805749
 20
60.838303957134478
 30
0.0
 11
102.4016499519347
 21
60.838303957134478
 31
0.0
  0
LINE
  5
1496
  8
0
 10
107.9769995063542
 20
59.953594077378511
 30
0.0
 11
107.39965029060831
 21
60.838303957134478
 31
0.0
  0
LINE
  5
1497
  8
0
 10
107.39965029060831
 20
60.838303957134478
 30
0.0
 11
107.39965029060831
 21
63.033936507999911
 31
0.0
  0
LINE
  5
1498
  8
0
 10
107.39965029060831
 20
63.033936507999911
 30
0.0
 11
107.9769995063542
 21
62.942031733691707
 31
0.0
  0
LINE
  5
1499
  8
0
 10
110.4760006070136
 20
59.953594077378511
 30
0.0
 11
109.8986495286225
 21
60.838303957134478
 31
0.0
  0
LINE
  5
149A
  8
0
 10
109.8986495286225
 20
60.838303957134478
 30
0.0
 11
109.8986495286225
 21
63.033936507999911
 31
0.0
  0
LINE
  5
149B
  8
0
 10
109.8986495286225
 20
63.033936507999911
 30
0.0
 11
110.4760006070136
 21
62.942031733691707
 31
0.0
  0
LINE
  5
149C
  8
0
 10
111.0533507540821
 20
63.033936507999911
 30
0.0
 11
112.3976496979593
 21
63.033936507999911
 31
0.0
  0
LINE
  5
149D
  8
0
 10
112.3976496979593
 20
60.838303957134478
 30
0.0
 11
112.3976496979593
 21
63.033936507999911
 31
0.0
  0
LINE
  5
149E
  8
0
 10
111.0533507540821
 20
60.838303957134478
 30
0.0
 11
112.3976496979593
 21
60.838303957134478
 31
0.0
  0
LINE
  5
149F
  8
0
 10
106.055351346731
 20
60.838303957134478
 30
0.0
 11
105.47800026834
 21
59.953594077378511
 31
0.0
  0
LINE
  5
14A0
  8
0
 10
105.47800026834
 20
62.942031733691707
 30
0.0
 11
106.055351346731
 21
63.033936507999911
 31
0.0
  0
LINE
  5
14A1
  8
0
 10
106.055351346731
 20
63.033936507999911
 30
0.0
 11
106.055351346731
 21
60.838303957134478
 31
0.0
  0
LINE
  5
14A2
  8
0
 10
103.5563502460717
 20
63.033936507999911
 30
0.0
 11
103.5563502460717
 21
60.838303957134478
 31
0.0
  0
LINE
  5
14A3
  8
0
 10
103.5563502460717
 20
63.033936507999911
 30
0.0
 11
104.90064918994889
 21
63.033936507999911
 31
0.0
  0
LINE
  5
14A4
  8
0
 10
103.5563502460717
 20
60.838303957134478
 30
0.0
 11
104.90064918994889
 21
60.838303957134478
 31
0.0
  0
LINE
  5
14A5
  8
0
 10
102.9790010303258
 20
59.953594077378511
 30
0.0
 11
102.4016499519347
 21
60.838303957134478
 31
0.0
  0
LINE
  5
14A6
  8
0
 10
102.4016499519347
 20
63.033936507999911
 30
0.0
 11
102.9790010303258
 21
62.942031733691707
 31
0.0
  0
LINE
  5
14A8
  8
0
 10
106.055351346731
 20
63.033936507999911
 30
0.0
 11
107.39965029060831
 21
63.033936507999911
 31
0.0
  0
LINE
  5
14A9
  8
0
 10
106.055351346731
 20
60.838303957134478
 30
0.0
 11
107.39965029060831
 21
60.838303957134478
 31
0.0
  0
LINE
  5
14AA
  8
0
 10
112.9749998450278
 20
59.953594077378511
 30
0.0
 11
112.3976496979593
 21
60.838303957134478
 31
0.0
  0
LINE
  5
14AB
  8
0
 10
112.3976496979593
 20
63.033936507999911
 30
0.0
 11
112.9749998450278
 21
62.942031733691707
 31
0.0
  0
LINE
  5
14AD
  8
0
 10
101.05735100805749
 20
60.838303957134478
 30
0.0
 11
100.47999992966641
 21
59.953594077378511
 31
0.0
  0
LINE
  5
14AE
  8
0
 10
100.47999992966641
 20
62.942031733691707
 30
0.0
 11
101.05735100805749
 21
63.033936507999911
 31
0.0
  0
LINE
  5
14B0
  8
0
 10
108.55435058474529
 20
63.033936507999911
 30
0.0
 11
109.8986495286225
 21
63.033936507999911
 31
0.0
  0
LINE
  5
14B1
  8
0
 10
108.55435058474529
 20
60.838303957134478
 30
0.0
 11
109.8986495286225
 21
60.838303957134478
 31
0.0
  0
LINE
  5
14B2
  8
0
 10
103.5563502460717
 20
60.838303957134478
 30
0.0
 11
102.9790010303258
 21
59.953594077378511
 31
0.0
  0
LINE
  5
14B3
  8
0
 10
102.9790010303258
 20
62.942031733691707
 30
0.0
 11
103.5563502460717
 21
63.033936507999911
 31
0.0
  0
LINE
  5
14B4
  8
0
 10
112.9749998450278
 20
47.036219350993647
 30
0.0
 11
112.3976496979593
 21
46.944314576685443
 31
0.0
  0
LINE
  5
14B5
  8
0
 10
112.3976496979593
 20
46.944314576685443
 30
0.0
 11
112.3976496979593
 21
49.13994712755084
 31
0.0
  0
LINE
  5
14B6
  8
0
 10
112.3976496979593
 20
49.13994712755084
 30
0.0
 11
112.9749998450278
 21
50.024657007306807
 31
0.0
  0
LINE
  5
14B8
  8
0
 10
108.55435058474529
 20
46.944314576685443
 30
0.0
 11
107.9769995063542
 21
47.036219350993647
 31
0.0
  0
LINE
  5
14BA
  8
0
 10
107.9769995063542
 20
50.024657007306807
 30
0.0
 11
108.55435058474529
 21
49.13994712755084
 31
0.0
  0
LINE
  5
14BB
  8
0
 10
108.55435058474529
 20
49.13994712755084
 30
0.0
 11
108.55435058474529
 21
46.944314576685443
 31
0.0
  0
LINE
  5
14BC
  8
0
 10
111.0533507540821
 20
46.944314576685443
 30
0.0
 11
110.4760006070136
 21
47.036219350993647
 31
0.0
  0
LINE
  5
14BE
  8
0
 10
110.4760006070136
 20
50.024657007306807
 30
0.0
 11
111.0533507540821
 21
49.13994712755084
 31
0.0
  0
LINE
  5
14BF
  8
0
 10
111.0533507540821
 20
49.13994712755084
 30
0.0
 11
111.0533507540821
 21
46.944314576685443
 31
0.0
  0
LINE
  5
14C0
  8
0
 10
110.4760006070136
 20
47.036219350993647
 30
0.0
 11
109.8986495286225
 21
46.944314576685443
 31
0.0
  0
LINE
  5
14C1
  8
0
 10
109.8986495286225
 20
46.944314576685443
 30
0.0
 11
109.8986495286225
 21
49.13994712755084
 31
0.0
  0
LINE
  5
14C2
  8
0
 10
109.8986495286225
 20
49.13994712755084
 30
0.0
 11
110.4760006070136
 21
50.024657007306807
 31
0.0
  0
LINE
  5
14C3
  8
0
 10
105.47800026834
 20
50.024657007306807
 30
0.0
 11
106.055351346731
 21
49.13994712755084
 31
0.0
  0
LINE
  5
14C4
  8
0
 10
107.39965029060831
 20
49.13994712755084
 30
0.0
 11
107.9769995063542
 21
50.024657007306807
 31
0.0
  0
LINE
  5
14C5
  8
0
 10
106.055351346731
 20
49.13994712755084
 30
0.0
 11
107.39965029060831
 21
49.13994712755084
 31
0.0
  0
LINE
  5
14C6
  8
0
 10
107.9769995063542
 20
47.036219350993647
 30
0.0
 11
107.39965029060831
 21
46.944314576685443
 31
0.0
  0
LINE
  5
14C7
  8
0
 10
107.39965029060831
 20
46.944314576685443
 30
0.0
 11
107.39965029060831
 21
49.13994712755084
 31
0.0
  0
LINE
  5
14C8
  8
0
 10
102.9790010303258
 20
47.036219350993647
 30
0.0
 11
102.4016499519347
 21
46.944314576685443
 31
0.0
  0
LINE
  5
14C9
  8
0
 10
102.4016499519347
 20
46.944314576685443
 30
0.0
 11
102.4016499519347
 21
49.13994712755084
 31
0.0
  0
LINE
  5
14CA
  8
0
 10
102.4016499519347
 20
49.13994712755084
 30
0.0
 11
102.9790010303258
 21
50.024657007306807
 31
0.0
  0
LINE
  5
14CC
  8
0
 10
103.5563502460717
 20
46.944314576685443
 30
0.0
 11
102.9790010303258
 21
47.036219350993647
 31
0.0
  0
LINE
  5
14CD
  8
0
 10
102.9790010303258
 20
50.024657007306807
 30
0.0
 11
103.5563502460717
 21
49.13994712755084
 31
0.0
  0
LINE
  5
14CE
  8
0
 10
103.5563502460717
 20
49.13994712755084
 30
0.0
 11
103.5563502460717
 21
46.944314576685443
 31
0.0
  0
LINE
  5
14CF
  8
0
 10
108.55435058474529
 20
49.13994712755084
 30
0.0
 11
109.8986495286225
 21
49.13994712755084
 31
0.0
  0
LINE
  5
14D0
  8
0
 10
105.47800026834
 20
47.036219350993647
 30
0.0
 11
104.90064918994889
 21
46.944314576685443
 31
0.0
  0
LINE
  5
14D1
  8
0
 10
104.90064918994889
 20
46.944314576685443
 30
0.0
 11
104.90064918994889
 21
49.13994712755084
 31
0.0
  0
LINE
  5
14D2
  8
0
 10
104.90064918994889
 20
49.13994712755084
 30
0.0
 11
105.47800026834
 21
50.024657007306807
 31
0.0
  0
LINE
  5
14D4
  8
0
 10
111.0533507540821
 20
49.13994712755084
 30
0.0
 11
112.3976496979593
 21
49.13994712755084
 31
0.0
  0
LINE
  5
14D5
  8
0
 10
101.05735100805749
 20
46.944314576685443
 30
0.0
 11
100.47999992966641
 21
47.036219350993647
 31
0.0
  0
LINE
  5
14D6
  8
0
 10
100.47999992966641
 20
50.024657007306807
 30
0.0
 11
101.05735100805749
 21
49.13994712755084
 31
0.0
  0
LINE
  5
14D7
  8
0
 10
101.05735100805749
 20
49.13994712755084
 30
0.0
 11
101.05735100805749
 21
46.944314576685443
 31
0.0
  0
LINE
  5
14D9
  8
0
 10
106.055351346731
 20
46.944314576685443
 30
0.0
 11
105.47800026834
 21
47.036219350993647
 31
0.0
  0
LINE
  5
14DA
  8
0
 10
106.055351346731
 20
49.13994712755084
 30
0.0
 11
106.055351346731
 21
46.944314576685443
 31
0.0
  0
LINE
  5
14DB
  8
0
 10
101.05735100805749
 20
49.13994712755084
 30
0.0
 11
102.4016499519347
 21
49.13994712755084
 31
0.0
  0
LINE
  5
14DC
  8
0
 10
103.5563502460717
 20
49.13994712755084
 30
0.0
 11
104.90064918994889
 21
49.13994712755084
 31
0.0
  0
LINE
  5
14DD
  8
0
 10
111.0533507540821
 20
46.944314576685443
 30
0.0
 11
112.3976496979593
 21
46.944314576685443
 31
0.0
  0
LINE
  5
14DE
  8
0
 10
108.55435058474529
 20
46.944314576685443
 30
0.0
 11
109.8986495286225
 21
46.944314576685443
 31
0.0
  0
LINE
  5
14DF
  8
0
 10
101.05735100805749
 20
46.944314576685443
 30
0.0
 11
102.4016499519347
 21
46.944314576685443
 31
0.0
  0
LINE
  5
14E0
  8
0
 10
106.055351346731
 20
46.944314576685443
 30
0.0
 11
107.39965029060831
 21
46.944314576685443
 31
0.0
  0
LINE
  5
14E1
  8
0
 10
103.5563502460717
 20
46.944314576685443
 30
0.0
 11
104.90064918994889
 21
46.944314576685443
 31
0.0
  0
LINE
  5
14E2
  8
0
 10
99.999999999999886
 20
41.599125564098372
 30
0.0
 11
99.999999999999886
 21
68.379125520586953
 31
0.0
  0
LINE
  5
14E3
  8
0
 10
113.5000003501771
 20
41.599125564098372
 30
0.0
 11
113.5000003501771
 21
68.379125520586953
 31
0.0
  0
LINE
  5
14E4
  8
0
 10
123.3700001845135
 20
41.989125274121768
 30
0.0
 11
123.3700001845135
 21
67.989125810563564
 31
0.0
  0
LINE
  5
14E6
  8
0
 10
106.055351346731
 20
63.973901756107821
 30
0.0
 11
105.47800026834
 21
62.942031733691707
 31
0.0
  0
LINE
  5
14E8
  8
0
 10
105.47800026834
 20
65.468275882303729
 30
0.0
 11
106.055351346731
 21
65.829955935478225
 31
0.0
  0
LINE
  5
14E9
  8
0
 10
106.055351346731
 20
65.829955935478225
 30
0.0
 11
106.055351346731
 21
63.973901756107821
 31
0.0
  0
LINE
  5
14EA
  8
0
 10
108.55435058474529
 20
63.973901756107821
 30
0.0
 11
107.9769995063542
 21
62.942031733691707
 31
0.0
  0
LINE
  5
14EC
  8
0
 10
107.9769995063542
 20
65.468275882303729
 30
0.0
 11
108.55435058474529
 21
65.829955935478225
 31
0.0
  0
LINE
  5
14ED
  8
0
 10
108.55435058474529
 20
65.829955935478225
 30
0.0
 11
108.55435058474529
 21
63.973901756107821
 31
0.0
  0
LINE
  5
14EE
  8
0
 10
105.47800026834
 20
62.942031733691707
 30
0.0
 11
104.90064918994889
 21
63.973901756107821
 31
0.0
  0
LINE
  5
14EF
  8
0
 10
104.90064918994889
 20
63.973901756107821
 30
0.0
 11
104.90064918994889
 21
65.829955935478225
 31
0.0
  0
LINE
  5
14F0
  8
0
 10
104.90064918994889
 20
65.829955935478225
 30
0.0
 11
105.47800026834
 21
65.468275882303729
 31
0.0
  0
LINE
  5
14F1
  8
0
 10
103.5563502460717
 20
63.973901756107821
 30
0.0
 11
102.9790010303258
 21
62.942031733691707
 31
0.0
  0
LINE
  5
14F3
  8
0
 10
102.9790010303258
 20
65.468275882303729
 30
0.0
 11
103.5563502460717
 21
65.829955935478225
 31
0.0
  0
LINE
  5
14F4
  8
0
 10
103.5563502460717
 20
65.829955935478225
 30
0.0
 11
103.5563502460717
 21
63.973901756107821
 31
0.0
  0
LINE
  5
14F5
  8
0
 10
110.4760006070136
 20
62.942031733691707
 30
0.0
 11
109.8986495286225
 21
63.973901756107821
 31
0.0
  0
LINE
  5
14F6
  8
0
 10
109.8986495286225
 20
63.973901756107821
 30
0.0
 11
109.8986495286225
 21
65.829955935478225
 31
0.0
  0
LINE
  5
14F7
  8
0
 10
109.8986495286225
 20
65.829955935478225
 30
0.0
 11
110.4760006070136
 21
65.468275882303729
 31
0.0
  0
LINE
  5
14F9
  8
0
 10
111.0533507540821
 20
63.973901756107821
 30
0.0
 11
110.4760006070136
 21
62.942031733691707
 31
0.0
  0
LINE
  5
14FA
  8
0
 10
110.4760006070136
 20
65.468275882303729
 30
0.0
 11
111.0533507540821
 21
65.829955935478225
 31
0.0
  0
LINE
  5
14FB
  8
0
 10
111.0533507540821
 20
65.829955935478225
 30
0.0
 11
111.0533507540821
 21
63.973901756107821
 31
0.0
  0
LINE
  5
14FC
  8
0
 10
102.9790010303258
 20
62.942031733691707
 30
0.0
 11
102.4016499519347
 21
63.973901756107821
 31
0.0
  0
LINE
  5
14FD
  8
0
 10
102.4016499519347
 20
63.973901756107821
 30
0.0
 11
102.4016499519347
 21
65.829955935478225
 31
0.0
  0
LINE
  5
14FE
  8
0
 10
102.4016499519347
 20
65.829955935478225
 30
0.0
 11
102.9790010303258
 21
65.468275882303729
 31
0.0
  0
LINE
  5
14FF
  8
0
 10
107.9769995063542
 20
62.942031733691707
 30
0.0
 11
107.39965029060831
 21
63.973901756107821
 31
0.0
  0
LINE
  5
1500
  8
0
 10
107.39965029060831
 20
63.973901756107821
 30
0.0
 11
107.39965029060831
 21
65.829955935478225
 31
0.0
  0
LINE
  5
1501
  8
0
 10
107.39965029060831
 20
65.829955935478225
 30
0.0
 11
107.9769995063542
 21
65.468275882303729
 31
0.0
  0
LINE
  5
1502
  8
0
 10
108.55435058474529
 20
65.829955935478225
 30
0.0
 11
109.8986495286225
 21
65.829955935478225
 31
0.0
  0
LINE
  5
1503
  8
0
 10
108.55435058474529
 20
63.973901756107821
 30
0.0
 11
109.8986495286225
 21
63.973901756107821
 31
0.0
  0
LINE
  5
1504
  8
0
 10
101.05735100805749
 20
63.973901756107821
 30
0.0
 11
100.47999992966641
 21
62.942031733691707
 31
0.0
  0
LINE
  5
1505
  8
0
 10
100.47999992966641
 20
65.468275882303729
 30
0.0
 11
101.05735100805749
 21
65.829955935478225
 31
0.0
  0
LINE
  5
1506
  8
0
 10
101.05735100805749
 20
65.829955935478225
 30
0.0
 11
101.05735100805749
 21
63.973901756107821
 31
0.0
  0
LINE
  5
1508
  8
0
 10
106.055351346731
 20
65.829955935478225
 30
0.0
 11
107.39965029060831
 21
65.829955935478225
 31
0.0
  0
LINE
  5
1509
  8
0
 10
106.055351346731
 20
63.973901756107821
 30
0.0
 11
107.39965029060831
 21
63.973901756107821
 31
0.0
  0
LINE
  5
150A
  8
0
 10
112.9749998450278
 20
62.942031733691707
 30
0.0
 11
112.3976496979593
 21
63.973901756107821
 31
0.0
  0
LINE
  5
150B
  8
0
 10
112.3976496979593
 20
63.973901756107821
 30
0.0
 11
112.3976496979593
 21
65.829955935478225
 31
0.0
  0
LINE
  5
150C
  8
0
 10
112.3976496979593
 20
65.829955935478225
 30
0.0
 11
112.9749998450278
 21
65.468275882303729
 31
0.0
  0
LINE
  5
150E
  8
0
 10
101.05735100805749
 20
65.829955935478225
 30
0.0
 11
102.4016499519347
 21
65.829955935478225
 31
0.0
  0
LINE
  5
150F
  8
0
 10
101.05735100805749
 20
63.973901756107821
 30
0.0
 11
102.4016499519347
 21
63.973901756107821
 31
0.0
  0
LINE
  5
1510
  8
0
 10
103.5563502460717
 20
65.829955935478225
 30
0.0
 11
104.90064918994889
 21
65.829955935478225
 31
0.0
  0
LINE
  5
1511
  8
0
 10
103.5563502460717
 20
63.973901756107821
 30
0.0
 11
104.90064918994889
 21
63.973901756107821
 31
0.0
  0
LINE
  5
1512
  8
0
 10
111.0533507540821
 20
65.829955935478225
 30
0.0
 11
112.3976496979593
 21
65.829955935478225
 31
0.0
  0
LINE
  5
1513
  8
0
 10
111.0533507540821
 20
63.973901756107821
 30
0.0
 11
112.3976496979593
 21
63.973901756107821
 31
0.0
  0
LINE
  5
1514
  8
0
 10
105.47800026834
 20
44.509975202381618
 30
0.0
 11
104.90064918994889
 21
44.148295149207129
 31
0.0
  0
LINE
  5
1515
  8
0
 10
104.90064918994889
 20
44.148295149207129
 30
0.0
 11
104.90064918994889
 21
46.004349328577533
 31
0.0
  0
LINE
  5
1516
  8
0
 10
104.90064918994889
 20
46.004349328577533
 30
0.0
 11
105.47800026834
 21
47.036219350993647
 31
0.0
  0
LINE
  5
1518
  8
0
 10
107.9769995063542
 20
47.036219350993647
 30
0.0
 11
108.55435058474529
 21
46.004349328577533
 31
0.0
  0
LINE
  5
1519
  8
0
 10
109.8986495286225
 20
46.004349328577533
 30
0.0
 11
110.4760006070136
 21
47.036219350993647
 31
0.0
  0
LINE
  5
151A
  8
0
 10
108.55435058474529
 20
46.004349328577533
 30
0.0
 11
109.8986495286225
 21
46.004349328577533
 31
0.0
  0
LINE
  5
151B
  8
0
 10
105.47800026834
 20
47.036219350993647
 30
0.0
 11
106.055351346731
 21
46.004349328577533
 31
0.0
  0
LINE
  5
151C
  8
0
 10
107.39965029060831
 20
46.004349328577533
 30
0.0
 11
107.9769995063542
 21
47.036219350993647
 31
0.0
  0
LINE
  5
151D
  8
0
 10
106.055351346731
 20
46.004349328577533
 30
0.0
 11
107.39965029060831
 21
46.004349328577533
 31
0.0
  0
LINE
  5
151E
  8
0
 10
103.5563502460717
 20
44.148295149207129
 30
0.0
 11
102.9790010303258
 21
44.509975202381618
 31
0.0
  0
LINE
  5
1520
  8
0
 10
102.9790010303258
 20
47.036219350993647
 30
0.0
 11
103.5563502460717
 21
46.004349328577533
 31
0.0
  0
LINE
  5
1521
  8
0
 10
103.5563502460717
 20
46.004349328577533
 30
0.0
 11
103.5563502460717
 21
44.148295149207129
 31
0.0
  0
LINE
  5
1522
  8
0
 10
102.9790010303258
 20
44.509975202381618
 30
0.0
 11
102.4016499519347
 21
44.148295149207129
 31
0.0
  0
LINE
  5
1523
  8
0
 10
102.4016499519347
 20
44.148295149207129
 30
0.0
 11
102.4016499519347
 21
46.004349328577533
 31
0.0
  0
LINE
  5
1524
  8
0
 10
102.4016499519347
 20
46.004349328577533
 30
0.0
 11
102.9790010303258
 21
47.036219350993647
 31
0.0
  0
LINE
  5
1525
  8
0
 10
108.55435058474529
 20
44.148295149207129
 30
0.0
 11
107.9769995063542
 21
44.509975202381618
 31
0.0
  0
LINE
  5
1527
  8
0
 10
108.55435058474529
 20
46.004349328577533
 30
0.0
 11
108.55435058474529
 21
44.148295149207129
 31
0.0
  0
LINE
  5
1528
  8
0
 10
110.4760006070136
 20
44.509975202381618
 30
0.0
 11
109.8986495286225
 21
44.148295149207129
 31
0.0
  0
LINE
  5
1529
  8
0
 10
109.8986495286225
 20
44.148295149207129
 30
0.0
 11
109.8986495286225
 21
46.004349328577533
 31
0.0
  0
LINE
  5
152B
  8
0
 10
112.9749998450278
 20
44.509975202381618
 30
0.0
 11
112.3976496979593
 21
44.148295149207129
 31
0.0
  0
LINE
  5
152C
  8
0
 10
112.3976496979593
 20
44.148295149207129
 30
0.0
 11
112.3976496979593
 21
46.004349328577533
 31
0.0
  0
LINE
  5
152D
  8
0
 10
112.3976496979593
 20
46.004349328577533
 30
0.0
 11
112.9749998450278
 21
47.036219350993647
 31
0.0
  0
LINE
  5
152F
  8
0
 10
100.47999992966641
 20
47.036219350993647
 30
0.0
 11
101.05735100805749
 21
46.004349328577533
 31
0.0
  0
LINE
  5
1530
  8
0
 10
101.05735100805749
 20
46.004349328577533
 30
0.0
 11
102.4016499519347
 21
46.004349328577533
 31
0.0
  0
LINE
  5
1531
  8
0
 10
107.9769995063542
 20
44.509975202381618
 30
0.0
 11
107.39965029060831
 21
44.148295149207129
 31
0.0
  0
LINE
  5
1532
  8
0
 10
107.39965029060831
 20
44.148295149207129
 30
0.0
 11
107.39965029060831
 21
46.004349328577533
 31
0.0
  0
LINE
  5
1533
  8
0
 10
101.05735100805749
 20
44.148295149207129
 30
0.0
 11
100.47999992966641
 21
44.509975202381618
 31
0.0
  0
LINE
  5
1534
  8
0
 10
101.05735100805749
 20
46.004349328577533
 30
0.0
 11
101.05735100805749
 21
44.148295149207129
 31
0.0
  0
LINE
  5
1536
  8
0
 10
106.055351346731
 20
44.148295149207129
 30
0.0
 11
105.47800026834
 21
44.509975202381618
 31
0.0
  0
LINE
  5
1537
  8
0
 10
106.055351346731
 20
46.004349328577533
 30
0.0
 11
106.055351346731
 21
44.148295149207129
 31
0.0
  0
LINE
  5
1538
  8
0
 10
111.0533507540821
 20
44.148295149207129
 30
0.0
 11
110.4760006070136
 21
44.509975202381618
 31
0.0
  0
LINE
  5
1539
  8
0
 10
110.4760006070136
 20
47.036219350993647
 30
0.0
 11
111.0533507540821
 21
46.004349328577533
 31
0.0
  0
LINE
  5
153A
  8
0
 10
111.0533507540821
 20
46.004349328577533
 30
0.0
 11
111.0533507540821
 21
44.148295149207129
 31
0.0
  0
LINE
  5
153B
  8
0
 10
103.5563502460717
 20
46.004349328577533
 30
0.0
 11
104.90064918994889
 21
46.004349328577533
 31
0.0
  0
LINE
  5
153C
  8
0
 10
111.0533507540821
 20
46.004349328577533
 30
0.0
 11
112.3976496979593
 21
46.004349328577533
 31
0.0
  0
LINE
  5
153D
  8
0
 10
111.0533507540821
 20
44.148295149207129
 30
0.0
 11
112.3976496979593
 21
44.148295149207129
 31
0.0
  0
LINE
  5
153E
  8
0
 10
101.05735100805749
 20
44.148295149207129
 30
0.0
 11
102.4016499519347
 21
44.148295149207129
 31
0.0
  0
LINE
  5
153F
  8
0
 10
108.55435058474529
 20
44.148295149207129
 30
0.0
 11
109.8986495286225
 21
44.148295149207129
 31
0.0
  0
LINE
  5
1540
  8
0
 10
103.5563502460717
 20
44.148295149207129
 30
0.0
 11
104.90064918994889
 21
44.148295149207129
 31
0.0
  0
LINE
  5
1541
  8
0
 10
106.055351346731
 20
44.148295149207129
 30
0.0
 11
107.39965029060831
 21
44.148295149207129
 31
0.0
  0
LINE
  5
1542
  8
0
 10
107.9769995063542
 20
65.468275882303729
 30
0.0
 11
107.39965029060831
 21
66.587337255477919
 31
0.0
  0
LINE
  5
1543
  8
0
 10
107.39965029060831
 20
66.587337255477919
 30
0.0
 11
107.39965029060831
 21
67.995946817100034
 31
0.0
  0
LINE
  5
1544
  8
0
 10
107.39965029060831
 20
67.995946817100034
 30
0.0
 11
107.9769995063542
 21
67.385509572923183
 31
0.0
  0
LINE
  5
1546
  8
0
 10
111.0533507540821
 20
66.587337255477919
 30
0.0
 11
110.4760006070136
 21
65.468275882303729
 31
0.0
  0
LINE
  5
1548
  8
0
 10
110.4760006070136
 20
67.385509572923183
 30
0.0
 11
111.0533507540821
 21
67.995946817100034
 31
0.0
  0
LINE
  5
1549
  8
0
 10
111.0533507540821
 20
67.995946817100034
 30
0.0
 11
111.0533507540821
 21
66.587337255477919
 31
0.0
  0
LINE
  5
154A
  8
0
 10
111.0533507540821
 20
67.995946817100034
 30
0.0
 11
112.3976496979593
 21
67.995946817100034
 31
0.0
  0
LINE
  5
154B
  8
0
 10
112.3976496979593
 20
66.587337255477919
 30
0.0
 11
112.3976496979593
 21
67.995946817100034
 31
0.0
  0
LINE
  5
154C
  8
0
 10
111.0533507540821
 20
66.587337255477919
 30
0.0
 11
112.3976496979593
 21
66.587337255477919
 31
0.0
  0
LINE
  5
154D
  8
0
 10
106.055351346731
 20
67.995946817100034
 30
0.0
 11
106.055351346731
 21
66.587337255477919
 31
0.0
  0
LINE
  5
154E
  8
0
 10
106.055351346731
 20
67.995946817100034
 30
0.0
 11
107.39965029060831
 21
67.995946817100034
 31
0.0
  0
LINE
  5
154F
  8
0
 10
106.055351346731
 20
66.587337255477919
 30
0.0
 11
107.39965029060831
 21
66.587337255477919
 31
0.0
  0
LINE
  5
1550
  8
0
 10
110.4760006070136
 20
65.468275882303729
 30
0.0
 11
109.8986495286225
 21
66.587337255477919
 31
0.0
  0
LINE
  5
1551
  8
0
 10
109.8986495286225
 20
66.587337255477919
 30
0.0
 11
109.8986495286225
 21
67.995946817100034
 31
0.0
  0
LINE
  5
1552
  8
0
 10
109.8986495286225
 20
67.995946817100034
 30
0.0
 11
110.4760006070136
 21
67.385509572923183
 31
0.0
  0
LINE
  5
1553
  8
0
 10
108.55435058474529
 20
66.587337255477919
 30
0.0
 11
107.9769995063542
 21
65.468275882303729
 31
0.0
  0
LINE
  5
1554
  8
0
 10
107.9769995063542
 20
67.385509572923183
 30
0.0
 11
108.55435058474529
 21
67.995946817100034
 31
0.0
  0
LINE
  5
1555
  8
0
 10
108.55435058474529
 20
67.995946817100034
 30
0.0
 11
108.55435058474529
 21
66.587337255477919
 31
0.0
  0
LINE
  5
1556
  8
0
 10
105.47800026834
 20
65.468275882303729
 30
0.0
 11
104.90064918994889
 21
66.587337255477919
 31
0.0
  0
LINE
  5
1557
  8
0
 10
104.90064918994889
 20
66.587337255477919
 30
0.0
 11
104.90064918994889
 21
67.995946817100034
 31
0.0
  0
LINE
  5
1558
  8
0
 10
104.90064918994889
 20
67.995946817100034
 30
0.0
 11
105.47800026834
 21
67.385509572923183
 31
0.0
  0
LINE
  5
155A
  8
0
 10
103.5563502460717
 20
66.587337255477919
 30
0.0
 11
102.9790010303258
 21
65.468275882303729
 31
0.0
  0
LINE
  5
155C
  8
0
 10
102.9790010303258
 20
67.385509572923183
 30
0.0
 11
103.5563502460717
 21
67.995946817100034
 31
0.0
  0
LINE
  5
155D
  8
0
 10
103.5563502460717
 20
67.995946817100034
 30
0.0
 11
103.5563502460717
 21
66.587337255477919
 31
0.0
  0
LINE
  5
155E
  8
0
 10
101.05735100805749
 20
66.587337255477919
 30
0.0
 11
100.47999992966641
 21
65.468275882303729
 31
0.0
  0
LINE
  5
155F
  8
0
 10
100.47999992966641
 20
67.385509572923183
 30
0.0
 11
101.05735100805749
 21
67.995946817100034
 31
0.0
  0
LINE
  5
1560
  8
0
 10
101.05735100805749
 20
67.995946817100034
 30
0.0
 11
101.05735100805749
 21
66.587337255477919
 31
0.0
  0
LINE
  5
1562
  8
0
 10
108.55435058474529
 20
67.995946817100034
 30
0.0
 11
109.8986495286225
 21
67.995946817100034
 31
0.0
  0
LINE
  5
1563
  8
0
 10
108.55435058474529
 20
66.587337255477919
 30
0.0
 11
109.8986495286225
 21
66.587337255477919
 31
0.0
  0
LINE
  5
1564
  8
0
 10
106.055351346731
 20
66.587337255477919
 30
0.0
 11
105.47800026834
 21
65.468275882303729
 31
0.0
  0
LINE
  5
1565
  8
0
 10
105.47800026834
 20
67.385509572923183
 30
0.0
 11
106.055351346731
 21
67.995946817100034
 31
0.0
  0
LINE
  5
1566
  8
0
 10
101.05735100805749
 20
67.995946817100034
 30
0.0
 11
102.4016499519347
 21
67.995946817100034
 31
0.0
  0
LINE
  5
1567
  8
0
 10
102.4016499519347
 20
66.587337255477919
 30
0.0
 11
102.4016499519347
 21
67.995946817100034
 31
0.0
  0
LINE
  5
1568
  8
0
 10
101.05735100805749
 20
66.587337255477919
 30
0.0
 11
102.4016499519347
 21
66.587337255477919
 31
0.0
  0
LINE
  5
1569
  8
0
 10
112.9749998450278
 20
65.468275882303729
 30
0.0
 11
112.3976496979593
 21
66.587337255477919
 31
0.0
  0
LINE
  5
156A
  8
0
 10
112.3976496979593
 20
67.995946817100034
 30
0.0
 11
112.9749998450278
 21
67.385509572923183
 31
0.0
  0
LINE
  5
156C
  8
0
 10
102.9790010303258
 20
65.468275882303729
 30
0.0
 11
102.4016499519347
 21
66.587337255477919
 31
0.0
  0
LINE
  5
156D
  8
0
 10
102.4016499519347
 20
67.995946817100034
 30
0.0
 11
102.9790010303258
 21
67.385509572923183
 31
0.0
  0
LINE
  5
156E
  8
0
 10
103.5563502460717
 20
67.995946817100034
 30
0.0
 11
104.90064918994889
 21
67.995946817100034
 31
0.0
  0
LINE
  5
156F
  8
0
 10
103.5563502460717
 20
66.587337255477919
 30
0.0
 11
104.90064918994889
 21
66.587337255477919
 31
0.0
  0
LINE
  5
1570
  8
0
 10
102.9790010303258
 20
42.592741511762149
 30
0.0
 11
102.4016499519347
 21
41.982304267585292
 31
0.0
  0
LINE
  5
1571
  8
0
 10
102.4016499519347
 20
41.982304267585292
 30
0.0
 11
102.4016499519347
 21
43.390913829207427
 31
0.0
  0
LINE
  5
1572
  8
0
 10
102.4016499519347
 20
43.390913829207427
 30
0.0
 11
102.9790010303258
 21
44.509975202381618
 31
0.0
  0
LINE
  5
1574
  8
0
 10
108.55435058474529
 20
41.982304267585292
 30
0.0
 11
107.9769995063542
 21
42.592741511762149
 31
0.0
  0
LINE
  5
1576
  8
0
 10
107.9769995063542
 20
44.509975202381618
 30
0.0
 11
108.55435058474529
 21
43.390913829207427
 31
0.0
  0
LINE
  5
1577
  8
0
 10
108.55435058474529
 20
43.390913829207427
 30
0.0
 11
108.55435058474529
 21
41.982304267585292
 31
0.0
  0
LINE
  5
1578
  8
0
 10
110.4760006070136
 20
44.509975202381618
 30
0.0
 11
111.0533507540821
 21
43.390913829207427
 31
0.0
  0
LINE
  5
1579
  8
0
 10
112.3976496979593
 20
43.390913829207427
 30
0.0
 11
112.9749998450278
 21
44.509975202381618
 31
0.0
  0
LINE
  5
157A
  8
0
 10
111.0533507540821
 20
43.390913829207427
 30
0.0
 11
112.3976496979593
 21
43.390913829207427
 31
0.0
  0
LINE
  5
157B
  8
0
 10
103.5563502460717
 20
41.982304267585292
 30
0.0
 11
102.9790010303258
 21
42.592741511762149
 31
0.0
  0
LINE
  5
157C
  8
0
 10
102.9790010303258
 20
44.509975202381618
 30
0.0
 11
103.5563502460717
 21
43.390913829207427
 31
0.0
  0
LINE
  5
157D
  8
0
 10
103.5563502460717
 20
43.390913829207427
 30
0.0
 11
103.5563502460717
 21
41.982304267585292
 31
0.0
  0
LINE
  5
157E
  8
0
 10
112.9749998450278
 20
42.592741511762149
 30
0.0
 11
112.3976496979593
 21
41.982304267585292
 31
0.0
  0
LINE
  5
157F
  8
0
 10
112.3976496979593
 20
41.982304267585292
 30
0.0
 11
112.3976496979593
 21
43.390913829207427
 31
0.0
  0
LINE
  5
1581
  8
0
 10
100.47999992966641
 20
44.509975202381618
 30
0.0
 11
101.05735100805749
 21
43.390913829207427
 31
0.0
  0
LINE
  5
1582
  8
0
 10
101.05735100805749
 20
43.390913829207427
 30
0.0
 11
102.4016499519347
 21
43.390913829207427
 31
0.0
  0
LINE
  5
1583
  8
0
 10
107.9769995063542
 20
42.592741511762149
 30
0.0
 11
107.39965029060831
 21
41.982304267585292
 31
0.0
  0
LINE
  5
1584
  8
0
 10
107.39965029060831
 20
41.982304267585292
 30
0.0
 11
107.39965029060831
 21
43.390913829207427
 31
0.0
  0
LINE
  5
1585
  8
0
 10
107.39965029060831
 20
43.390913829207427
 30
0.0
 11
107.9769995063542
 21
44.509975202381618
 31
0.0
  0
LINE
  5
1586
  8
0
 10
105.47800026834
 20
44.509975202381618
 30
0.0
 11
106.055351346731
 21
43.390913829207427
 31
0.0
  0
LINE
  5
1587
  8
0
 10
106.055351346731
 20
43.390913829207427
 30
0.0
 11
107.39965029060831
 21
43.390913829207427
 31
0.0
  0
LINE
  5
1588
  8
0
 10
105.47800026834
 20
42.592741511762149
 30
0.0
 11
104.90064918994889
 21
41.982304267585292
 31
0.0
  0
LINE
  5
1589
  8
0
 10
104.90064918994889
 20
41.982304267585292
 30
0.0
 11
104.90064918994889
 21
43.390913829207427
 31
0.0
  0
LINE
  5
158A
  8
0
 10
104.90064918994889
 20
43.390913829207427
 30
0.0
 11
105.47800026834
 21
44.509975202381618
 31
0.0
  0
LINE
  5
158C
  8
0
 10
111.0533507540821
 20
41.982304267585292
 30
0.0
 11
110.4760006070136
 21
42.592741511762149
 31
0.0
  0
LINE
  5
158E
  8
0
 10
111.0533507540821
 20
43.390913829207427
 30
0.0
 11
111.0533507540821
 21
41.982304267585292
 31
0.0
  0
LINE
  5
158F
  8
0
 10
103.5563502460717
 20
43.390913829207427
 30
0.0
 11
104.90064918994889
 21
43.390913829207427
 31
0.0
  0
LINE
  5
1590
  8
0
 10
101.05735100805749
 20
41.982304267585292
 30
0.0
 11
100.47999992966641
 21
42.592741511762149
 31
0.0
  0
LINE
  5
1591
  8
0
 10
101.05735100805749
 20
43.390913829207427
 30
0.0
 11
101.05735100805749
 21
41.982304267585292
 31
0.0
  0
LINE
  5
1593
  8
0
 10
110.4760006070136
 20
42.592741511762149
 30
0.0
 11
109.8986495286225
 21
41.982304267585292
 31
0.0
  0
LINE
  5
1594
  8
0
 10
109.8986495286225
 20
41.982304267585292
 30
0.0
 11
109.8986495286225
 21
43.390913829207427
 31
0.0
  0
LINE
  5
1595
  8
0
 10
109.8986495286225
 20
43.390913829207427
 30
0.0
 11
110.4760006070136
 21
44.509975202381618
 31
0.0
  0
LINE
  5
1596
  8
0
 10
108.55435058474529
 20
43.390913829207427
 30
0.0
 11
109.8986495286225
 21
43.390913829207427
 31
0.0
  0
LINE
  5
1597
  8
0
 10
106.055351346731
 20
41.982304267585292
 30
0.0
 11
105.47800026834
 21
42.592741511762149
 31
0.0
  0
LINE
  5
1598
  8
0
 10
106.055351346731
 20
43.390913829207427
 30
0.0
 11
106.055351346731
 21
41.982304267585292
 31
0.0
  0
LINE
  5
1599
  8
0
 10
108.55435058474529
 20
41.982304267585292
 30
0.0
 11
109.8986495286225
 21
41.982304267585292
 31
0.0
  0
LINE
  5
159A
  8
0
 10
111.0533507540821
 20
41.982304267585292
 30
0.0
 11
112.3976496979593
 21
41.982304267585292
 31
0.0
  0
LINE
  5
159B
  8
0
 10
106.055351346731
 20
41.982304267585292
 30
0.0
 11
107.39965029060831
 21
41.982304267585292
 31
0.0
  0
LINE
  5
159C
  8
0
 10
101.05735100805749
 20
41.982304267585292
 30
0.0
 11
102.4016499519347
 21
41.982304267585292
 31
0.0
  0
LINE
  5
159D
  8
0
 10
103.5563502460717
 20
41.982304267585292
 30
0.0
 11
104.90064918994889
 21
41.982304267585292
 31
0.0
  0
LINE
  5
159E
  8
0
 10
106.055351346731
 20
68.526727110147476
 30
0.0
 11
105.47800026834
 21
67.385509572923183
 31
0.0
  0
LINE
  5
15A0
  8
0
 10
105.47800026834
 20
68.582311235368252
 30
0.0
 11
106.055351346731
 21
69.406027868390083
 31
0.0
  0
LINE
  5
15A1
  8
0
 10
106.055351346731
 20
69.406027868390083
 30
0.0
 11
106.055351346731
 21
68.526727110147476
 31
0.0
  0
LINE
  5
15A2
  8
0
 10
110.4760006070136
 20
67.385509572923183
 30
0.0
 11
109.8986495286225
 21
68.526727110147476
 31
0.0
  0
LINE
  5
15A3
  8
0
 10
109.8986495286225
 20
68.526727110147476
 30
0.0
 11
109.8986495286225
 21
69.406027868390083
 31
0.0
  0
LINE
  5
15A4
  8
0
 10
109.8986495286225
 20
69.406027868390083
 30
0.0
 11
110.4760006070136
 21
68.582311235368252
 31
0.0
  0
LINE
  5
15A6
  8
0
 10
105.47800026834
 20
67.385509572923183
 30
0.0
 11
104.90064918994889
 21
68.526727110147476
 31
0.0
  0
LINE
  5
15A7
  8
0
 10
104.90064918994889
 20
68.526727110147476
 30
0.0
 11
104.90064918994889
 21
69.406027868390083
 31
0.0
  0
LINE
  5
15A8
  8
0
 10
104.90064918994889
 20
69.406027868390083
 30
0.0
 11
105.47800026834
 21
68.582311235368252
 31
0.0
  0
LINE
  5
15A9
  8
0
 10
108.55435058474529
 20
68.526727110147476
 30
0.0
 11
107.9769995063542
 21
67.385509572923183
 31
0.0
  0
LINE
  5
15AB
  8
0
 10
107.9769995063542
 20
68.582311235368252
 30
0.0
 11
108.55435058474529
 21
69.406027868390083
 31
0.0
  0
LINE
  5
15AC
  8
0
 10
108.55435058474529
 20
69.406027868390083
 30
0.0
 11
108.55435058474529
 21
68.526727110147476
 31
0.0
  0
LINE
  5
15AD
  8
0
 10
103.5563502460717
 20
68.526727110147476
 30
0.0
 11
102.9790010303258
 21
67.385509572923183
 31
0.0
  0
LINE
  5
15AF
  8
0
 10
102.9790010303258
 20
68.582311235368252
 30
0.0
 11
103.5563502460717
 21
69.406027868390083
 31
0.0
  0
LINE
  5
15B0
  8
0
 10
103.5563502460717
 20
69.406027868390083
 30
0.0
 11
103.5563502460717
 21
68.526727110147476
 31
0.0
  0
LINE
  5
15B1
  8
0
 10
111.0533507540821
 20
68.526727110147476
 30
0.0
 11
110.4760006070136
 21
67.385509572923183
 31
0.0
  0
LINE
  5
15B2
  8
0
 10
110.4760006070136
 20
68.582311235368252
 30
0.0
 11
111.0533507540821
 21
69.406027868390083
 31
0.0
  0
LINE
  5
15B3
  8
0
 10
111.0533507540821
 20
69.406027868390083
 30
0.0
 11
111.0533507540821
 21
68.526727110147476
 31
0.0
  0
LINE
  5
15B4
  8
0
 10
101.05735100805749
 20
68.526727110147476
 30
0.0
 11
100.47999992966641
 21
67.385509572923183
 31
0.0
  0
LINE
  5
15B5
  8
0
 10
100.47999992966641
 20
68.582311235368252
 30
0.0
 11
101.05735100805749
 21
69.406027868390083
 31
0.0
  0
LINE
  5
15B6
  8
0
 10
101.05735100805749
 20
69.406027868390083
 30
0.0
 11
101.05735100805749
 21
68.526727110147476
 31
0.0
  0
LINE
  5
15B8
  8
0
 10
112.9749998450278
 20
67.385509572923183
 30
0.0
 11
112.3976496979593
 21
68.526727110147476
 31
0.0
  0
LINE
  5
15B9
  8
0
 10
112.3976496979593
 20
68.526727110147476
 30
0.0
 11
112.3976496979593
 21
69.406027868390083
 31
0.0
  0
LINE
  5
15BA
  8
0
 10
112.3976496979593
 20
69.406027868390083
 30
0.0
 11
112.9749998450278
 21
68.582311235368252
 31
0.0
  0
LINE
  5
15BC
  8
0
 10
102.9790010303258
 20
67.385509572923183
 30
0.0
 11
102.4016499519347
 21
68.526727110147476
 31
0.0
  0
LINE
  5
15BD
  8
0
 10
102.4016499519347
 20
68.526727110147476
 30
0.0
 11
102.4016499519347
 21
69.406027868390083
 31
0.0
  0
LINE
  5
15BE
  8
0
 10
102.4016499519347
 20
69.406027868390083
 30
0.0
 11
102.9790010303258
 21
68.582311235368252
 31
0.0
  0
LINE
  5
15BF
  8
0
 10
107.9769995063542
 20
67.385509572923183
 30
0.0
 11
107.39965029060831
 21
68.526727110147476
 31
0.0
  0
LINE
  5
15C0
  8
0
 10
107.39965029060831
 20
68.526727110147476
 30
0.0
 11
107.39965029060831
 21
69.406027868390083
 31
0.0
  0
LINE
  5
15C1
  8
0
 10
107.39965029060831
 20
69.406027868390083
 30
0.0
 11
107.9769995063542
 21
68.582311235368252
 31
0.0
  0
LINE
  5
15C2
  8
0
 10
106.055351346731
 20
68.526727110147476
 30
0.0
 11
107.39965029060831
 21
68.526727110147476
 31
0.0
  0
LINE
  5
15C3
  8
0
 10
111.0533507540821
 20
68.526727110147476
 30
0.0
 11
112.3976496979593
 21
68.526727110147476
 31
0.0
  0
LINE
  5
15C4
  8
0
 10
103.5563502460717
 20
68.526727110147476
 30
0.0
 11
104.90064918994889
 21
68.526727110147476
 31
0.0
  0
LINE
  5
15C5
  8
0
 10
101.05735100805749
 20
68.526727110147476
 30
0.0
 11
102.4016499519347
 21
68.526727110147476
 31
0.0
  0
LINE
  5
15C6
  8
0
 10
108.55435058474529
 20
68.526727110147476
 30
0.0
 11
109.8986495286225
 21
68.526727110147476
 31
0.0
  0
LINE
  5
15C7
  8
0
 10
101.05735100805749
 20
40.572223216295257
 30
0.0
 11
100.47999992966641
 21
41.395939849317088
 31
0.0
  0
LINE
  5
15C8
  8
0
 10
100.47999992966641
 20
42.592741511762149
 30
0.0
 11
101.05735100805749
 21
41.451523974537857
 31
0.0
  0
LINE
  5
15C9
  8
0
 10
101.05735100805749
 20
41.451523974537857
 30
0.0
 11
101.05735100805749
 21
40.572223216295257
 31
0.0
  0
LINE
  5
15CB
  8
0
 10
102.4016499519347
 20
41.451523974537857
 30
0.0
 11
102.9790010303258
 21
42.592741511762149
 31
0.0
  0
LINE
  5
15CC
  8
0
 10
101.05735100805749
 20
41.451523974537857
 30
0.0
 11
102.4016499519347
 21
41.451523974537857
 31
0.0
  0
LINE
  5
15CD
  8
0
 10
105.47800026834
 20
42.592741511762149
 30
0.0
 11
106.055351346731
 21
41.451523974537857
 31
0.0
  0
LINE
  5
15CE
  8
0
 10
107.39965029060831
 20
41.451523974537857
 30
0.0
 11
107.9769995063542
 21
42.592741511762149
 31
0.0
  0
LINE
  5
15CF
  8
0
 10
106.055351346731
 20
41.451523974537857
 30
0.0
 11
107.39965029060831
 21
41.451523974537857
 31
0.0
  0
LINE
  5
15D0
  8
0
 10
102.9790010303258
 20
42.592741511762149
 30
0.0
 11
103.5563502460717
 21
41.451523974537857
 31
0.0
  0
LINE
  5
15D1
  8
0
 10
104.90064918994889
 20
41.451523974537857
 30
0.0
 11
105.47800026834
 21
42.592741511762149
 31
0.0
  0
LINE
  5
15D2
  8
0
 10
103.5563502460717
 20
41.451523974537857
 30
0.0
 11
104.90064918994889
 21
41.451523974537857
 31
0.0
  0
LINE
  5
15D3
  8
0
 10
103.5563502460717
 20
40.572223216295257
 30
0.0
 11
102.9790010303258
 21
41.395939849317088
 31
0.0
  0
LINE
  5
15D5
  8
0
 10
103.5563502460717
 20
41.451523974537857
 30
0.0
 11
103.5563502460717
 21
40.572223216295257
 31
0.0
  0
LINE
  5
15D6
  8
0
 10
102.9790010303258
 20
41.395939849317088
 30
0.0
 11
102.4016499519347
 21
40.572223216295257
 31
0.0
  0
LINE
  5
15D7
  8
0
 10
102.4016499519347
 20
40.572223216295257
 30
0.0
 11
102.4016499519347
 21
41.451523974537857
 31
0.0
  0
LINE
  5
15D8
  8
0
 10
105.47800026834
 20
41.395939849317088
 30
0.0
 11
104.90064918994889
 21
40.572223216295257
 31
0.0
  0
LINE
  5
15D9
  8
0
 10
104.90064918994889
 20
40.572223216295257
 30
0.0
 11
104.90064918994889
 21
41.451523974537857
 31
0.0
  0
LINE
  5
15DB
  8
0
 10
106.055351346731
 20
40.572223216295257
 30
0.0
 11
105.47800026834
 21
41.395939849317088
 31
0.0
  0
LINE
  5
15DC
  8
0
 10
106.055351346731
 20
41.451523974537857
 30
0.0
 11
106.055351346731
 21
40.572223216295257
 31
0.0
  0
LINE
  5
15DD
  8
0
 10
112.9749998450278
 20
41.395939849317088
 30
0.0
 11
112.3976496979593
 21
40.572223216295257
 31
0.0
  0
LINE
  5
15DE
  8
0
 10
112.3976496979593
 20
40.572223216295257
 30
0.0
 11
112.3976496979593
 21
41.451523974537857
 31
0.0
  0
LINE
  5
15DF
  8
0
 10
112.3976496979593
 20
41.451523974537857
 30
0.0
 11
112.9749998450278
 21
42.592741511762149
 31
0.0
  0
LINE
  5
15E1
  8
0
 10
107.9769995063542
 20
42.592741511762149
 30
0.0
 11
108.55435058474529
 21
41.451523974537857
 31
0.0
  0
LINE
  5
15E2
  8
0
 10
109.8986495286225
 20
41.451523974537857
 30
0.0
 11
110.4760006070136
 21
42.592741511762149
 31
0.0
  0
LINE
  5
15E3
  8
0
 10
108.55435058474529
 20
41.451523974537857
 30
0.0
 11
109.8986495286225
 21
41.451523974537857
 31
0.0
  0
LINE
  5
15E4
  8
0
 10
108.55435058474529
 20
40.572223216295257
 30
0.0
 11
107.9769995063542
 21
41.395939849317088
 31
0.0
  0
LINE
  5
15E6
  8
0
 10
108.55435058474529
 20
41.451523974537857
 30
0.0
 11
108.55435058474529
 21
40.572223216295257
 31
0.0
  0
LINE
  5
15E7
  8
0
 10
110.4760006070136
 20
42.592741511762149
 30
0.0
 11
111.0533507540821
 21
41.451523974537857
 31
0.0
  0
LINE
  5
15E8
  8
0
 10
111.0533507540821
 20
41.451523974537857
 30
0.0
 11
112.3976496979593
 21
41.451523974537857
 31
0.0
  0
LINE
  5
15E9
  8
0
 10
107.9769995063542
 20
41.395939849317088
 30
0.0
 11
107.39965029060831
 21
40.572223216295257
 31
0.0
  0
LINE
  5
15EA
  8
0
 10
107.39965029060831
 20
40.572223216295257
 30
0.0
 11
107.39965029060831
 21
41.451523974537857
 31
0.0
  0
LINE
  5
15EB
  8
0
 10
111.0533507540821
 20
40.572223216295257
 30
0.0
 11
110.4760006070136
 21
41.395939849317088
 31
0.0
  0
LINE
  5
15ED
  8
0
 10
111.0533507540821
 20
41.451523974537857
 30
0.0
 11
111.0533507540821
 21
40.572223216295257
 31
0.0
  0
LINE
  5
15EE
  8
0
 10
110.4760006070136
 20
41.395939849317088
 30
0.0
 11
109.8986495286225
 21
40.572223216295257
 31
0.0
  0
LINE
  5
15EF
  8
0
 10
109.8986495286225
 20
40.572223216295257
 30
0.0
 11
109.8986495286225
 21
41.451523974537857
 31
0.0
  0
LINE
  5
15F0
  8
0
 10
111.0533507540821
 20
69.406027868390083
 30
0.0
 11
112.3976496979593
 21
69.406027868390083
 31
0.0
  0
LINE
  5
15F1
  8
0
 10
103.5563502460717
 20
69.406027868390083
 30
0.0
 11
104.90064918994889
 21
69.406027868390083
 31
0.0
  0
LINE
  5
15F2
  8
0
 10
108.55435058474529
 20
69.406027868390083
 30
0.0
 11
109.8986495286225
 21
69.406027868390083
 31
0.0
  0
LINE
  5
15F3
  8
0
 10
106.055351346731
 20
69.406027868390083
 30
0.0
 11
107.39965029060831
 21
69.406027868390083
 31
0.0
  0
LINE
  5
15F4
  8
0
 10
101.05735100805749
 20
69.406027868390083
 30
0.0
 11
102.4016499519347
 21
69.406027868390083
 31
0.0
  0
LINE
  5
15F5
  8
0
 10
111.0533507540821
 20
40.572223216295257
 30
0.0
 11
112.3976496979593
 21
40.572223216295257
 31
0.0
  0
LINE
  5
15F6
  8
0
 10
106.055351346731
 20
40.572223216295257
 30
0.0
 11
107.39965029060831
 21
40.572223216295257
 31
0.0
  0
LINE
  5
15F7
  8
0
 10
108.55435058474529
 20
40.572223216295257
 30
0.0
 11
109.8986495286225
 21
40.572223216295257
 31
0.0
  0
LINE
  5
15F8
  8
0
 10
103.5563502460717
 20
40.572223216295257
 30
0.0
 11
104.90064918994889
 21
40.572223216295257
 31
0.0
  0
LINE
  5
15F9
  8
0
 10
101.05735100805749
 20
40.572223216295257
 30
0.0
 11
102.4016499519347
 21
40.572223216295257
 31
0.0
  0
LINE
  5
15FA
  8
0
 10
123.70000019436689
 20
48.989125490188592
 30
0.0
 11
123.70000019436689
 21
60.98912559449672
 31
0.0
  0
LINE
  5
15FB
  8
0
 10
124.0000002086161
 20
49.489125572144978
 30
0.0
 11
124.0000002086161
 21
60.48912551254034
 31
0.0
  0
LINE
  5
15FC
  8
0
 10
112.9749998450278
 20
68.582311235368252
 30
0.0
 11
112.3976496979593
 21
69.679360799491405
 31
0.0
  0
LINE
  5
15FD
  8
0
 10
112.3976496979593
 20
69.679360799491405
 30
0.0
 11
112.3976496979593
 21
69.978251084685326
 31
0.0
  0
LINE
  5
15FE
  8
0
 10
112.3976496979593
 20
69.978251084685326
 30
0.0
 11
112.9749998450278
 21
68.989125974476323
 31
0.0
  0
LINE
  5
1600
  8
0
 10
107.9769995063542
 20
68.582311235368252
 30
0.0
 11
107.39965029060831
 21
69.679360799491405
 31
0.0
  0
LINE
  5
1601
  8
0
 10
107.39965029060831
 20
69.679360799491405
 30
0.0
 11
107.39965029060831
 21
69.978251084685326
 31
0.0
  0
LINE
  5
1602
  8
0
 10
107.39965029060831
 20
69.978251084685326
 30
0.0
 11
107.9769995063542
 21
68.989125974476323
 31
0.0
  0
LINE
  5
1604
  8
0
 10
110.4760006070136
 20
68.582311235368252
 30
0.0
 11
109.8986495286225
 21
69.679360799491405
 31
0.0
  0
LINE
  5
1605
  8
0
 10
109.8986495286225
 20
69.679360799491405
 30
0.0
 11
109.8986495286225
 21
69.978251084685326
 31
0.0
  0
LINE
  5
1606
  8
0
 10
109.8986495286225
 20
69.978251084685326
 30
0.0
 11
110.4760006070136
 21
68.989125974476323
 31
0.0
  0
LINE
  5
1608
  8
0
 10
111.0533507540821
 20
69.679360799491405
 30
0.0
 11
110.4760006070136
 21
68.582311235368252
 31
0.0
  0
LINE
  5
1609
  8
0
 10
110.4760006070136
 20
68.989125974476323
 30
0.0
 11
111.0533507540821
 21
69.978251084685326
 31
0.0
  0
LINE
  5
160A
  8
0
 10
111.0533507540821
 20
69.978251084685326
 30
0.0
 11
111.0533507540821
 21
69.679360799491405
 31
0.0
  0
LINE
  5
160B
  8
0
 10
108.55435058474529
 20
69.679360799491405
 30
0.0
 11
107.9769995063542
 21
68.582311235368252
 31
0.0
  0
LINE
  5
160C
  8
0
 10
107.9769995063542
 20
68.989125974476323
 30
0.0
 11
108.55435058474529
 21
69.978251084685326
 31
0.0
  0
LINE
  5
160D
  8
0
 10
108.55435058474529
 20
69.978251084685326
 30
0.0
 11
108.55435058474529
 21
69.679360799491405
 31
0.0
  0
LINE
  5
160E
  8
0
 10
108.55435058474529
 20
69.679360799491405
 30
0.0
 11
109.8986495286225
 21
69.679360799491405
 31
0.0
  0
LINE
  5
160F
  8
0
 10
111.0533507540821
 20
69.679360799491405
 30
0.0
 11
112.3976496979593
 21
69.679360799491405
 31
0.0
  0
LINE
  5
1610
  8
0
 10
106.055351346731
 20
69.679360799491405
 30
0.0
 11
105.47800026834
 21
68.582311235368252
 31
0.0
  0
LINE
  5
1611
  8
0
 10
106.055351346731
 20
69.679360799491405
 30
0.0
 11
107.39965029060831
 21
69.679360799491405
 31
0.0
  0
LINE
  5
1612
  8
0
 10
101.05735100805749
 20
69.679360799491405
 30
0.0
 11
100.47999992966641
 21
68.582311235368252
 31
0.0
  0
LINE
  5
1613
  8
0
 10
100.47999992966641
 20
68.989125974476323
 30
0.0
 11
101.05735100805749
 21
69.978251084685326
 31
0.0
  0
LINE
  5
1614
  8
0
 10
101.05735100805749
 20
69.978251084685326
 30
0.0
 11
101.05735100805749
 21
69.679360799491405
 31
0.0
  0
LINE
  5
1616
  8
0
 10
102.9790010303258
 20
68.582311235368252
 30
0.0
 11
102.4016499519347
 21
69.679360799491405
 31
0.0
  0
LINE
  5
1617
  8
0
 10
102.4016499519347
 20
69.679360799491405
 30
0.0
 11
102.4016499519347
 21
69.978251084685326
 31
0.0
  0
LINE
  5
1618
  8
0
 10
102.4016499519347
 20
69.978251084685326
 30
0.0
 11
102.9790010303258
 21
68.989125974476323
 31
0.0
  0
LINE
  5
161A
  8
0
 10
105.47800026834
 20
68.582311235368252
 30
0.0
 11
104.90064918994889
 21
69.679360799491405
 31
0.0
  0
LINE
  5
161B
  8
0
 10
104.90064918994889
 20
69.679360799491405
 30
0.0
 11
104.90064918994889
 21
69.978251084685326
 31
0.0
  0
LINE
  5
161C
  8
0
 10
104.90064918994889
 20
69.978251084685326
 30
0.0
 11
105.47800026834
 21
68.989125974476323
 31
0.0
  0
LINE
  5
161E
  8
0
 10
103.5563502460717
 20
69.679360799491405
 30
0.0
 11
102.9790010303258
 21
68.582311235368252
 31
0.0
  0
LINE
  5
161F
  8
0
 10
102.9790010303258
 20
68.989125974476323
 30
0.0
 11
103.5563502460717
 21
69.978251084685326
 31
0.0
  0
LINE
  5
1620
  8
0
 10
103.5563502460717
 20
69.978251084685326
 30
0.0
 11
103.5563502460717
 21
69.679360799491405
 31
0.0
  0
LINE
  5
1621
  8
0
 10
105.47800026834
 20
68.989125974476323
 30
0.0
 11
106.055351346731
 21
69.978251084685326
 31
0.0
  0
LINE
  5
1622
  8
0
 10
106.055351346731
 20
69.978251084685326
 30
0.0
 11
106.055351346731
 21
69.679360799491405
 31
0.0
  0
LINE
  5
1623
  8
0
 10
103.5563502460717
 20
69.679360799491405
 30
0.0
 11
104.90064918994889
 21
69.679360799491405
 31
0.0
  0
LINE
  5
1624
  8
0
 10
101.05735100805749
 20
69.679360799491405
 30
0.0
 11
102.4016499519347
 21
69.679360799491405
 31
0.0
  0
LINE
  5
1625
  8
0
 10
100.47999992966641
 20
41.395939849317088
 30
0.0
 11
101.05735100805749
 21
40.298890285193927
 31
0.0
  0
LINE
  5
1626
  8
0
 10
102.4016499519347
 20
40.298890285193927
 30
0.0
 11
102.9790010303258
 21
41.395939849317088
 31
0.0
  0
LINE
  5
1627
  8
0
 10
101.05735100805749
 20
40.298890285193927
 30
0.0
 11
102.4016499519347
 21
40.298890285193927
 31
0.0
  0
LINE
  5
1628
  8
0
 10
101.05735100805749
 20
40.000000000000007
 30
0.0
 11
100.47999992966641
 21
40.989125110209002
 31
0.0
  0
LINE
  5
1629
  8
0
 10
101.05735100805749
 20
40.298890285193927
 30
0.0
 11
101.05735100805749
 21
40.000000000000007
 31
0.0
  0
LINE
  5
162A
  8
0
 10
100.47999992966641
 20
40.989125110209002
 30
0.0
 11
100.47999992966641
 21
68.989125974476195
 31
0.0
  0
LINE
  5
162B
  8
0
 10
105.47800026834
 20
40.989125110209002
 30
0.0
 11
104.90064918994889
 21
40.000000000000007
 31
0.0
  0
LINE
  5
162C
  8
0
 10
104.90064918994889
 20
40.000000000000007
 30
0.0
 11
104.90064918994889
 21
40.298890285193927
 31
0.0
  0
LINE
  5
162D
  8
0
 10
104.90064918994889
 20
40.298890285193927
 30
0.0
 11
105.47800026834
 21
41.395939849317088
 31
0.0
  0
LINE
  5
162E
  8
0
 10
105.47800026834
 20
40.989125110209002
 30
0.0
 11
105.47800026834
 21
68.989125974476323
 31
0.0
  0
LINE
  5
162F
  8
0
 10
106.055351346731
 20
40.000000000000007
 30
0.0
 11
105.47800026834
 21
40.989125110209002
 31
0.0
  0
LINE
  5
1630
  8
0
 10
105.47800026834
 20
41.395939849317088
 30
0.0
 11
106.055351346731
 21
40.298890285193927
 31
0.0
  0
LINE
  5
1631
  8
0
 10
106.055351346731
 20
40.298890285193927
 30
0.0
 11
106.055351346731
 21
40.000000000000007
 31
0.0
  0
LINE
  5
1632
  8
0
 10
103.5563502460717
 20
40.000000000000007
 30
0.0
 11
102.9790010303258
 21
40.989125110209002
 31
0.0
  0
LINE
  5
1633
  8
0
 10
102.9790010303258
 20
40.989125110209002
 30
0.0
 11
102.9790010303258
 21
68.989125974476323
 31
0.0
  0
LINE
  5
1634
  8
0
 10
102.9790010303258
 20
41.395939849317088
 30
0.0
 11
103.5563502460717
 21
40.298890285193927
 31
0.0
  0
LINE
  5
1635
  8
0
 10
103.5563502460717
 20
40.298890285193927
 30
0.0
 11
103.5563502460717
 21
40.000000000000007
 31
0.0
  0
LINE
  5
1636
  8
0
 10
107.39965029060831
 20
40.298890285193927
 30
0.0
 11
107.9769995063542
 21
41.395939849317088
 31
0.0
  0
LINE
  5
1637
  8
0
 10
106.055351346731
 20
40.298890285193927
 30
0.0
 11
107.39965029060831
 21
40.298890285193927
 31
0.0
  0
LINE
  5
1638
  8
0
 10
103.5563502460717
 20
40.298890285193927
 30
0.0
 11
104.90064918994889
 21
40.298890285193927
 31
0.0
  0
LINE
  5
1639
  8
0
 10
102.9790010303258
 20
40.989125110209002
 30
0.0
 11
102.4016499519347
 21
40.000000000000007
 31
0.0
  0
LINE
  5
163A
  8
0
 10
102.4016499519347
 20
40.000000000000007
 30
0.0
 11
102.4016499519347
 21
40.298890285193927
 31
0.0
  0
LINE
  5
163B
  8
0
 10
108.55435058474529
 20
40.000000000000007
 30
0.0
 11
107.9769995063542
 21
40.989125110209002
 31
0.0
  0
LINE
  5
163C
  8
0
 10
107.9769995063542
 20
40.989125110209002
 30
0.0
 11
107.9769995063542
 21
68.989125974476323
 31
0.0
  0
LINE
  5
163D
  8
0
 10
107.9769995063542
 20
41.395939849317088
 30
0.0
 11
108.55435058474529
 21
40.298890285193927
 31
0.0
  0
LINE
  5
163E
  8
0
 10
108.55435058474529
 20
40.298890285193927
 30
0.0
 11
108.55435058474529
 21
40.000000000000007
 31
0.0
  0
LINE
  5
163F
  8
0
 10
112.9749998450278
 20
40.989125110209002
 30
0.0
 11
112.3976496979593
 21
40.000000000000007
 31
0.0
  0
LINE
  5
1640
  8
0
 10
112.3976496979593
 20
40.000000000000007
 30
0.0
 11
112.3976496979593
 21
40.298890285193927
 31
0.0
  0
LINE
  5
1641
  8
0
 10
112.3976496979593
 20
40.298890285193927
 30
0.0
 11
112.9749998450278
 21
41.395939849317088
 31
0.0
  0
LINE
  5
1642
  8
0
 10
112.9749998450278
 20
40.989125110209002
 30
0.0
 11
112.9749998450278
 21
68.989125974476323
 31
0.0
  0
LINE
  5
1643
  8
0
 10
110.4760006070136
 20
41.395939849317088
 30
0.0
 11
111.0533507540821
 21
40.298890285193927
 31
0.0
  0
LINE
  5
1644
  8
0
 10
111.0533507540821
 20
40.298890285193927
 30
0.0
 11
112.3976496979593
 21
40.298890285193927
 31
0.0
  0
LINE
  5
1645
  8
0
 10
109.8986495286225
 20
40.298890285193927
 30
0.0
 11
110.4760006070136
 21
41.395939849317088
 31
0.0
  0
LINE
  5
1646
  8
0
 10
108.55435058474529
 20
40.298890285193927
 30
0.0
 11
109.8986495286225
 21
40.298890285193927
 31
0.0
  0
LINE
  5
1647
  8
0
 10
107.9769995063542
 20
40.989125110209002
 30
0.0
 11
107.39965029060831
 21
40.000000000000007
 31
0.0
  0
LINE
  5
1648
  8
0
 10
107.39965029060831
 20
40.000000000000007
 30
0.0
 11
107.39965029060831
 21
40.298890285193927
 31
0.0
  0
LINE
  5
1649
  8
0
 10
110.4760006070136
 20
40.989125110209002
 30
0.0
 11
109.8986495286225
 21
40.000000000000007
 31
0.0
  0
LINE
  5
164A
  8
0
 10
109.8986495286225
 20
40.000000000000007
 30
0.0
 11
109.8986495286225
 21
40.298890285193927
 31
0.0
  0
LINE
  5
164B
  8
0
 10
110.4760006070136
 20
40.989125110209002
 30
0.0
 11
110.4760006070136
 21
68.989125974476323
 31
0.0
  0
LINE
  5
164C
  8
0
 10
111.0533507540821
 20
40.000000000000007
 30
0.0
 11
110.4760006070136
 21
40.989125110209002
 31
0.0
  0
LINE
  5
164D
  8
0
 10
111.0533507540821
 20
40.298890285193927
 30
0.0
 11
111.0533507540821
 21
40.000000000000007
 31
0.0
  0
LINE
  5
164E
  8
0
 10
101.05735100805749
 20
69.978251084685326
 30
0.0
 11
102.4016499519347
 21
69.978251084685326
 31
0.0
  0
LINE
  5
164F
  8
0
 10
111.0533507540821
 20
69.978251084685326
 30
0.0
 11
112.3976496979593
 21
69.978251084685326
 31
0.0
  0
LINE
  5
1650
  8
0
 10
106.055351346731
 20
69.978251084685326
 30
0.0
 11
107.39965029060831
 21
69.978251084685326
 31
0.0
  0
LINE
  5
1651
  8
0
 10
108.55435058474529
 20
69.978251084685326
 30
0.0
 11
109.8986495286225
 21
69.978251084685326
 31
0.0
  0
LINE
  5
1652
  8
0
 10
103.5563502460717
 20
69.978251084685326
 30
0.0
 11
104.90064918994889
 21
69.978251084685326
 31
0.0
  0
LINE
  5
1653
  8
0
 10
106.055351346731
 20
40.000000000000007
 30
0.0
 11
107.39965029060831
 21
40.000000000000007
 31
0.0
  0
LINE
  5
1654
  8
0
 10
108.55435058474529
 20
40.000000000000007
 30
0.0
 11
109.8986495286225
 21
40.000000000000007
 31
0.0
  0
LINE
  5
1655
  8
0
 10
111.0533507540821
 20
40.000000000000007
 30
0.0
 11
112.3976496979593
 21
40.000000000000007
 31
0.0
  0
LINE
  5
1656
  8
0
 10
103.5563502460717
 20
40.000000000000007
 30
0.0
 11
104.90064918994889
 21
40.000000000000007
 31
0.0
  0
LINE
  5
1657
  8
0
 10
101.05735100805749
 20
40.000000000000007
 30
0.0
 11
102.4016499519347
 21
40.000000000000007
 31
0.0
  0
CIRCLE
  5
1658
  8
3
 10
115.5000002086161
 20
54.989125542342663
 30
0.0
 40
1.620999541133642
  0
LINE
  5
1659
  8
0
 10
116.16666652262199
 20
55.37402570829726
 30
0.0
 11
115.4999997466801
 21
55.758925874251872
 31
0.0
  0
LINE
  5
165A
  8
0
 10
115.4999997466801
 20
55.758925874251872
 30
0.0
 11
114.8333339020608
 21
55.37402570829726
 31
0.0
  0
LINE
  5
165B
  8
0
 10
114.8333339020608
 20
55.37402570829726
 30
0.0
 11
114.8333339020608
 21
54.604225376388051
 31
0.0
  0
LINE
  5
165C
  8
0
 10
114.8333339020608
 20
54.604225376388051
 30
0.0
 11
115.4999997466801
 21
54.219325210433453
 31
0.0
  0
LINE
  5
165D
  8
0
 10
115.4999997466801
 20
54.219325210433453
 30
0.0
 11
116.16666652262199
 21
54.604225376388051
 31
0.0
  0
LINE
  5
165E
  8
0
 10
116.16666652262199
 20
54.604225376388051
 30
0.0
 11
116.16666652262199
 21
55.37402570829726
 31
0.0
  0
CIRCLE
  5
16A3
  8
0
 10
54.999999999999943
 20
114.9782507494091
 30
0.0
 40
5.1162790697674287
  0
CIRCLE
  5
16A4
  8
0
 10
54.999999999999943
 20
114.9782507494091
 30
0.0
 40
13.389999999999979
  0
CIRCLE
  5
16A5
  8
0
 10
54.999999999999943
 20
114.9782507494091
 30
0.0
 40
4.156279069767435
  0
LINE
  5
16A6
  8
0
 10
40.3097647428512
 20
118.0109057389199
 30
0.0
 11
41.406814306974347
 21
118.32866997458039
 31
0.0
  0
ARC
  5
16A8
  8
0
 10
54.999999999999943
 20
114.9782507494091
 30
0.0
 40
15.0
 50
168.33570686919199
 51
177.81813928465351
  0
LINE
  5
16A9
  8
0
 10
40.999999567866318
 20
114.9782507494091
 30
0.0
 11
40.01087445765728
 21
115.54932250175619
 31
0.0
  0
LINE
  5
16AB
  8
0
 10
41.406814306974347
 20
111.62783152423791
 30
0.0
 11
40.3097647428512
 21
111.9455957598984
 31
0.0
  0
ARC
  5
16AC
  8
0
 10
54.999999999999943
 20
114.9782507494091
 30
0.0
 40
15.0
 50
182.1818607153472
 51
191.66429313080889
  0
LINE
  5
16AD
  8
0
 10
40.01087445765728
 20
114.4071789970621
 30
0.0
 11
40.999999567866318
 21
114.9782507494091
 31
0.0
  0
LINE
  5
16AE
  8
0
 10
41.46239843219513
 20
121.43838562071321
 30
0.0
 11
42.603615969419423
 21
121.48437526077031
 31
0.0
  0
LINE
  5
16B0
  8
0
 10
41.406814306974347
 20
118.32866997458039
 30
0.0
 11
40.583097673952523
 21
119.1198608651757
 31
0.0
  0
ARC
  5
16B1
  8
0
 10
54.999999999999943
 20
114.9782507494091
 30
0.0
 40
15.0
 50
154.48955302303739
 51
163.9719854385005
  0
LINE
  5
16B3
  8
0
 10
42.603615969419423
 20
108.47212623804801
 30
0.0
 11
41.46239843219513
 21
108.51811587810511
 31
0.0
  0
ARC
  5
16B4
  8
0
 10
54.999999999999943
 20
114.9782507494091
 30
0.0
 40
15.0
 50
196.0280145615001
 51
205.51044697696321
  0
LINE
  5
16B5
  8
0
 10
40.583097673952523
 20
110.8366406336426
 30
0.0
 11
41.406814306974347
 21
111.62783152423791
 31
0.0
  0
LINE
  5
16CC
  8
0
 10
44.520849660038891
 20
105.69453395903111
 30
0.0
 11
43.401788286864701
 21
105.466075874865
 31
0.0
  0
ARC
  5
16CD
  8
0
 10
54.999999999999943
 20
114.9782507494091
 30
0.0
 40
15.0
 50
209.87416840765519
 51
219.35660082311841
  0
LINE
  5
16CE
  8
0
 10
41.993178725242558
 20
107.5067978166043
 30
0.0
 11
42.603615969419423
 21
108.47212623804801
 31
0.0
  0
LINE
  5
16CF
  8
0
 10
43.401788286864701
 20
124.4904256239533
 30
0.0
 11
44.520849660038891
 21
124.26196753978719
 31
0.0
  0
ARC
  5
16D0
  8
0
 10
54.999999999999943
 20
114.9782507494091
 30
0.0
 40
15.0
 50
140.643399176884
 51
150.12583159234529
  0
LINE
  5
16D1
  8
0
 10
42.603615969419423
 20
121.48437526077031
 30
0.0
 11
41.993178725242558
 21
122.44970368221399
 31
0.0
  0
LINE
  5
16D2
  8
0
 10
46.015223786234799
 20
126.9896530359983
 30
0.0
 11
47.047093808650907
 21
126.50002509355539
 31
0.0
  0
ARC
  5
16D3
  8
0
 10
54.999999999999943
 20
114.9782507494091
 30
0.0
 40
15.0
 50
126.7972453307283
 51
136.27967774619191
  0
LINE
  5
16D4
  8
0
 10
44.520849660038891
 20
124.26196753978719
 30
0.0
 11
44.159169606864388
 21
125.345332249999
 31
0.0
  0
LINE
  5
16D5
  8
0
 10
47.047093808650907
 20
103.4564764052629
 30
0.0
 11
46.015223786234799
 21
102.96684846282
 31
0.0
  0
ARC
  5
16D6
  8
0
 10
54.999999999999943
 20
114.9782507494091
 30
0.0
 40
15.0
 50
223.72032225380801
 51
233.2027546692716
  0
LINE
  5
16D7
  8
0
 10
44.159169606864388
 20
104.61116924881929
 30
0.0
 11
44.520849660038891
 21
105.69453395903111
 31
0.0
  0
LINE
  5
16D8
  8
0
 10
46.955189034342709
 20
102.3180370032787
 30
0.0
 11
47.047093808650907
 21
103.4564764052629
 31
0.0
  0
LINE
  5
16D9
  8
0
 10
50.035531464964087
 20
101.8880230188369
 30
0.0
 11
49.150821585208121
 21
101.16567991673941
 31
0.0
  0
ARC
  5
16DA
  8
0
 10
54.999999999999943
 20
114.9782507494091
 30
0.0
 40
15.0
 50
237.5664760999594
 51
247.0489085154264
  0
ARC
  5
16DB
  8
0
 10
54.999999999999943
 20
114.9782507494091
 30
0.0
 40
14.999999999999989
 50
112.9510914845736
 51
122.4335239000406
  0
LINE
  5
16DC
  8
0
 10
49.150821585208121
 20
128.79082158207891
 30
0.0
 11
50.035531464964087
 21
128.06847847998131
 31
0.0
  0
LINE
  5
16DD
  8
0
 10
47.047093808650907
 20
126.50002509355539
 30
0.0
 11
46.955189034342709
 21
127.63846449553959
 31
0.0
  0
LINE
  5
16DE
  8
0
 10
50.035531464964087
 20
128.06847847998131
 30
0.0
 11
50.218744501471463
 21
129.1958314180373
 31
0.0
  0
ARC
  5
16DF
  8
0
 10
54.999999999999943
 20
114.9782507494091
 30
0.0
 40
14.999999999999989
 50
99.104937638422072
 51
108.5873700538869
  0
LINE
  5
16E0
  8
0
 10
52.62635258957738
 20
129.789253398776
 30
0.0
 11
53.31248645205045
 21
128.87617543339721
 31
0.0
  0
LINE
  5
16E1
  8
0
 10
53.31248645205045
 20
101.080326065421
 30
0.0
 11
52.62635258957738
 21
100.1672481000423
 31
0.0
  0
ARC
  5
16E2
  8
0
 10
54.999999999999943
 20
114.9782507494091
 30
0.0
 40
15.0
 50
251.4126299461131
 51
260.89506236157791
  0
LINE
  5
16E3
  8
0
 10
50.218744501471463
 20
100.7606700807809
 30
0.0
 11
50.035531464964087
 21
101.8880230188369
 31
0.0
  0
LINE
  5
16E4
  8
0
 10
53.31248645205045
 20
128.87617543339721
 30
0.0
 11
53.760168557055238
 21
129.92692336440081
 31
0.0
  0
ARC
  5
16E5
  8
0
 10
54.999999999999943
 20
114.9782507494091
 30
0.0
 40
14.99999999999998
 50
85.258783792272268
 51
94.741216207727703
  0
LINE
  5
16E6
  8
0
 10
56.239831442944649
 20
129.92692336440081
 30
0.0
 11
56.687513547949429
 21
128.87617543339721
 31
0.0
  0
LINE
  5
16E7
  8
0
 10
53.760168557055238
 20
100.02957813441751
 30
0.0
 11
53.31248645205045
 21
101.080326065421
 31
0.0
  0
LINE
  5
16E8
  8
0
 10
56.687513547949429
 20
101.080326065421
 30
0.0
 11
56.239831442944649
 21
100.02957813441751
 31
0.0
  0
ARC
  5
16E9
  8
0
 10
54.999999999999943
 20
114.9782507494091
 30
0.0
 40
14.999999999999989
 50
265.25878379227231
 51
274.74121620773423
  0
LINE
  5
16EA
  8
0
 10
57.373647410422507
 20
100.1672481000423
 30
0.0
 11
56.687513547949429
 21
101.080326065421
 31
0.0
  0
LINE
  5
16EB
  8
0
 10
59.964468535035792
 20
101.8880230188369
 30
0.0
 11
59.781255498528417
 21
100.7606700807809
 31
0.0
  0
ARC
  5
16EC
  8
0
 10
54.999999999999943
 20
114.9782507494091
 30
0.0
 40
15.0
 50
279.10493763842197
 51
288.5873700538869
  0
LINE
  5
16ED
  8
0
 10
56.687513547949429
 20
128.87617543339721
 30
0.0
 11
57.373647410422507
 21
129.789253398776
 31
0.0
  0
ARC
  5
16EE
  8
0
 10
54.999999999999943
 20
114.9782507494091
 30
0.0
 40
14.999999999999989
 50
71.412629946113114
 51
80.895062361577928
  0
LINE
  5
16EF
  8
0
 10
59.781255498528417
 20
129.1958314180373
 30
0.0
 11
59.964468535035792
 21
128.06847847998131
 31
0.0
  0
ARC
  5
16F0
  8
0
 10
54.999999999999943
 20
114.9782507494091
 30
0.0
 40
14.999999999999989
 50
57.566476099959303
 51
67.048908515426405
  0
LINE
  5
16F1
  8
0
 10
63.044810965657177
 20
127.63846449553959
 30
0.0
 11
62.952906191348973
 21
126.50002509355539
 31
0.0
  0
LINE
  5
16F2
  8
0
 10
59.964468535035792
 20
128.06847847998131
 30
0.0
 11
60.849178414791758
 21
128.79082158207891
 31
0.0
  0
LINE
  5
16F3
  8
0
 10
60.849178414791758
 20
101.16567991673941
 30
0.0
 11
59.964468535035792
 21
101.8880230188369
 31
0.0
  0
LINE
  5
16F4
  8
0
 10
62.952906191348973
 20
103.4564764052629
 30
0.0
 11
63.044810965657177
 21
102.3180370032787
 31
0.0
  0
ARC
  5
16F5
  8
0
 10
54.999999999999943
 20
114.9782507494091
 30
0.0
 40
15.0
 50
292.9510914845805
 51
302.43352390004071
  0
LINE
  5
16F6
  8
0
 10
63.984776213765088
 20
102.96684846282
 30
0.0
 11
62.952906191348973
 21
103.4564764052629
 31
0.0
  0
LINE
  5
16F7
  8
0
 10
65.479150339960995
 20
105.69453395903111
 30
0.0
 11
65.840830393135491
 21
104.61116924881929
 31
0.0
  0
ARC
  5
16F8
  8
0
 10
54.999999999999943
 20
114.9782507494091
 30
0.0
 40
15.0
 50
306.7972453307284
 51
316.27967774619208
  0
LINE
  5
16F9
  8
0
 10
62.952906191348973
 20
126.50002509355539
 30
0.0
 11
63.984776213765088
 21
126.9896530359983
 31
0.0
  0
ARC
  5
16FA
  8
0
 10
54.999999999999943
 20
114.9782507494091
 30
0.0
 40
14.999999999999989
 50
43.720322253808021
 51
53.202754669271691
  0
LINE
  5
16FB
  8
0
 10
65.840830393135491
 20
125.345332249999
 30
0.0
 11
65.479150339960995
 21
124.26196753978719
 31
0.0
  0
ARC
  5
16FC
  8
0
 10
54.999999999999943
 20
114.9782507494091
 30
0.0
 40
14.999999999999989
 50
29.874168407654668
 51
39.356600823115983
  0
LINE
  5
16FD
  8
0
 10
68.006821274757328
 20
122.44970368221399
 30
0.0
 11
67.396384030580464
 21
121.48437526077031
 31
0.0
  0
LINE
  5
16FE
  8
0
 10
65.479150339960995
 20
124.26196753978719
 30
0.0
 11
66.598211713135186
 21
124.4904256239533
 31
0.0
  0
LINE
  5
16FF
  8
0
 10
67.396384030580464
 20
108.47212623804801
 30
0.0
 11
68.006821274757328
 21
107.5067978166043
 31
0.0
  0
ARC
  5
1700
  8
0
 10
54.999999999999943
 20
114.9782507494091
 30
0.0
 40
15.0
 50
320.64339917688687
 51
330.12583159234589
  0
LINE
  5
1701
  8
0
 10
66.598211713135186
 20
105.466075874865
 30
0.0
 11
65.479150339960995
 21
105.69453395903111
 31
0.0
  0
ARC
  5
1702
  8
0
 10
54.999999999999943
 20
114.9782507494091
 30
0.0
 40
15.0
 50
16.02801456149945
 51
25.510446976962552
  0
LINE
  5
1703
  8
0
 10
69.416902326047364
 20
119.1198608651757
 30
0.0
 11
68.593185693025532
 21
118.32866997458039
 31
0.0
  0
LINE
  5
1704
  8
0
 10
67.396384030580464
 20
121.48437526077031
 30
0.0
 11
68.537601567804757
 21
121.43838562071321
 31
0.0
  0
LINE
  5
1705
  8
0
 10
68.593185693025532
 20
111.62783152423791
 30
0.0
 11
69.416902326047364
 21
110.8366406336426
 31
0.0
  0
ARC
  5
1706
  8
0
 10
54.999999999999943
 20
114.9782507494091
 30
0.0
 40
15.000000000000011
 50
334.48955302303813
 51
343.97198543850118
  0
LINE
  5
1707
  8
0
 10
68.537601567804757
 20
108.51811587810511
 30
0.0
 11
67.396384030580464
 21
108.47212623804801
 31
0.0
  0
LINE
  5
1708
  8
0
 10
68.593185693025532
 20
118.32866997458039
 30
0.0
 11
69.690235257148686
 21
118.0109057389199
 31
0.0
  0
ARC
  5
1709
  8
0
 10
54.999999999999943
 20
114.9782507494091
 30
0.0
 40
14.999999999999989
 50
2.1818607153456488
 51
11.664293130808
  0
LINE
  5
170A
  8
0
 10
69.989125542342606
 20
115.54932250175619
 30
0.0
 11
69.000000432133618
 21
114.9782507494091
 31
0.0
  0
LINE
  5
170B
  8
0
 10
69.690235257148686
 20
111.9455957598984
 30
0.0
 11
68.593185693025532
 21
111.62783152423791
 31
0.0
  0
LINE
  5
170C
  8
0
 10
69.000000432133618
 20
114.9782507494091
 30
0.0
 11
69.989125542342606
 21
114.4071789970621
 31
0.0
  0
ARC
  5
170D
  8
0
 10
54.999999999999943
 20
114.9782507494091
 30
0.0
 40
15.0
 50
348.33570686919268
 51
357.81813928465442
  0
CIRCLE
  5
172E
  8
0
 10
169.00000020861609
 20
114.9782507494091
 30
0.0
 40
5.4999999999999707
  0
CIRCLE
  5
172F
  8
0
 10
169.00000020861609
 20
114.9782507494091
 30
0.0
 40
2.5
  0
CIRCLE
  5
1730
  8
0
 10
169.00000020861609
 20
114.9782507494091
 30
0.0
 40
5.9999999999999707
  0
CIRCLE
  5
1731
  8
0
 10
169.00000020861609
 20
114.9782507494091
 30
0.0
 40
13.0
  0
CIRCLE
  5
1732
  8
0
 10
169.00000020861609
 20
114.9782507494091
 30
0.0
 40
13.389999999999979
  0
LINE
  5
179C
  8
2
 10
167.42950032641301
 20
101.9725982844829
 30
0.0
 11
170.570500090819
 21
101.9725982844829
 31
0.0
  0
LINE
  5
179F
  8
2
 10
167.00000011362121
 20
102.4020981788635
 30
0.0
 11
171.00000030361099
 21
102.4020981788635
 31
0.0
  0
LINE
  5
17A0
  8
2
 10
167.00000011362121
 20
111.5430983901023
 30
0.0
 11
171.00000030361099
 21
111.5430983901023
 31
0.0
  0
LINE
  5
17A1
  8
2
 10
167.4295002408324
 20
111.9725982844829
 30
0.0
 11
170.5705001763998
 21
111.9725982844829
 31
0.0
  0
LINE
  5
17A3
  8
2
 10
168.61510004266151
 20
101.9725982844829
 30
0.0
 11
168.61510004266151
 21
103.9782508090138
 31
0.0
  0
LINE
  5
17A5
  8
2
 10
169.38490037457069
 20
101.9725982844829
 30
0.0
 11
169.38490037457069
 21
103.9782508090138
 31
0.0
  0
LINE
  5
17A6
  8
2
 10
169.7698005405253
 20
103.9782508090138
 30
0.0
 11
168.23019987670691
 21
103.9782508090138
 31
0.0
  0
LINE
  5
17A7
  8
2
 10
168.23019987670691
 20
101.9725982844829
 30
0.0
 11
168.23019987670691
 21
103.9782508090138
 31
0.0
  0
LINE
  5
17A8
  8
2
 10
169.7698005405253
 20
101.9725982844829
 30
0.0
 11
169.7698005405253
 21
103.9782508090138
 31
0.0
  0
LINE
  5
17AC
  8
2
 10
167.37900020554639
 20
113.0683117592707
 30
0.0
 11
167.37900020554639
 21
102.023098367911
 31
0.0
  0
LINE
  5
17AD
  8
2
 10
170.6210002116857
 20
102.0230983679111
 30
0.0
 11
170.6210002116857
 21
113.06761524640019
 31
0.0
  0
LINE
  5
17AE
  8
2
 10
167.00000011362121
 20
102.4020981788635
 30
0.0
 11
167.42950032641301
 21
101.9725982844829
 31
0.0
  0
LINE
  5
17AF
  8
2
 10
170.570500090819
 20
101.9725982844829
 30
0.0
 11
171.00000030361099
 21
102.4020981788635
 31
0.0
  0
LINE
  5
17B0
  8
2
 10
167.0000001136211
 20
113.4782508760691
 30
0.0
 11
167.0000001136211
 21
102.1330181855347
 31
0.0
  0
LINE
  5
17B1
  8
2
 10
171.00000030361099
 20
102.1330181855347
 30
0.0
 11
171.00000030361099
 21
113.478250876069
 31
0.0
  0
LINE
  5
17B2
  8
2
 10
171.00000030361099
 20
111.5430983901023
 30
0.0
 11
170.5705001763998
 21
111.9725982844829
 31
0.0
  0
LINE
  5
17B3
  8
2
 10
167.4295002408324
 20
111.9725982844829
 30
0.0
 11
167.00000011362121
 21
111.5430983901023
 31
0.0
  0
CIRCLE
  5
17C2
  8
0
 10
54.999999999999943
 20
114.9782507494091
 30
0.0
 40
14.0
  0
LINE
  5
1887
  8
0
 10
154.30976495146729
 20
118.0109057389199
 30
0.0
 11
155.4068145155905
 21
118.32866997458039
 31
0.0
  0
ARC
  5
1888
  8
0
 10
169.00000020861609
 20
114.9782507494091
 30
0.0
 40
15.0
 50
168.33570686919199
 51
177.81813928465351
  0
LINE
  5
1889
  8
0
 10
154.99999977648241
 20
114.9782507494091
 30
0.0
 11
154.01087466627339
 21
115.54932250175619
 31
0.0
  0
LINE
  5
188A
  8
0
 10
155.4068145155905
 20
111.62783152423791
 30
0.0
 11
154.30976495146729
 21
111.9455957598984
 31
0.0
  0
ARC
  5
188B
  8
0
 10
169.00000020861609
 20
114.9782507494091
 30
0.0
 40
15.0
 50
182.1818607153472
 51
191.66429313080889
  0
LINE
  5
188C
  8
0
 10
154.01087466627339
 20
114.4071789970621
 30
0.0
 11
154.99999977648241
 21
114.9782507494091
 31
0.0
  0
LINE
  5
188D
  8
0
 10
155.4623986408113
 20
121.43838562071321
 30
0.0
 11
156.60361617803551
 21
121.48437526077031
 31
0.0
  0
LINE
  5
188E
  8
0
 10
155.4068145155905
 20
118.32866997458039
 30
0.0
 11
154.58309788256861
 21
119.1198608651757
 31
0.0
  0
ARC
  5
188F
  8
0
 10
169.00000020861609
 20
114.9782507494091
 30
0.0
 40
15.0
 50
154.48955302303739
 51
163.9719854385001
  0
LINE
  5
1890
  8
0
 10
156.60361617803551
 20
108.47212623804801
 30
0.0
 11
155.4623986408113
 21
108.51811587810511
 31
0.0
  0
ARC
  5
1891
  8
0
 10
169.00000020861609
 20
114.9782507494091
 30
0.0
 40
15.0
 50
196.0280145615001
 51
205.51044697696341
  0
LINE
  5
1892
  8
0
 10
154.58309788256861
 20
110.8366406336426
 30
0.0
 11
155.4068145155905
 21
111.62783152423791
 31
0.0
  0
LINE
  5
1893
  8
0
 10
158.52084986865501
 20
105.69453395903111
 30
0.0
 11
157.40178849548079
 21
105.466075874865
 31
0.0
  0
ARC
  5
1894
  8
0
 10
169.00000020861609
 20
114.9782507494091
 30
0.0
 40
15.0
 50
209.87416840765519
 51
219.35660082311821
  0
LINE
  5
1895
  8
0
 10
155.9931789338587
 20
107.5067978166043
 30
0.0
 11
156.60361617803551
 21
108.47212623804801
 31
0.0
  0
LINE
  5
1896
  8
0
 10
157.40178849548079
 20
124.4904256239533
 30
0.0
 11
158.52084986865501
 21
124.26196753978719
 31
0.0
  0
ARC
  5
1897
  8
0
 10
169.00000020861609
 20
114.9782507494091
 30
0.0
 40
15.0
 50
140.643399176884
 51
150.12583159234529
  0
LINE
  5
1898
  8
0
 10
156.60361617803551
 20
121.48437526077031
 30
0.0
 11
155.9931789338587
 21
122.44970368221399
 31
0.0
  0
LINE
  5
1899
  8
0
 10
160.01522399485091
 20
126.9896530359983
 30
0.0
 11
161.047094017267
 21
126.50002509355539
 31
0.0
  0
ARC
  5
189A
  8
0
 10
169.00000020861609
 20
114.9782507494091
 30
0.0
 40
15.0
 50
126.797245330728
 51
136.27967774619191
  0
LINE
  5
189B
  8
0
 10
158.52084986865501
 20
124.26196753978719
 30
0.0
 11
158.15916981548051
 21
125.345332249999
 31
0.0
  0
LINE
  5
189C
  8
0
 10
161.047094017267
 20
103.4564764052629
 30
0.0
 11
160.01522399485091
 21
102.96684846282
 31
0.0
  0
ARC
  5
189D
  8
0
 10
169.00000020861609
 20
114.9782507494091
 30
0.0
 40
15.0
 50
223.72032225380801
 51
233.202754669272
  0
LINE
  5
189E
  8
0
 10
158.15916981548051
 20
104.61116924881929
 30
0.0
 11
158.52084986865501
 21
105.69453395903111
 31
0.0
  0
LINE
  5
189F
  8
0
 10
160.9551892429588
 20
102.3180370032787
 30
0.0
 11
161.047094017267
 21
103.4564764052629
 31
0.0
  0
LINE
  5
18A0
  8
0
 10
164.03553167358021
 20
101.8880230188369
 30
0.0
 11
163.15082179382421
 21
101.16567991673941
 31
0.0
  0
ARC
  5
18A1
  8
0
 10
169.00000020861609
 20
114.9782507494091
 30
0.0
 40
15.0
 50
237.56647609995909
 51
247.0489085154264
  0
ARC
  5
18A2
  8
0
 10
169.00000020861609
 20
114.9782507494091
 30
0.0
 40
14.999999999999989
 50
112.9510914845736
 51
122.4335239000409
  0
LINE
  5
18A3
  8
0
 10
163.15082179382421
 20
128.79082158207891
 30
0.0
 11
164.03553167358021
 21
128.06847847998131
 31
0.0
  0
LINE
  5
18A4
  8
0
 10
161.047094017267
 20
126.50002509355539
 30
0.0
 11
160.9551892429588
 21
127.63846449553959
 31
0.0
  0
LINE
  5
18A5
  8
0
 10
164.03553167358021
 20
128.06847847998131
 30
0.0
 11
164.21874471008761
 21
129.1958314180373
 31
0.0
  0
ARC
  5
18A6
  8
0
 10
169.00000020861609
 20
114.9782507494091
 30
0.0
 40
14.999999999999989
 50
99.104937638422072
 51
108.5873700538869
  0
LINE
  5
18A7
  8
0
 10
166.62635279819349
 20
129.789253398776
 30
0.0
 11
167.31248666066659
 21
128.87617543339721
 31
0.0
  0
LINE
  5
18A8
  8
0
 10
167.31248666066659
 20
101.080326065421
 30
0.0
 11
166.62635279819349
 21
100.1672481000423
 31
0.0
  0
ARC
  5
18A9
  8
0
 10
169.00000020861609
 20
114.9782507494091
 30
0.0
 40
15.0
 50
251.4126299461131
 51
260.89506236157791
  0
LINE
  5
18AA
  8
0
 10
164.21874471008761
 20
100.7606700807809
 30
0.0
 11
164.03553167358021
 21
101.8880230188369
 31
0.0
  0
LINE
  5
18AB
  8
0
 10
167.31248666066659
 20
128.87617543339721
 30
0.0
 11
167.76016876567141
 21
129.92692336440081
 31
0.0
  0
ARC
  5
18AC
  8
0
 10
169.00000020861609
 20
114.9782507494091
 30
0.0
 40
14.99999999999998
 50
85.258783792272268
 51
94.741216207727703
  0
LINE
  5
18AD
  8
0
 10
170.23983165156079
 20
129.92692336440081
 30
0.0
 11
170.68751375656561
 21
128.87617543339721
 31
0.0
  0
LINE
  5
18AE
  8
0
 10
167.76016876567141
 20
100.02957813441751
 30
0.0
 11
167.31248666066659
 21
101.080326065421
 31
0.0
  0
LINE
  5
18AF
  8
0
 10
170.68751375656561
 20
101.080326065421
 30
0.0
 11
170.23983165156079
 21
100.02957813441751
 31
0.0
  0
ARC
  5
18B0
  8
0
 10
169.00000020861609
 20
114.9782507494091
 30
0.0
 40
14.999999999999989
 50
265.25878379227231
 51
274.74121620773423
  0
LINE
  5
18B1
  8
0
 10
171.37364761903859
 20
100.1672481000423
 30
0.0
 11
170.68751375656561
 21
101.080326065421
 31
0.0
  0
LINE
  5
18B2
  8
0
 10
173.96446874365191
 20
101.8880230188369
 30
0.0
 11
173.78125570714451
 21
100.7606700807809
 31
0.0
  0
ARC
  5
18B3
  8
0
 10
169.00000020861609
 20
114.9782507494091
 30
0.0
 40
15.0
 50
279.10493763842197
 51
288.5873700538869
  0
LINE
  5
18B4
  8
0
 10
170.68751375656561
 20
128.87617543339721
 30
0.0
 11
171.37364761903859
 21
129.789253398776
 31
0.0
  0
ARC
  5
18B5
  8
0
 10
169.00000020861609
 20
114.9782507494091
 30
0.0
 40
14.999999999999989
 50
71.412629946113114
 51
80.895062361577928
  0
LINE
  5
18B6
  8
0
 10
173.78125570714451
 20
129.1958314180373
 30
0.0
 11
173.96446874365191
 21
128.06847847998131
 31
0.0
  0
ARC
  5
18B7
  8
0
 10
169.00000020861609
 20
114.9782507494091
 30
0.0
 40
14.999999999999989
 50
57.56647609995909
 51
67.048908515426405
  0
LINE
  5
18B8
  8
0
 10
177.04481117427329
 20
127.63846449553959
 30
0.0
 11
176.95290639996509
 21
126.50002509355539
 31
0.0
  0
LINE
  5
18B9
  8
0
 10
173.96446874365191
 20
128.06847847998131
 30
0.0
 11
174.84917862340791
 21
128.79082158207891
 31
0.0
  0
LINE
  5
18BA
  8
0
 10
174.84917862340791
 20
101.16567991673941
 30
0.0
 11
173.96446874365191
 21
101.8880230188369
 31
0.0
  0
LINE
  5
18BB
  8
0
 10
176.95290639996509
 20
103.4564764052629
 30
0.0
 11
177.04481117427329
 21
102.3180370032787
 31
0.0
  0
ARC
  5
18BC
  8
0
 10
169.00000020861609
 20
114.9782507494091
 30
0.0
 40
15.0
 50
292.95109148458067
 51
302.43352390004088
  0
LINE
  5
18BD
  8
0
 10
177.9847764223812
 20
102.96684846282
 30
0.0
 11
176.95290639996509
 21
103.4564764052629
 31
0.0
  0
LINE
  5
18BE
  8
0
 10
179.47915054857711
 20
105.69453395903111
 30
0.0
 11
179.84083060175161
 21
104.61116924881929
 31
0.0
  0
ARC
  5
18BF
  8
0
 10
169.00000020861609
 20
114.9782507494091
 30
0.0
 40
15.0
 50
306.79724533072869
 51
316.27967774619202
  0
LINE
  5
18C0
  8
0
 10
176.95290639996509
 20
126.50002509355539
 30
0.0
 11
177.9847764223812
 21
126.9896530359983
 31
0.0
  0
ARC
  5
18C1
  8
0
 10
169.00000020861609
 20
114.9782507494091
 30
0.0
 40
14.999999999999989
 50
43.720322253808021
 51
53.202754669271918
  0
LINE
  5
18C2
  8
0
 10
179.84083060175161
 20
125.345332249999
 30
0.0
 11
179.47915054857711
 21
124.26196753978719
 31
0.0
  0
ARC
  5
18C3
  8
0
 10
169.00000020861609
 20
114.9782507494091
 30
0.0
 40
14.999999999999989
 50
29.874168407654668
 51
39.356600823115983
  0
LINE
  5
18C4
  8
0
 10
182.00682148337339
 20
122.44970368221399
 30
0.0
 11
181.39638423919661
 21
121.48437526077031
 31
0.0
  0
LINE
  5
18C5
  8
0
 10
179.47915054857711
 20
124.26196753978719
 30
0.0
 11
180.5982119217513
 21
124.4904256239533
 31
0.0
  0
LINE
  5
18C6
  8
0
 10
181.39638423919661
 20
108.47212623804801
 30
0.0
 11
182.00682148337339
 21
107.5067978166043
 31
0.0
  0
ARC
  5
18C7
  8
0
 10
169.00000020861609
 20
114.9782507494091
 30
0.0
 40
15.0
 50
320.64339917688687
 51
330.12583159234589
  0
LINE
  5
18C8
  8
0
 10
180.5982119217513
 20
105.466075874865
 30
0.0
 11
179.47915054857711
 21
105.69453395903111
 31
0.0
  0
ARC
  5
18C9
  8
0
 10
169.00000020861609
 20
114.9782507494091
 30
0.0
 40
15.0
 50
16.028014561499809
 51
25.510446976962552
  0
LINE
  5
18CA
  8
0
 10
183.41690253466351
 20
119.1198608651757
 30
0.0
 11
182.5931859016417
 21
118.32866997458039
 31
0.0
  0
LINE
  5
18CB
  8
0
 10
181.39638423919661
 20
121.48437526077031
 30
0.0
 11
182.5376017764209
 21
121.43838562071321
 31
0.0
  0
LINE
  5
18CC
  8
0
 10
182.5931859016417
 20
111.62783152423791
 30
0.0
 11
183.41690253466351
 21
110.8366406336426
 31
0.0
  0
ARC
  5
18CD
  8
0
 10
169.00000020861609
 20
114.9782507494091
 30
0.0
 40
15.000000000000011
 50
334.48955302303813
 51
343.97198543850118
  0
LINE
  5
18CE
  8
0
 10
182.5376017764209
 20
108.51811587810511
 30
0.0
 11
181.39638423919661
 21
108.47212623804801
 31
0.0
  0
LINE
  5
18CF
  8
0
 10
182.5931859016417
 20
118.32866997458039
 30
0.0
 11
183.6902354657648
 21
118.0109057389199
 31
0.0
  0
ARC
  5
18D0
  8
0
 10
169.00000020861609
 20
114.9782507494091
 30
0.0
 40
14.999999999999989
 50
2.1818607153456488
 51
11.664293130808
  0
LINE
  5
18D1
  8
0
 10
183.98912575095869
 20
115.54932250175619
 30
0.0
 11
183.0000006407497
 21
114.9782507494091
 31
0.0
  0
LINE
  5
18D2
  8
0
 10
183.6902354657648
 20
111.9455957598984
 30
0.0
 11
182.5931859016417
 21
111.62783152423791
 31
0.0
  0
LINE
  5
18D3
  8
0
 10
183.0000006407497
 20
114.9782507494091
 30
0.0
 11
183.98912575095869
 21
114.4071789970621
 31
0.0
  0
ARC
  5
18D4
  8
0
 10
169.00000020861609
 20
114.9782507494091
 30
0.0
 40
15.0
 50
348.33570686919228
 51
357.81813928465442
  0
CIRCLE
  5
18D5
  8
0
 10
169.00000020861609
 20
114.9782507494091
 30
0.0
 40
14.0
  0
LINE
  5
1909
  8
2
 10
169.7698005405253
 20
103.9782508090138
 30
0.0
 11
169.00000020861609
 21
104.44079351297241
 31
0.0
  0
LINE
  5
190A
  8
2
 10
168.23019987670691
 20
103.9782508090138
 30
0.0
 11
169.0000002086162
 21
104.44079351297241
 31
0.0
  0
LINE
  5
1E3A
  8
2
 10
113.4999996516852
 20
102.4020981788635
 30
0.0
 11
117.49999984167501
 21
102.4020981788635
 31
0.0
  0
LINE
  5
1E3B
  8
2
 10
113.4999996516852
 20
111.5430983901024
 30
0.0
 11
117.49999984167501
 21
111.5430983901024
 31
0.0
  0
LINE
  5
1E3C
  8
2
 10
113.9294997788964
 20
111.9725982844829
 30
0.0
 11
117.07049971446381
 21
111.9725982844829
 31
0.0
  0
LINE
  5
1E3D
  8
2
 10
116.1666665226218
 20
103.9782508090138
 30
0.0
 11
114.8333339020608
 21
103.9782508090139
 31
0.0
  0
LINE
  5
1E3E
  8
2
 10
113.87899974361051
 20
112.4782505073743
 30
0.0
 11
113.87899974361051
 21
102.0230983679111
 31
0.0
  0
LINE
  5
1E3F
  8
2
 10
117.1209997497498
 20
102.0230983679112
 30
0.0
 11
117.1209997497498
 21
112.4782508052885
 31
0.0
  0
LINE
  5
1E40
  8
2
 10
113.4999996516852
 20
102.4020981788635
 30
0.0
 11
113.9008402918037
 21
102.0012578359094
 31
0.0
  0
LINE
  5
1E41
  8
2
 10
117.0992092277459
 20
102.00130786206179
 30
0.0
 11
117.49999984167501
 21
102.4020981788635
 31
0.0
  0
LINE
  5
1E42
  8
2
 10
113.499999651685
 20
112.4782508052885
 30
0.0
 11
113.499999651685
 21
101.9782504811882
 31
0.0
  0
LINE
  5
1E43
  8
2
 10
117.49999984167501
 20
101.9782504811882
 30
0.0
 11
117.49999984167501
 21
112.4782508052885
 31
0.0
  0
LINE
  5
1E44
  8
2
 10
117.49999984167501
 20
111.5430983901024
 30
0.0
 11
117.07049971446381
 21
111.9725982844829
 31
0.0
  0
LINE
  5
1E45
  8
2
 10
113.9294997788964
 20
111.9725982844829
 30
0.0
 11
113.4999996516852
 21
111.5430983901024
 31
0.0
  0
LINE
  5
1E46
  8
2
 10
116.1666665226219
 20
103.9782508090138
 30
0.0
 11
115.50000021234131
 21
104.3788243408938
 31
0.0
  0
LINE
  5
1E47
  8
2
 10
114.8333339020608
 20
103.9782508090139
 30
0.0
 11
115.50000021234131
 21
104.3788243408938
 31
0.0
  0
CIRCLE
  5
1E59
  8
0
 10
115.5000002086161
 20
54.989125542342663
 30
0.0
 40
2.0000011430574092
  0
LINE
  5
1E5D
  8
1
 10
54.999999999999943
 20
134.97825074940911
 30
0.0
 11
54.999999999999943
 21
94.978250749409185
 31
0.0
  0
LINE
  5
1E5E
  8
1
 10
115.4999997466801
 20
116.0770354874132
 30
0.0
 11
115.4999997466799
 21
98.972598284482928
 31
0.0
  0
LINE
  5
1E5F
  8
1
 10
169.00000020861609
 20
134.97825074940911
 30
0.0
 11
169.00000020861609
 21
94.978250749409185
 31
0.0
  0
LINE
  5
1E60
  8
1
 10
189.00000020861609
 20
114.9782507494091
 30
0.0
 11
149.000000208616
 21
114.9782507494091
 31
0.0
  0
LINE
  5
1E61
  8
1
 10
94.999999999999886
 20
174.96737595647571
 30
0.0
 11
129.00000020861609
 21
174.96737595647571
 31
0.0
  0
LINE
  5
1E62
  8
1
 10
94.999999999999886
 20
54.989125542342663
 30
0.0
 11
129.00000020861609
 21
54.989125542342663
 31
0.0
  0
LINE
  5
1E68
  8
1
 10
115.49999974668
 20
59.989126685400052
 30
0.0
 11
115.4999997466801
 21
49.989124399285281
 31
0.0
  0
LINE
  5
1E6D
  8
1
 10
129.00000020861609
 20
114.9782507494091
 30
0.0
 11
94.999999999999886
 21
114.9782507494091
 31
0.0
  0
LINE
  5
1E6E
  8
1
 10
74.999999999999943
 20
114.9782507494091
 30
0.0
 11
34.99999999999995
 21
114.9782507494091
 31
0.0
  0
ENDSEC
  0
EOF
