  0
SECTION
  2
HEADER
  9
$ACADVER
  1
AC1009
  9
$INSBASE
 10
0.0
 20
0.0
 30
0.0
  9
$EXTMIN
 10
0.0
 20
-2.960436562073669
 30
0.0
  9
$EXTMAX
 10
386.0
 20
458.7900107714073101
 30
0.0
  9
$LIMMIN
 10
0.0
 20
0.0
  9
$LIMMAX
 10
187.5
 20
135.0
  9
$ORTHOMODE
 70
     1
  9
$REGENMODE
 70
     1
  9
$FILLMODE
 70
     1
  9
$QTEXTMODE
 70
     0
  9
$MIRRTEXT
 70
     0
  9
$DRAGMODE
 70
     2
  9
$LTSCALE
 40
5.0
  9
$OSMODE
 70
    37
  9
$ATTMODE
 70
     1
  9
$TEXTSIZE
 40
4.0
  9
$TRACEWID
 40
0.05
  9
$TEXTSTYLE
  7
STANDARD
  9
$CLAYER
  8
0
  9
$CELTYPE
  6
BYLAYER
  9
$CECOLOR
 62
   256
  9
$DIMSCALE
 40
0.5
  9
$DIMASZ
 40
3.0
  9
$DIMEXO
 40
2.0
  9
$DIMDLI
 40
0.38
  9
$DIMRND
 40
0.0
  9
$DIMDLE
 40
0.0
  9
$DIMEXE
 40
2.0
  9
$DIMTP
 40
0.0
  9
$DIMTM
 40
0.0
  9
$DIMTXT
 40
3.0
  9
$DIMCEN
 40
0.0
  9
$DIMTSZ
 40
0.0
  9
$DIMTOL
 70
     0
  9
$DIMLIM
 70
     0
  9
$DIMTIH
 70
     0
  9
$DIMTOH
 70
     0
  9
$DIMSE1
 70
     0
  9
$DIMSE2
 70
     0
  9
$DIMTAD
 70
     1
  9
$DIMZIN
 70
     0
  9
$DIMBLK
  1

  9
$DIMASO
 70
     0
  9
$DIMSHO
 70
     0
  9
$DIMPOST
  1

  9
$DIMAPOST
  1

  9
$DIMALT
 70
     0
  9
$DIMALTD
 70
     2
  9
$DIMALTF
 40
25.3999999999999986
  9
$DIMLFAC
 40
1.0
  9
$DIMTOFL
 70
     0
  9
$DIMTVP
 40
1.6000000000000001
  9
$DIMTIX
 70
     1
  9
$DIMSOXD
 70
     0
  9
$DIMSAH
 70
     0
  9
$DIMBLK1
  1

  9
$DIMBLK2
  1

  9
$DIMSTYLE
  2
STANDARD
  9
$DIMCLRD
 70
     0
  9
$DIMCLRE
 70
     0
  9
$DIMCLRT
 70
     0
  9
$DIMTFAC
 40
1.0
  9
$DIMGAP
 40
0.09
  9
$LUNITS
 70
     2
  9
$LUPREC
 70
     1
  9
$SKETCHINC
 40
0.1
  9
$FILLETRAD
 40
1.0
  9
$AUNITS
 70
     0
  9
$AUPREC
 70
     0
  9
$MENU
  1
E:\r13\win\SUPPORT\ACAD
  9
$ELEVATION
 40
0.0
  9
$PELEVATION
 40
0.0
  9
$THICKNESS
 40
0.0
  9
$LIMCHECK
 70
     0
  9
$BLIPMODE
 70
     0
  9
$CHAMFERA
 40
0.0
  9
$CHAMFERB
 40
0.0
  9
$SKPOLY
 70
     0
  9
$TDCREATE
 40
2449840.6143865738995373
  9
$TDUPDATE
 40
2460943.4120833338238299
  9
$TDINDWG
 40
1.2324694791999999
  9
$TDUSRTIMER
 40
1.2324694791999999
  9
$USRTIMER
 70
     1
  9
$ANGBASE
 50
0.0
  9
$ANGDIR
 70
     0
  9
$PDMODE
 70
     0
  9
$PDSIZE
 40
0.0
  9
$PLINEWID
 40
0.0
  9
$COORDS
 70
     1
  9
$SPLFRAME
 70
     0
  9
$SPLINETYPE
 70
     6
  9
$SPLINESEGS
 70
     8
  9
$ATTDIA
 70
     1
  9
$ATTREQ
 70
     1
  9
$HANDLING
 70
     1
  9
$HANDSEED
  5
12DBF
  9
$SURFTAB1
 70
     6
  9
$SURFTAB2
 70
     6
  9
$SURFTYPE
 70
     6
  9
$SURFU
 70
     6
  9
$SURFV
 70
     6
  9
$UCSNAME
  2

  9
$UCSORG
 10
0.0
 20
0.0
 30
0.0
  9
$UCSXDIR
 10
1.0
 20
0.0
 30
0.0
  9
$UCSYDIR
 10
0.0
 20
1.0
 30
0.0
  9
$PUCSNAME
  2

  9
$PUCSORG
 10
0.0
 20
0.0
 30
0.0
  9
$PUCSXDIR
 10
1.0
 20
0.0
 30
0.0
  9
$PUCSYDIR
 10
0.0
 20
1.0
 30
0.0
  9
$USERI1
 70
     0
  9
$USERI2
 70
     1
  9
$USERI3
 70
     1
  9
$USERI4
 70
     0
  9
$USERI5
 70
     0
  9
$USERR1
 40
0.0
  9
$USERR2
 40
0.0
  9
$USERR3
 40
0.0
  9
$USERR4
 40
0.0
  9
$USERR5
 40
0.0
  9
$WORLDVIEW
 70
     1
  9
$SHADEDGE
 70
     3
  9
$SHADEDIF
 70
    70
  9
$TILEMODE
 70
     1
  9
$MAXACTVP
 70
    16
  9
$PLIMCHECK
 70
     0
  9
$PEXTMIN
 10
1.0000000000000000E+20
 20
1.0000000000000000E+20
 30
1.0000000000000000E+20
  9
$PEXTMAX
 10
-1.0000000000000000E+20
 20
-1.0000000000000000E+20
 30
-1.0000000000000000E+20
  9
$PLIMMIN
 10
0.0
 20
0.0
  9
$PLIMMAX
 10
12.0
 20
9.0
  9
$UNITMODE
 70
     0
  9
$VISRETAIN
 70
     0
  9
$PLINEGEN
 70
     0
  9
$PSLTSCALE
 70
     0
  0
ENDSEC
  0
SECTION
  2
TABLES
  0
TABLE
  2
VPORT
 70
     1
  0
VPORT
  2
*ACTIVE
 70
     0
 10
0.0
 20
0.0
 11
1.0
 21
1.0
 12
750.9513742071882234
 22
311.4853366533225199
 13
0.0
 23
0.0
 14
5.0
 24
5.0
 15
5.0
 25
5.0
 16
0.0
 26
0.0
 36
1.0
 17
0.0
 27
0.0
 37
0.0
 40
622.970673306644926
 41
2.4108723135271801
 42
50.0
 43
0.0
 44
0.0
 50
0.0
 51
0.0
 71
     0
 72
   100
 73
     1
 74
     0
 75
     0
 76
     0
 77
     0
 78
     0
  0
ENDTAB
  0
TABLE
  2
LTYPE
 70
     4
  0
LTYPE
  2
CONTINUOUS
 70
     0
  3
Solid Line
 72
    65
 73
     0
 40
0.0
  0
LTYPE
  2
CENTER
 70
     0
  3
____ _ ____ _ ____ _ ____ _ ____ _ ____ _ ____
 72
    65
 73
     4
 40
2.0
 49
1.25
 49
-0.25
 49
0.25
 49
-0.25
  0
LTYPE
  2
PHANTOM2
 70
     0
  3
___ _ _ ___ _ _ ___ _ _ ___ _ _
 72
    65
 73
     6
 40
1.25
 49
0.625
 49
-0.125
 49
0.125
 49
-0.125
 49
0.125
 49
-0.125
  0
LTYPE
  2
HIDDEN
 70
     0
  3
_ _ _ _ _ _ _ _ _ _ _ _ _ _ _ _ _ _ _ _ _ _ _
 72
    65
 73
     2
 40
0.375
 49
0.25
 49
-0.125
  0
ENDTAB
  0
TABLE
  2
LAYER
 70
     5
  0
LAYER
  2
0
 70
     0
 62
     7
  6
CONTINUOUS
  0
LAYER
  2
1
 70
     0
 62
     1
  6
CENTER
  0
LAYER
  2
3
 70
     0
 62
     3
  6
CONTINUOUS
  0
LAYER
  2
DEFPOINTS
 70
     0
 62
     7
  6
CONTINUOUS
  0
LAYER
  2
2
 70
     0
 62
     2
  6
HIDDEN
  0
ENDTAB
  0
TABLE
  2
STYLE
 70
     2
  0
STYLE
  2
STANDARD
 70
     0
 40
0.0
 41
1.0
 50
0.0
 71
     0
 42
4.0
  3
TXT
  4
BIGFONT
  0
STYLE
  2
STANDARD1
 70
     0
 40
0.0
 41
1.0
 50
0.0
 71
     0
 42
3.0
  3
txt
  4

  0
ENDTAB
  0
TABLE
  2
VIEW
 70
     1
  0
VIEW
  2
ALL
 70
     0
 40
179.6615229999999883
 10
141.9039180000000044
 20
89.8307609999999954
 41
0.0
 11
0.0
 21
0.0
 31
1.0
 12
0.0
 22
0.0
 32
0.0
 42
0.0
 43
0.0
 44
0.0
 50
0.0
 71
     0
  0
ENDTAB
  0
TABLE
  2
UCS
 70
     0
  0
ENDTAB
  0
TABLE
  2
APPID
 70
    13
  0
APPID
  2
ACAD
 70
     0
  0
APPID
  2
DCO15
 70
     0
  0
APPID
  2
ACAD_EXEMPT_FROM_CAD_STANDARDS
 70
     0
  0
APPID
  2
ACAD_MLEADERVER
 70
     0
  0
APPID
  2
ACAD_NAV_VCDISPLAY
 70
     0
  0
APPID
  2
ACAD_DSTYLE_DIMJAG
 70
     0
  0
APPID
  2
ACAD_DSTYLE_DIMTALN
 70
     0
  0
APPID
  2
ACAD_PSEXT
 70
     0
  0
APPID
  2
ACAD_DSTYLE_DIMBREAK
 70
     0
  0
APPID
  2
ACAECLAYERSTANDARD
 70
     0
  0
APPID
  2
ACCMTRANSPARENCY
 70
     0
  0
APPID
  2
GRADIENTCOLOR1ACI
 70
     0
  0
APPID
  2
GRADIENTCOLOR2ACI
 70
     0
  0
ENDTAB
  0
TABLE
  2
DIMSTYLE
 70
     1
  0
DIMSTYLE
  2
STANDARD
 70
     0
  3

  4

  5

  6

  7

 40
1.0
 41
0.18
 42
0.0625
 43
0.38
 44
0.18
 45
0.0
 46
0.0
 47
0.0
 48
0.0
140
0.18
141
0.09
142
0.0
143
25.3999999999999986
144
1.0
145
0.0
146
1.0
147
0.09
 71
     0
 72
     0
 73
     1
 74
     1
 75
     0
 76
     0
 77
     0
 78
     0
170
     0
171
     2
172
     0
173
     0
174
     0
175
     0
176
     0
177
     0
178
     0
  0
ENDTAB
  0
ENDSEC
  0
SECTION
  2
BLOCKS
  0
BLOCK
  8
0
  2
$MODEL_SPACE
 70
     0
 10
0.0
 20
0.0
 30
0.0
  3
$MODEL_SPACE
  1

  0
ENDBLK
  5
1BD
  8
0
  0
BLOCK
 67
     1
  8
0
  2
$PAPER_SPACE
 70
     0
 10
0.0
 20
0.0
 30
0.0
  3
$PAPER_SPACE
  1

  0
ENDBLK
  5
1BB
 67
     1
  8
0
  0
ENDSEC
  0
SECTION
  2
ENTITIES
  0
TEXT
  5
189A
  8
0
 62
     3
 10
0.0
 20
0.0
 30
0.0
 40
10.0
  1
FYT-SSA2424-2
  7
STANDARD1
  0
LINE
  5
D2FA
  8
0
 10
164.7999999999996987
 20
141.5999999999999091
 30
0.0
 11
122.4000000000001052
 21
141.5999999999999091
 31
0.0
  0
LINE
  5
D2FB
  8
0
 10
164.7999999999996987
 20
139.5999999999999091
 30
0.0
 11
122.4000000000001052
 21
139.5999999999999091
 31
0.0
  0
LINE
  5
D2FC
  8
0
 10
164.7999999999996987
 20
134.9999999999998863
 30
0.0
 11
164.7999999999996987
 21
141.5999999999999091
 31
0.0
  0
LINE
  5
D2FD
  8
0
 10
159.7999999999996987
 20
134.9999999999998863
 30
0.0
 11
209.7999999999996987
 21
134.9999999999998863
 31
0.0
  0
LINE
  5
D2FE
  8
0
 10
122.4000000000001052
 20
122.3999999999999062
 30
0.0
 11
209.7999999999996987
 21
122.3999999999999062
 31
0.0
  0
LINE
  5
D2FF
  8
0
 10
122.4000000000001052
 20
122.3999999999999062
 30
0.0
 11
122.4000000000001052
 21
141.5999999999999091
 31
0.0
  0
LINE
  5
D300
  8
0
 10
209.7999999999996987
 20
122.3999999999999062
 30
0.0
 11
209.7999999999996987
 21
134.9999999999998863
 31
0.0
  0
ARC
  5
D301
  8
0
 10
127.3708536247982011
 20
181.5708536247985023
 30
0.0
 40
4.970939073289915
 50
179.6640526405059006
 51
270.3359473595007216
  0
LINE
  5
D302
  8
0
 10
122.4000000000001052
 20
181.5999999999999091
 30
0.0
 11
122.4000000000001052
 21
213.9999999999998863
 31
0.0
  0
ARC
  5
D303
  8
0
 10
127.3829059268936987
 20
214.0170940731057954
 30
0.0
 40
4.9829352477843427
 50
89.8034451350480936
 51
180.1965548649517928
  0
LINE
  5
D304
  8
0
 10
164.7999999999996987
 20
213.9999999999998863
 30
0.0
 11
164.7999999999996987
 21
210.999999999999801
 31
0.0
  0
ARC
  5
D305
  8
0
 10
158.1846465156108934
 20
210.9153534843891009
 30
0.0
 40
6.6158950079354391
 50
269.2669139371561187
 51
0.7330860628373612
  0
LINE
  5
D306
  8
0
 10
143.0999999999999091
 20
204.2999999999998977
 30
0.0
 11
158.0999999999999091
 21
204.2999999999998977
 31
0.0
  0
LINE
  5
D307
  8
0
 10
143.0999999999999091
 20
191.2999999999998977
 30
0.0
 11
158.0999999999999091
 21
191.2999999999998977
 31
0.0
  0
ARC
  5
D308
  8
0
 10
158.1768945859899134
 20
184.6768945859903113
 30
0.0
 40
6.6235517739687158
 50
359.3348230126509861
 51
90.6651769873489997
  0
LINE
  5
D309
  8
0
 10
164.7999999999996987
 20
181.5999999999999091
 30
0.0
 11
164.7999999999996987
 21
184.5999999999999091
 31
0.0
  0
ARC
  5
D30A
  8
0
 10
159.8411971439795138
 20
181.5588028560198097
 30
0.0
 40
4.9589739835517888
 50
269.5240044335865264
 51
0.4759955664069528
  0
LINE
  5
D30B
  8
0
 10
204.7999999999996987
 20
176.5999999999999091
 30
0.0
 11
127.4000000000001052
 21
176.5999999999999091
 31
0.0
  0
LINE
  5
D30C
  8
0
 10
127.4000000000001052
 20
218.9999999999998863
 30
0.0
 11
204.7999999999996987
 21
218.9999999999998863
 31
0.0
  0
ARC
  5
D30D
  8
0
 10
159.861851429099687
 20
214.0618514290997041
 30
0.0
 40
4.9385359072870489
 50
359.2823949116071844
 51
90.7176050883992673
  0
LINE
  5
D30E
  8
0
 10
198.2999999999996987
 20
207.0999999999999091
 30
0.0
 11
163.5895650668180963
 21
207.0999999999997101
 31
0.0
  0
LINE
  5
D30F
  8
0
 10
163.5857117483469096
 20
188.4999999999998863
 30
0.0
 11
198.2999999999996987
 21
188.499999999999801
 31
0.0
  0
ARC
  5
D310
  8
0
 10
198.3017902349465089
 20
197.7999999999998977
 30
0.0
 40
9.3000001723087315
 50
269.9889706553323094
 51
90.0110293446677474
  0
ARC
  5
D311
  8
0
 10
204.803539402824299
 20
214.0035394028242877
 30
0.0
 40
4.9964618507999221
 50
359.9594127070583909
 51
90.0405872929285636
  0
LINE
  5
D312
  8
0
 10
209.7999999999996987
 20
213.9999999999998863
 30
0.0
 11
209.7999999999996987
 21
181.5999999999999091
 31
0.0
  0
ARC
  5
D313
  8
0
 10
204.8446775239704039
 20
181.5553224760292892
 30
0.0
 40
4.9555238797316532
 50
269.4834313577230205
 51
0.516568642276949
  0
CIRCLE
  5
D314
  8
0
 10
128.0999999999999091
 20
182.7999999999998977
 30
0.0
 40
3.200000000000002
  0
CIRCLE
  5
D315
  8
0
 10
158.5999999999999091
 20
212.7999999999998977
 30
0.0
 40
3.2000000000000171
  0
LINE
  5
D316
  8
1
 10
128.0999999999999091
 20
149.100000000000307
 30
0.0
 11
128.1000000000007901
 21
120.9000000000000057
 31
0.0
  0
LINE
  5
D317
  8
1
 10
158.5999999999997954
 20
149.100000000000307
 30
0.0
 11
158.6000000000022112
 21
120.9000000000000057
 31
0.0
  0
LINE
  5
D318
  8
0
 10
159.7999999999996987
 20
134.9999999999998863
 30
0.0
 11
159.7999999999996987
 21
139.5999999999999091
 31
0.0
  0
LINE
  5
D319
  8
1
 10
128.0999999999999091
 20
219.2999999999998977
 30
0.0
 11
128.0999999999999091
 21
206.2999999999998977
 31
0.0
  0
LINE
  5
D31A
  8
1
 10
121.5999999999998948
 20
212.8000000000000966
 30
0.0
 11
134.5999999999999091
 21
212.8000000000000114
 31
0.0
  0
LINE
  5
D31B
  8
1
 10
153.9000000000000909
 20
212.7999999999998977
 30
0.0
 11
163.2999999999996987
 21
212.7999999999998977
 31
0.0
  0
LINE
  5
D31C
  8
1
 10
158.5999999999999091
 20
217.4999999999998863
 30
0.0
 11
158.5999999999999091
 21
208.0999999999999091
 31
0.0
  0
LINE
  5
D31D
  8
1
 10
123.4000000000001052
 20
182.7999999999998977
 30
0.0
 11
132.7999999999996987
 21
182.7999999999998977
 31
0.0
  0
LINE
  5
D31E
  8
1
 10
152.0999999999999091
 20
182.7999999999998977
 30
0.0
 11
165.0999999999999091
 21
182.7999999999998977
 31
0.0
  0
LINE
  5
D31F
  8
1
 10
158.5999999999999091
 20
189.2999999999998977
 30
0.0
 11
158.5999999999999091
 21
176.2999999999998977
 31
0.0
  0
LINE
  5
D320
  8
1
 10
128.0999999999999091
 20
187.4999999999998863
 30
0.0
 11
128.0999999999999091
 21
178.0999999999999091
 31
0.0
  0
LINE
  5
D321
  8
1
 10
119.4000000000001052
 20
197.8000000000002103
 30
0.0
 11
212.7999999999996987
 21
197.8000000000002103
 31
0.0
  0
LINE
  5
D322
  8
1
 10
198.301790234946111
 20
208.7999998543207028
 30
0.0
 11
198.3017902349465089
 21
186.8000001456790073
 31
0.0
  0
LINE
  5
D323
  8
1
 10
143.0999999999999091
 20
205.7999999999998977
 30
0.0
 11
143.0999999999999091
 21
189.7999999999998124
 31
0.0
  0
LINE
  5
D324
  8
0
 10
267.5
 20
141.600000000000307
 30
0.0
 11
267.5
 21
139.600000000000307
 31
0.0
  0
LINE
  5
D325
  8
0
 10
254.5
 20
141.600000000000307
 30
0.0
 11
254.5
 21
139.600000000000307
 31
0.0
  0
LINE
  5
D326
  8
0
 10
239.7999999999996987
 20
141.600000000000307
 30
0.0
 11
282.1999999999998181
 21
141.600000000000307
 31
0.0
  0
LINE
  5
D327
  8
0
 10
239.7999999999996987
 20
139.600000000000307
 30
0.0
 11
282.1999999999998181
 21
139.600000000000307
 31
0.0
  0
LINE
  5
D328
  8
0
 10
282.1999999999998181
 20
122.3999999999999062
 30
0.0
 11
282.1999999999998181
 21
141.600000000000307
 31
0.0
  0
LINE
  5
D329
  8
0
 10
239.7999999999996987
 20
122.3999999999999062
 30
0.0
 11
239.7999999999996987
 21
141.600000000000307
 31
0.0
  0
LINE
  5
D32A
  8
0
 10
239.7999999999996987
 20
122.3999999999999062
 30
0.0
 11
282.1999999999998181
 21
122.3999999999999062
 31
0.0
  0
LINE
  5
D32B
  8
0
 10
282.1999999999998181
 20
135.0000000000003126
 30
0.0
 11
239.7999999999996987
 21
135.0000000000003126
 31
0.0
  0
LINE
  5
D32C
  8
0
 10
270.5
 20
135.0000000000003126
 30
0.0
 11
270.5
 21
139.600000000000307
 31
0.0
  0
LINE
  5
D32D
  8
0
 10
251.5
 20
135.0000000000003126
 30
0.0
 11
251.5
 21
139.600000000000307
 31
0.0
  0
LINE
  5
D32E
  8
1
 10
246.0
 20
149.100000000000307
 30
0.0
 11
246.0000000000013927
 21
120.9000000000000057
 31
0.0
  0
LINE
  5
D32F
  8
1
 10
275.9999999999998863
 20
149.100000000000307
 30
0.0
 11
276.0000000000013074
 21
120.9000000000000057
 31
0.0
  0
ARC
  5
D330
  8
0
 10
143.0999999999999091
 20
197.7999999999998124
 30
0.0
 40
6.5
 50
90.0
 51
270.000001123860784
  0
ARC
  5
D331
  8
0
 10
198.2999999999996987
 20
197.7999999999998124
 30
0.0
 40
9.5
 50
270.0
 51
90.0
  0
LINE
  5
D332
  8
0
 10
163.7216709801664081
 20
188.2999999999998124
 30
0.0
 11
198.2999999999996987
 21
188.2999999999998124
 31
0.0
  0
LINE
  5
D333
  8
0
 10
198.2999999999996987
 20
207.2999999999998977
 30
0.0
 11
163.7253401489874136
 21
207.2999999999998977
 31
0.0
  0
ARC
  5
D35C
  8
0
 10
127.3708536247982011
 20
54.9708536247986785
 30
0.0
 40
4.970939073289915
 50
179.6640526405059006
 51
270.3359473595007216
  0
LINE
  5
D35D
  8
0
 10
122.4000000000001052
 20
55.0
 30
0.0
 11
122.4000000000001052
 21
87.3999999999999773
 31
0.0
  0
ARC
  5
D35E
  8
0
 10
127.3829059268936987
 20
87.4170940731058863
 30
0.0
 40
4.9829352477843427
 50
89.8034451350480936
 51
180.1965548649519064
  0
LINE
  5
D35F
  8
0
 10
204.7999999999996987
 20
50.0
 30
0.0
 11
127.4000000000001052
 21
50.0
 31
0.0
  0
LINE
  5
D360
  8
0
 10
127.4000000000001052
 20
92.3999999999999773
 30
0.0
 11
204.7999999999996987
 21
92.3999999999999773
 31
0.0
  0
ARC
  5
D361
  8
0
 10
204.803539402824299
 20
87.4035394028244355
 30
0.0
 40
4.9964618507999221
 50
359.9594127070583909
 51
90.0405872929285636
  0
LINE
  5
D362
  8
0
 10
209.7999999999996987
 20
87.3999999999999773
 30
0.0
 11
209.7999999999996987
 21
55.0
 31
0.0
  0
ARC
  5
D363
  8
0
 10
204.8446775239704039
 20
54.955322476029437
 30
0.0
 40
4.9555238797316532
 50
269.4834313577230205
 51
0.5165686422769484
  0
LINE
  5
D364
  8
1
 10
154.5999999999999091
 20
86.2000000000000455
 30
0.0
 11
162.5999999999999091
 21
86.2000000000000455
 31
0.0
  0
LINE
  5
D365
  8
1
 10
158.5999999999999091
 20
90.2000000000000455
 30
0.0
 11
158.5999999999999091
 21
82.2000000000000455
 31
0.0
  0
LINE
  5
D366
  8
1
 10
124.0999999999998948
 20
56.2000000000000384
 30
0.0
 11
132.0999999999999091
 21
56.2000000000000384
 31
0.0
  0
LINE
  5
D367
  8
1
 10
128.0999999999999091
 20
60.2000000000000384
 30
0.0
 11
128.0999999999999091
 21
52.2000000000000526
 31
0.0
  0
LINE
  5
D368
  8
1
 10
119.4000000000001052
 20
71.2000000000003865
 30
0.0
 11
212.7999999999996987
 21
71.2000000000003865
 31
0.0
  0
CIRCLE
  5
D369
  8
0
 10
158.5999999999999091
 20
56.2000000000000384
 30
0.0
 40
3.200000000000002
  0
LINE
  5
D36A
  8
1
 10
153.9000000000000909
 20
56.2000000000000384
 30
0.0
 11
163.2999999999996987
 21
56.2000000000000384
 31
0.0
  0
LINE
  5
D36B
  8
1
 10
158.5999999999999091
 20
60.900000000000027
 30
0.0
 11
158.5999999999999091
 21
51.5000000000000497
 31
0.0
  0
CIRCLE
  5
D36C
  8
0
 10
128.0999999999999091
 20
86.2000000000000455
 30
0.0
 40
3.2000000000000171
  0
LINE
  5
D36D
  8
1
 10
123.4000000000001052
 20
86.2000000000000455
 30
0.0
 11
132.7999999999996987
 21
86.2000000000000455
 31
0.0
  0
LINE
  5
D36E
  8
1
 10
128.0999999999999091
 20
90.9000000000000767
 30
0.0
 11
128.0999999999999091
 21
81.5
 31
0.0
  0
LINE
  5
D373
  8
0
 10
50.0
 20
141.600000000000307
 30
0.0
 11
92.4000000000000909
 21
141.600000000000307
 31
0.0
  0
LINE
  5
D374
  8
0
 10
50.0
 20
139.600000000000307
 30
0.0
 11
92.4000000000000909
 21
139.600000000000307
 31
0.0
  0
LINE
  5
D375
  8
0
 10
92.4000000000000909
 20
122.3999999999999062
 30
0.0
 11
92.4000000000000909
 21
141.600000000000307
 31
0.0
  0
LINE
  5
D376
  8
0
 10
50.0
 20
122.3999999999999062
 30
0.0
 11
50.0
 21
141.600000000000307
 31
0.0
  0
LINE
  5
D377
  8
0
 10
50.0
 20
122.3999999999999062
 30
0.0
 11
92.4000000000000909
 21
122.3999999999999062
 31
0.0
  0
LINE
  5
D378
  8
1
 10
56.2000000000002302
 20
149.100000000000307
 30
0.0
 11
56.2000000000016371
 21
120.9000000000000057
 31
0.0
  0
LINE
  5
D379
  8
1
 10
86.2000000000002444
 20
149.100000000000307
 30
0.0
 11
86.2000000000016371
 21
120.9000000000000057
 31
0.0
  0
LINE
  5
D386
  8
3
 10
349.0690959235867012
 20
190.7589430392463044
 30
0.0
 11
348.5275959235863752
 21
191.696848551544889
 31
0.0
  0
LINE
  5
D387
  8
3
 10
353.9860959235866176
 20
190.7589430392463044
 30
0.0
 11
354.5275959235863752
 21
191.696848551544889
 31
0.0
  0
LINE
  5
D388
  8
0
 10
348.5275959235863752
 20
190.7589430392463044
 30
0.0
 11
354.5275959235863752
 21
190.7589430392463044
 31
0.0
  0
LINE
  5
D389
  8
0
 10
348.5275959235863752
 20
169.7589430392463896
 30
0.0
 11
354.5275959235863752
 21
169.7589430392463896
 31
0.0
  0
LINE
  5
D38A
  8
0
 10
349.5275959235863752
 20
168.7589430392463896
 30
0.0
 11
348.5275959235863752
 21
169.7589430392463896
 31
0.0
  0
LINE
  5
D38B
  8
0
 10
354.5275959235863752
 20
169.7589430392463896
 30
0.0
 11
353.5275959235863752
 21
168.7589430392463896
 31
0.0
  0
LINE
  5
D38C
  8
0
 10
354.5275959235863752
 20
193.7589430392463044
 30
0.0
 11
354.5275959235863752
 21
169.7589430392463896
 31
0.0
  0
LINE
  5
D38D
  8
3
 10
353.9860959235866176
 20
190.7589430392463044
 30
0.0
 11
353.9860959235862197
 21
169.7589430392463896
 31
0.0
  0
LINE
  5
D38E
  8
3
 10
349.0690959235867012
 20
190.7589430392463044
 30
0.0
 11
349.0690959235867012
 21
169.7589430392463896
 31
0.0
  0
LINE
  5
D38F
  8
0
 10
348.5275959235863752
 20
193.7589430392463044
 30
0.0
 11
348.5275959235863752
 21
169.7589430392463896
 31
0.0
  0
LINE
  5
D390
  8
0
 10
353.5275959235863752
 20
168.7589430392463896
 30
0.0
 11
349.5275959235863752
 21
168.7589430392463896
 31
0.0
  0
LINE
  5
D391
  8
0
 10
346.5275959235863752
 20
199.3589430392462987
 30
0.0
 11
347.220416246613695
 21
199.7589430392463896
 31
0.0
  0
LINE
  5
D392
  8
0
 10
356.5275959235863752
 20
199.3589430392462987
 30
0.0
 11
355.8347756005592259
 21
199.7589430392463896
 31
0.0
  0
LINE
  5
D393
  8
0
 10
346.5275959235863752
 20
199.3589430392462987
 30
0.0
 11
356.5275959235863752
 21
199.3589430392462987
 31
0.0
  0
LINE
  5
D394
  8
0
 10
347.220416246613695
 20
199.7589430392463896
 30
0.0
 11
355.8347756005592259
 21
199.7589430392463896
 31
0.0
  0
LINE
  5
D395
  8
0
 10
346.5275959235863752
 20
193.7589430392463044
 30
0.0
 11
346.5275959235863752
 21
199.3589430392462987
 31
0.0
  0
LINE
  5
D396
  8
0
 10
356.5275959235863752
 20
193.7589430392463044
 30
0.0
 11
346.5275959235863752
 21
193.7589430392463044
 31
0.0
  0
LINE
  5
D397
  8
0
 10
356.5275959235863752
 20
199.3589430392462987
 30
0.0
 11
356.5275959235863752
 21
193.7589430392463044
 31
0.0
  0
LINE
  5
D398
  8
1
 10
351.5275959235863752
 20
165.7589430392463044
 30
0.0
 11
351.5275959235863752
 21
202.7589430392463896
 31
0.0
  0
LINE
  5
D399
  8
3
 10
319.0690959235867012
 20
190.7589430392463044
 30
0.0
 11
318.5275959235863752
 21
191.696848551544889
 31
0.0
  0
LINE
  5
D39A
  8
3
 10
323.9860959235866176
 20
190.7589430392463044
 30
0.0
 11
324.5275959235863752
 21
191.696848551544889
 31
0.0
  0
LINE
  5
D39B
  8
0
 10
318.5275959235863752
 20
190.7589430392463044
 30
0.0
 11
324.5275959235863752
 21
190.7589430392463044
 31
0.0
  0
LINE
  5
D39C
  8
0
 10
318.5275959235863752
 20
169.7589430392463896
 30
0.0
 11
324.5275959235863752
 21
169.7589430392463896
 31
0.0
  0
LINE
  5
D39D
  8
0
 10
319.5275959235864889
 20
168.7589430392463896
 30
0.0
 11
318.5275959235863752
 21
169.7589430392463896
 31
0.0
  0
LINE
  5
D39E
  8
0
 10
324.5275959235863752
 20
169.7589430392463896
 30
0.0
 11
323.5275959235863752
 21
168.7589430392463896
 31
0.0
  0
LINE
  5
D39F
  8
0
 10
324.5275959235863752
 20
193.7589430392463044
 30
0.0
 11
324.5275959235863752
 21
169.7589430392463896
 31
0.0
  0
LINE
  5
D3A0
  8
3
 10
323.9860959235866176
 20
190.7589430392463044
 30
0.0
 11
323.9860959235862197
 21
169.7589430392463896
 31
0.0
  0
LINE
  5
D3A1
  8
3
 10
319.0690959235867012
 20
190.7589430392463044
 30
0.0
 11
319.0690959235867012
 21
169.7589430392463896
 31
0.0
  0
LINE
  5
D3A2
  8
0
 10
318.5275959235863752
 20
193.7589430392463044
 30
0.0
 11
318.5275959235863752
 21
169.7589430392463896
 31
0.0
  0
LINE
  5
D3A3
  8
0
 10
323.5275959235863752
 20
168.7589430392463896
 30
0.0
 11
319.5275959235864889
 21
168.7589430392463896
 31
0.0
  0
LINE
  5
D3A4
  8
0
 10
316.5275959235863752
 20
199.3589430392462987
 30
0.0
 11
317.220416246613695
 21
199.7589430392463896
 31
0.0
  0
LINE
  5
D3A5
  8
0
 10
326.5275959235863752
 20
199.3589430392462987
 30
0.0
 11
325.8347756005592259
 21
199.7589430392463896
 31
0.0
  0
LINE
  5
D3A6
  8
0
 10
316.5275959235863752
 20
199.3589430392462987
 30
0.0
 11
326.5275959235863752
 21
199.3589430392462987
 31
0.0
  0
LINE
  5
D3A7
  8
0
 10
317.220416246613695
 20
199.7589430392463896
 30
0.0
 11
325.8347756005592259
 21
199.7589430392463896
 31
0.0
  0
LINE
  5
D3A8
  8
0
 10
316.5275959235863752
 20
193.7589430392463044
 30
0.0
 11
316.5275959235863752
 21
199.3589430392462987
 31
0.0
  0
LINE
  5
D3A9
  8
0
 10
326.5275959235863752
 20
193.7589430392463044
 30
0.0
 11
316.5275959235863752
 21
193.7589430392463044
 31
0.0
  0
LINE
  5
D3AA
  8
0
 10
326.5275959235863752
 20
199.3589430392462987
 30
0.0
 11
326.5275959235863752
 21
193.7589430392463044
 31
0.0
  0
LINE
  5
D3AB
  8
1
 10
321.5275959235863752
 20
165.7589430392463044
 30
0.0
 11
321.5275959235863752
 21
202.7589430392463896
 31
0.0
  0
CIRCLE
  5
D3AC
  8
0
 10
351.5275959235863752
 20
214.7589430392463896
 30
0.0
 40
4.3071796769724946
  0
LINE
  5
D3AD
  8
0
 10
354.0275959235863752
 20
216.2023187122202046
 30
0.0
 11
351.5275959235863752
 21
217.6456943851943038
 31
0.0
  0
LINE
  5
D3AE
  8
0
 10
351.5275959235863752
 20
217.6456943851943038
 30
0.0
 11
349.0275959235863752
 21
216.2023187122202046
 31
0.0
  0
LINE
  5
D3AF
  8
0
 10
349.0275959235863752
 20
216.2023187122202046
 30
0.0
 11
349.0275959235863752
 21
213.3155673662716936
 31
0.0
  0
LINE
  5
D3B0
  8
0
 10
349.0275959235863752
 20
213.3155673662716936
 30
0.0
 11
351.5275959235863752
 21
211.872191693298106
 31
0.0
  0
LINE
  5
D3B1
  8
0
 10
351.5275959235863752
 20
211.872191693298106
 30
0.0
 11
354.0275959235863752
 21
213.3155673662724894
 31
0.0
  0
LINE
  5
D3B2
  8
0
 10
354.0275959235863752
 20
213.3155673662724894
 30
0.0
 11
354.0275959235863752
 21
216.2023187122202046
 31
0.0
  0
CIRCLE
  5
D3B3
  8
0
 10
351.5275959235863752
 20
214.7589430392463896
 30
0.0
 40
5.0
  0
LINE
  5
D3B4
  8
1
 10
343.5275959235863752
 20
214.7589430392463896
 30
0.0
 11
359.5275959235863752
 21
214.7589430392463896
 31
0.0
  0
LINE
  5
D3B5
  8
1
 10
351.5275959235863752
 20
222.7589430392463896
 30
0.0
 11
351.5275959235863752
 21
206.7589430392463896
 31
0.0
  0
CIRCLE
  5
D3B6
  8
0
 10
321.5275959235863752
 20
214.7589430392463896
 30
0.0
 40
4.3071796769724946
  0
LINE
  5
D3B7
  8
0
 10
324.0275959235863752
 20
216.2023187122202046
 30
0.0
 11
321.5275959235863752
 21
217.6456943851943038
 31
0.0
  0
LINE
  5
D3B8
  8
0
 10
321.5275959235863752
 20
217.6456943851943038
 30
0.0
 11
319.0275959235863752
 21
216.2023187122202046
 31
0.0
  0
LINE
  5
D3B9
  8
0
 10
319.0275959235863752
 20
216.2023187122202046
 30
0.0
 11
319.0275959235863752
 21
213.3155673662716936
 31
0.0
  0
LINE
  5
D3BA
  8
0
 10
319.0275959235863752
 20
213.3155673662716936
 30
0.0
 11
321.5275959235863752
 21
211.872191693298106
 31
0.0
  0
LINE
  5
D3BB
  8
0
 10
321.5275959235863752
 20
211.872191693298106
 30
0.0
 11
324.0275959235863752
 21
213.3155673662724894
 31
0.0
  0
LINE
  5
D3BC
  8
0
 10
324.0275959235863752
 20
213.3155673662724894
 30
0.0
 11
324.0275959235863752
 21
216.2023187122202046
 31
0.0
  0
CIRCLE
  5
D3BD
  8
0
 10
321.5275959235863752
 20
214.7589430392463896
 30
0.0
 40
5.0
  0
LINE
  5
D3BE
  8
1
 10
313.5275959235863752
 20
214.7589430392463896
 30
0.0
 11
329.5275959235863752
 21
214.7589430392463896
 31
0.0
  0
LINE
  5
D3BF
  8
1
 10
321.5275959235863752
 20
222.7589430392463896
 30
0.0
 11
321.5275959235863752
 21
206.7589430392463896
 31
0.0
  0
LINE
  5
11729
  8
0
 10
51.2000000000005784
 20
147.2000000000001876
 30
0.0
 11
51.8928203230280189
 21
147.600000000000307
 31
0.0
  0
LINE
  5
1172A
  8
0
 10
61.2000000000005784
 20
147.2000000000001876
 30
0.0
 11
60.5071796769730383
 21
147.600000000000307
 31
0.0
  0
LINE
  5
1172B
  8
0
 10
51.2000000000005784
 20
147.2000000000001876
 30
0.0
 11
61.2000000000005784
 21
147.2000000000001876
 31
0.0
  0
LINE
  5
1172C
  8
0
 10
51.8928203230280474
 20
147.600000000000307
 30
0.0
 11
60.5071796769730597
 21
147.600000000000307
 31
0.0
  0
LINE
  5
1172D
  8
0
 10
51.2000000000005784
 20
141.600000000000307
 30
0.0
 11
51.2000000000005784
 21
147.2000000000001876
 31
0.0
  0
LINE
  5
1172E
  8
0
 10
61.2000000000005784
 20
147.2000000000001876
 30
0.0
 11
61.2000000000005784
 21
141.600000000000307
 31
0.0
  0
LINE
  5
1172F
  8
0
 10
81.2000000000005855
 20
147.2000000000001876
 30
0.0
 11
81.8928203230280332
 21
147.600000000000307
 31
0.0
  0
LINE
  5
11730
  8
0
 10
91.2000000000005855
 20
147.2000000000001876
 30
0.0
 11
90.5071796769730526
 21
147.600000000000307
 31
0.0
  0
LINE
  5
11731
  8
0
 10
81.2000000000005855
 20
147.2000000000001876
 30
0.0
 11
91.2000000000005855
 21
147.2000000000001876
 31
0.0
  0
LINE
  5
11732
  8
0
 10
81.8928203230280616
 20
147.600000000000307
 30
0.0
 11
90.5071796769730668
 21
147.600000000000307
 31
0.0
  0
LINE
  5
11733
  8
0
 10
81.2000000000005855
 20
141.600000000000307
 30
0.0
 11
81.2000000000005855
 21
147.2000000000001876
 31
0.0
  0
LINE
  5
11734
  8
0
 10
91.2000000000005855
 20
147.2000000000001876
 30
0.0
 11
91.2000000000005855
 21
141.600000000000307
 31
0.0
  0
LINE
  5
11735
  8
0
 10
123.1000000000000938
 20
147.1999999999997897
 30
0.0
 11
123.7928203230274988
 21
147.5999999999999091
 31
0.0
  0
LINE
  5
11736
  8
0
 10
133.100000000000108
 20
147.1999999999997897
 30
0.0
 11
132.4071796769725893
 21
147.5999999999999091
 31
0.0
  0
LINE
  5
11737
  8
0
 10
123.1000000000000938
 20
147.1999999999997897
 30
0.0
 11
133.100000000000108
 21
147.1999999999997897
 31
0.0
  0
LINE
  5
11738
  8
0
 10
123.7928203230275983
 20
147.5999999999999091
 30
0.0
 11
132.4071796769725893
 21
147.5999999999999091
 31
0.0
  0
LINE
  5
11739
  8
0
 10
123.1000000000000938
 20
141.5999999999999091
 30
0.0
 11
123.1000000000000938
 21
147.1999999999997897
 31
0.0
  0
LINE
  5
1173A
  8
0
 10
133.100000000000108
 20
147.1999999999997897
 30
0.0
 11
133.100000000000108
 21
141.5999999999999091
 31
0.0
  0
LINE
  5
1173B
  8
0
 10
153.6000000000003922
 20
147.1999999999997897
 30
0.0
 11
154.2928203230279109
 21
147.5999999999999091
 31
0.0
  0
LINE
  5
1173C
  8
0
 10
163.6000000000003922
 20
147.1999999999997897
 30
0.0
 11
162.9071796769729019
 21
147.5999999999999091
 31
0.0
  0
LINE
  5
1173D
  8
0
 10
153.6000000000003922
 20
147.1999999999997897
 30
0.0
 11
163.6000000000003922
 21
147.1999999999997897
 31
0.0
  0
LINE
  5
1173E
  8
0
 10
154.2928203230279109
 20
147.5999999999999091
 30
0.0
 11
162.9071796769729019
 21
147.5999999999999091
 31
0.0
  0
LINE
  5
1173F
  8
0
 10
153.6000000000003922
 20
141.5999999999999091
 30
0.0
 11
153.6000000000003922
 21
147.1999999999997897
 31
0.0
  0
LINE
  5
11740
  8
0
 10
163.6000000000003922
 20
147.1999999999997897
 30
0.0
 11
163.6000000000003922
 21
141.5999999999999091
 31
0.0
  0
LINE
  5
11741
  8
0
 10
241.0000000000003126
 20
147.2000000000001876
 30
0.0
 11
241.6928203230278029
 21
147.600000000000307
 31
0.0
  0
LINE
  5
11742
  8
0
 10
251.0000000000003126
 20
147.2000000000001876
 30
0.0
 11
250.3071796769727939
 21
147.600000000000307
 31
0.0
  0
LINE
  5
11743
  8
0
 10
241.0000000000003126
 20
147.2000000000001876
 30
0.0
 11
251.0000000000003126
 21
147.2000000000001876
 31
0.0
  0
LINE
  5
11744
  8
0
 10
241.6928203230278029
 20
147.600000000000307
 30
0.0
 11
250.3071796769727939
 21
147.600000000000307
 31
0.0
  0
LINE
  5
11745
  8
0
 10
241.0000000000003126
 20
141.600000000000307
 30
0.0
 11
241.0000000000003126
 21
147.2000000000001876
 31
0.0
  0
LINE
  5
11746
  8
0
 10
251.0000000000003126
 20
147.2000000000001876
 30
0.0
 11
251.0000000000003126
 21
141.600000000000307
 31
0.0
  0
LINE
  5
11747
  8
0
 10
271.0000000000002842
 20
147.2000000000001876
 30
0.0
 11
271.6928203230277745
 21
147.600000000000307
 31
0.0
  0
LINE
  5
11748
  8
0
 10
281.0000000000003979
 20
147.2000000000001876
 30
0.0
 11
280.3071796769727939
 21
147.600000000000307
 31
0.0
  0
LINE
  5
11749
  8
0
 10
271.0000000000002842
 20
147.2000000000001876
 30
0.0
 11
281.0000000000003979
 21
147.2000000000001876
 31
0.0
  0
LINE
  5
1174A
  8
0
 10
271.6928203230277745
 20
147.600000000000307
 30
0.0
 11
280.3071796769727939
 21
147.600000000000307
 31
0.0
  0
LINE
  5
1174B
  8
0
 10
271.0000000000002842
 20
141.600000000000307
 30
0.0
 11
271.0000000000002842
 21
147.2000000000001876
 31
0.0
  0
LINE
  5
1174C
  8
0
 10
281.0000000000003979
 20
147.2000000000001876
 30
0.0
 11
281.0000000000003979
 21
141.600000000000307
 31
0.0
  0
CIRCLE
  5
1174F
  8
0
 10
128.0999999999999091
 20
212.7999999999998977
 30
0.0
 40
4.3071796769724946
  0
LINE
  5
11750
  8
0
 10
125.6000000000000938
 20
211.3566243270261111
 30
0.0
 11
128.100000000000108
 21
209.9132486540518983
 31
0.0
  0
LINE
  5
11751
  8
0
 10
128.100000000000108
 20
209.9132486540518983
 30
0.0
 11
130.5999999999999091
 21
211.3566243270261111
 31
0.0
  0
LINE
  5
11752
  8
0
 10
130.5999999999999091
 20
211.3566243270261111
 30
0.0
 11
130.5999999999999091
 21
214.2433756729745937
 31
0.0
  0
LINE
  5
11753
  8
0
 10
130.5999999999999091
 20
214.2433756729745937
 30
0.0
 11
128.0999999999999091
 21
215.6867513459482097
 31
0.0
  0
LINE
  5
11754
  8
0
 10
128.0999999999999091
 20
215.6867513459482097
 30
0.0
 11
125.5999999999996959
 21
214.2433756729737979
 31
0.0
  0
LINE
  5
11755
  8
0
 10
125.5999999999996959
 20
214.2433756729737979
 30
0.0
 11
125.6000000000000938
 21
211.3566243270261111
 31
0.0
  0
CIRCLE
  5
11756
  8
0
 10
128.0999999999999091
 20
212.7999999999998977
 30
0.0
 40
5.0
  0
CIRCLE
  5
11757
  8
0
 10
158.5999999999999091
 20
182.7999999999998977
 30
0.0
 40
4.3071796769724946
  0
LINE
  5
11758
  8
0
 10
156.100000000000108
 20
181.3566243270259974
 30
0.0
 11
158.600000000000108
 21
179.9132486540518983
 31
0.0
  0
LINE
  5
11759
  8
0
 10
158.600000000000108
 20
179.9132486540518983
 30
0.0
 11
161.0999999999999091
 21
181.3566243270259974
 31
0.0
  0
LINE
  5
1175A
  8
0
 10
161.0999999999999091
 20
181.3566243270259974
 30
0.0
 11
161.0999999999999091
 21
184.2433756729745937
 31
0.0
  0
LINE
  5
1175B
  8
0
 10
161.0999999999999091
 20
184.2433756729745937
 30
0.0
 11
158.5999999999999091
 21
185.6867513459482097
 31
0.0
  0
LINE
  5
1175C
  8
0
 10
158.5999999999999091
 20
185.6867513459482097
 30
0.0
 11
156.0999999999997101
 21
184.2433756729737979
 31
0.0
  0
LINE
  5
1175D
  8
0
 10
156.0999999999997101
 20
184.2433756729737979
 30
0.0
 11
156.100000000000108
 21
181.3566243270259974
 31
0.0
  0
CIRCLE
  5
1175E
  8
0
 10
158.5999999999999091
 20
182.7999999999998977
 30
0.0
 40
5.0
  0
CIRCLE
  5
11769
  8
0
 10
158.5999999999999091
 20
86.2000000000000455
 30
0.0
 40
3.0
  0
CIRCLE
  5
1176A
  8
3
 10
158.5999999999999091
 20
86.2000000000000455
 30
0.0
 40
2.458499999999999
  0
CIRCLE
  5
1176B
  8
0
 10
128.0999999999999091
 20
56.2000000000000384
 30
0.0
 40
3.0
  0
CIRCLE
  5
1176C
  8
3
 10
128.0999999999999091
 20
56.2000000000000384
 30
0.0
 40
2.458499999999999
  0
LINE
  5
12A0D
  8
0
 10
50.0
 20
360.3899999999998727
 30
0.0
 11
50.0
 21
396.3899999999998727
 31
0.0
  0
LINE
  5
12A0E
  8
0
 10
138.0
 20
396.3899999999998727
 30
0.0
 11
138.0
 21
360.3899999999998727
 31
0.0
  0
POLYLINE
  5
12A0F
  8
0
 66
     1
 10
0.0
 20
0.0
 30
0.0
 70
   128
  0
VERTEX
  5
12D93
  8
0
 10
51.7490909591729178
 20
360.3899999999998727
 30
0.0
  0
VERTEX
  5
12D94
  8
0
 10
52.8190457447249102
 20
359.0805534714568239
 30
0.0
  0
VERTEX
  5
12D95
  8
0
 10
53.8050423730260192
 20
358.1899999999998272
 30
0.0
  0
SEQEND
  5
12D96
  8
0
  0
LINE
  5
12A10
  8
0
 10
50.0
 20
360.3899999999998727
 30
0.0
 11
51.7490909591729178
 21
360.3899999999998727
 31
0.0
  0
LINE
  5
12A11
  8
0
 10
136.250909040826798
 20
360.3899999999998727
 30
0.0
 11
138.0
 21
360.3899999999998727
 31
0.0
  0
POLYLINE
  5
12A12
  8
0
 66
     1
 10
0.0
 20
0.0
 30
0.0
 70
   128
  0
VERTEX
  5
12D97
  8
0
 10
134.1949576269736895
 20
358.1899999999998272
 30
0.0
  0
VERTEX
  5
12D98
  8
0
 10
135.4290621080745041
 20
359.3460448018848865
 30
0.0
  0
VERTEX
  5
12D99
  8
0
 10
136.250909040826798
 20
360.3899999999998727
 30
0.0
  0
SEQEND
  5
12D9A
  8
0
  0
LINE
  5
12A13
  8
0
 10
134.1949576269736895
 20
358.1899999999998272
 30
0.0
 11
53.8050423730260192
 21
358.1899999999998272
 31
0.0
  0
LINE
  5
12A14
  8
0
 10
138.0
 20
396.3899999999998727
 30
0.0
 11
50.0
 21
396.3899999999998727
 31
0.0
  0
LINE
  5
12A15
  8
0
 10
128.0
 20
438.7899999999996794
 30
0.0
 11
60.0
 21
438.7899999999996794
 31
0.0
  0
LINE
  5
12A16
  8
0
 10
110.5
 20
441.7899999999996794
 30
0.0
 11
60.5
 21
441.7899999999996794
 31
0.0
  0
LINE
  5
12A17
  8
0
 10
60.5
 20
455.7899999999997931
 30
0.0
 11
110.5
 21
455.7899999999997931
 31
0.0
  0
ARC
  5
12A18
  8
0
 10
128.0146774746569918
 20
448.7899999999997931
 30
0.0
 40
10.0000107714074797
 50
269.9159043252067818
 51
90.084095674793204
  0
LINE
  5
12A19
  8
0
 10
60.0
 20
458.7899999999997931
 30
0.0
 11
128.0
 21
458.7899999999997931
 31
0.0
  0
ARC
  5
12A1A
  8
0
 10
59.988410162517539
 20
448.7899999999997931
 30
0.0
 40
10.00000671621439
 50
89.9335951524334547
 51
270.0664048475665027
  0
LINE
  5
12A1B
  8
0
 10
134.1949576269736895
 20
281.549999999999784
 30
0.0
 11
53.8050423730262466
 21
281.549999999999784
 31
0.0
  0
ARC
  5
12A1C
  8
0
 10
128.0069101535484037
 20
289.3800892518930254
 30
0.0
 40
9.9800916441671195
 50
269.9603287545037915
 51
308.3189929834201735
  0
LINE
  5
12A1D
  8
0
 10
60.0
 20
279.3999999999999204
 30
0.0
 11
128.0
 21
279.3999999999999204
 31
0.0
  0
ARC
  5
12A1E
  8
0
 10
59.9995821467684891
 20
289.3987960078785022
 30
0.0
 40
9.998796016609468
 50
231.7182838511182865
 51
270.0023944109403828
  0
LINE
  5
12A1F
  8
0
 10
122.7265603196179029
 20
283.75
 30
0.0
 11
51.7490909591729178
 21
283.7499999999998863
 31
0.0
  0
POLYLINE
  5
12A20
  8
0
 66
     1
 10
0.0
 20
0.0
 30
0.0
 70
   128
  0
VERTEX
  5
12D9B
  8
0
 10
134.5836893651726029
 20
281.9011030250832164
 30
0.0
  0
VERTEX
  5
12D9C
  8
0
 10
134.1949576269736895
 20
281.549999999999784
 30
0.0
  0
SEQEND
  5
12D9D
  8
0
  0
POLYLINE
  5
12A21
  8
0
 66
     1
 10
0.0
 20
0.0
 30
0.0
 70
   128
  0
VERTEX
  5
12D9E
  8
0
 10
53.8050423730237526
 20
281.5500000000017735
 30
0.0
  0
VERTEX
  5
12D9F
  8
0
 10
52.5709378919252686
 20
282.7060448018849002
 30
0.0
  0
VERTEX
  5
12DA0
  8
0
 10
51.7490909591729178
 20
283.7499999999998863
 30
0.0
  0
SEQEND
  5
12DA1
  8
0
  0
LINE
  5
12A22
  8
0
 10
134.1949576269736895
 20
297.2499999999998863
 30
0.0
 11
53.8050423730260192
 21
297.2499999999998863
 31
0.0
  0
LINE
  5
12A23
  8
0
 10
122.7272412428966959
 20
295.0499999999997272
 30
0.0
 11
51.7490909591729178
 21
295.0499999999998977
 31
0.0
  0
POLYLINE
  5
12A24
  8
0
 66
     1
 10
0.0
 20
0.0
 30
0.0
 70
   128
  0
VERTEX
  5
12DA2
  8
0
 10
134.1949576269736895
 20
297.2499999999998863
 30
0.0
  0
VERTEX
  5
12DA3
  8
0
 10
134.5693857466017107
 20
296.8992552389165098
 30
0.0
  0
SEQEND
  5
12DA4
  8
0
  0
POLYLINE
  5
12A25
  8
0
 66
     1
 10
0.0
 20
0.0
 30
0.0
 70
   128
  0
VERTEX
  5
12DA5
  8
0
 10
51.7490909591724701
 20
295.0499999999991019
 30
0.0
  0
VERTEX
  5
12DA6
  8
0
 10
52.8190457447249102
 20
296.3594465285427759
 30
0.0
  0
VERTEX
  5
12DA7
  8
0
 10
53.8050423730237526
 20
297.2499999999980105
 30
0.0
  0
SEQEND
  5
12DA8
  8
0
  0
LINE
  5
12A26
  8
0
 10
128.0
 20
299.3999999999999204
 30
0.0
 11
60.0
 21
299.3999999999999204
 31
0.0
  0
ARC
  5
12A27
  8
0
 10
128.0049394674834105
 20
289.4142324612856783
 30
0.0
 40
9.9857687603702114
 50
51.6923368636116578
 51
90.0283413984641072
  0
ARC
  5
12A28
  8
0
 10
59.9999997854899902
 20
289.4000006180835953
 30
0.0
 40
9.99999938191627
 50
89.9999987709416587
 51
128.2793229669991035
  0
ARC
  5
12A29
  8
0
 10
128.0
 20
289.3999999999999204
 30
0.0
 40
10.0
 50
341.805127661231495
 51
18.1948723387685014
  0
ARC
  5
12A2A
  8
0
 10
60.0
 20
289.3999999999999204
 30
0.0
 40
10.0000000000000107
 50
145.597708690534887
 51
214.402291309465113
  0
CIRCLE
  5
12A2B
  8
0
 10
130.0
 20
448.7899999999997931
 30
0.0
 40
3.0
  0
CIRCLE
  5
12A2C
  8
0
 10
106.0
 20
289.3999999999999204
 30
0.0
 40
3.0000000000000071
  0
CIRCLE
  5
12A2D
  8
0
 10
82.0
 20
289.3999999999999204
 30
0.0
 40
3.0000000000000142
  0
CIRCLE
  5
12A2E
  8
0
 10
58.0
 20
289.3999999999999204
 30
0.0
 40
3.0000000000000209
  0
CIRCLE
  5
12A2F
  8
0
 10
130.0
 20
448.7899999999997931
 30
0.0
 40
3.7000000000000171
  0
CIRCLE
  5
12A30
  8
0
 10
106.0
 20
289.3999999999999204
 30
0.0
 40
5.0000000000000071
  0
CIRCLE
  5
12A31
  8
0
 10
82.0
 20
289.3999999999999204
 30
0.0
 40
5.0000000000000142
  0
CIRCLE
  5
12A32
  8
0
 10
58.0
 20
289.3999999999999204
 30
0.0
 40
5.0000000000000213
  0
CIRCLE
  5
12A33
  8
0
 10
106.0
 20
289.3999999999999204
 30
0.0
 40
5.5000000000000071
  0
CIRCLE
  5
12A34
  8
0
 10
82.0
 20
289.3999999999999204
 30
0.0
 40
5.5000000000000142
  0
CIRCLE
  5
12A35
  8
0
 10
58.0
 20
289.3999999999999204
 30
0.0
 40
5.5000000000000213
  0
LINE
  5
12A36
  8
2
 10
53.5
 20
382.3899999999998727
 30
0.0
 11
117.5
 21
382.3899999999998727
 31
0.0
  0
LINE
  5
12A44
  8
2
 10
55.25
 20
381.3899999999998727
 30
0.0
 11
60.75
 21
381.3899999999998727
 31
0.0
  0
LINE
  5
12A45
  8
2
 10
53.5
 20
382.3899999999998727
 30
0.0
 11
53.5
 21
396.3899999999998727
 31
0.0
  0
LINE
  5
12A46
  8
2
 10
117.5
 20
396.3899999999998727
 30
0.0
 11
117.5
 21
382.3899999999998727
 31
0.0
  0
LINE
  5
12A69
  8
2
 10
51.7490909591729178
 20
360.3899999999998727
 30
0.0
 11
136.250909040826798
 21
360.3899999999998727
 31
0.0
  0
LINE
  5
12A6A
  8
1
 10
141.0
 20
289.3999999999999204
 30
0.0
 11
47.0
 21
289.3999999999999204
 31
0.0
  0
LINE
  5
12A6B
  8
1
 10
106.0
 20
282.3999999999998067
 30
0.0
 11
106.0
 21
296.3999999999998067
 31
0.0
  0
LINE
  5
12A6C
  8
1
 10
82.0
 20
282.3999999999998067
 30
0.0
 11
82.0
 21
296.3999999999998067
 31
0.0
  0
LINE
  5
12A6D
  8
1
 10
58.0
 20
282.3999999999998067
 30
0.0
 11
58.0
 21
296.3999999999998067
 31
0.0
  0
LINE
  5
12A6E
  8
1
 10
141.0
 20
448.7899999999997931
 30
0.0
 11
46.9884034463032094
 21
448.7899999999997931
 31
0.0
  0
LINE
  5
12A6F
  8
1
 10
130.0
 20
443.5899999999998045
 30
0.0
 11
130.0
 21
453.9899999999998954
 31
0.0
  0
LINE
  5
12A70
  8
0
 10
172.3499999999999091
 20
360.3899999999998727
 30
0.0
 11
183.6500000000000909
 21
360.3899999999998727
 31
0.0
  0
LINE
  5
12A71
  8
0
 10
183.6500000000000909
 20
360.3899999999998727
 30
0.0
 11
185.8499999999999091
 21
358.1899999999998272
 31
0.0
  0
LINE
  5
12A72
  8
0
 10
188.0
 20
358.1899999999998272
 30
0.0
 11
185.8499999999999091
 21
358.1899999999998272
 31
0.0
  0
LINE
  5
12A73
  8
0
 10
188.0
 20
358.1899999999998272
 30
0.0
 11
188.0
 21
396.3899999999998727
 31
0.0
  0
LINE
  5
12A74
  8
0
 10
168.0
 20
358.1899999999998272
 30
0.0
 11
168.0
 21
396.3899999999998727
 31
0.0
  0
LINE
  5
12A75
  8
0
 10
170.1500000000000909
 20
358.1899999999998272
 30
0.0
 11
168.0
 21
358.1899999999998272
 31
0.0
  0
LINE
  5
12A76
  8
0
 10
170.1500000000000909
 20
358.1899999999998272
 30
0.0
 11
172.3499999999999091
 21
360.3899999999998727
 31
0.0
  0
LINE
  5
12A77
  8
0
 10
188.0
 20
396.3899999999998727
 30
0.0
 11
168.0
 21
396.3899999999998727
 31
0.0
  0
LINE
  5
12A78
  8
1
 10
106.0
 20
383.8899999999998727
 30
0.0
 11
106.0
 21
358.8899999999998727
 31
0.0
  0
LINE
  5
12A79
  8
1
 10
82.0
 20
383.8899999999998727
 30
0.0
 11
82.0
 21
358.8899999999998727
 31
0.0
  0
ARC
  5
12A7B
  8
0
 10
60.5
 20
448.7899999999997931
 30
0.0
 40
7.0
 50
90.0
 51
270.0
  0
ARC
  5
12A7C
  8
0
 10
110.5
 20
448.7899999999997931
 30
0.0
 40
7.0
 50
270.0
 51
90.0
  0
LINE
  5
12A7F
  8
2
 10
79.5
 20
388.7899999999999068
 30
0.0
 11
89.5000000000000142
 21
388.7899999999999068
 31
0.0
  0
LINE
  5
12A80
  8
2
 10
103.5
 20
388.7899999999999068
 30
0.0
 11
113.5
 21
388.7899999999999068
 31
0.0
  0
LINE
  5
12A81
  8
2
 10
79.5
 20
392.8899999999998727
 30
0.0
 11
89.5000000000000142
 21
392.8899999999998727
 31
0.0
  0
LINE
  5
12A82
  8
2
 10
103.5
 20
392.8899999999998727
 30
0.0
 11
113.5
 21
392.8899999999998727
 31
0.0
  0
LINE
  5
12A8C
  8
2
 10
79.5
 20
392.8899999999998727
 30
0.0
 11
79.5
 21
396.3899999999998727
 31
0.0
  0
LINE
  5
12A8D
  8
2
 10
89.5000000000000142
 20
396.3899999999998727
 30
0.0
 11
89.5000000000000142
 21
392.8899999999998727
 31
0.0
  0
LINE
  5
12A8E
  8
2
 10
103.5
 20
392.8899999999998727
 30
0.0
 11
103.5
 21
396.3899999999998727
 31
0.0
  0
LINE
  5
12A8F
  8
2
 10
113.5
 20
396.3899999999998727
 30
0.0
 11
113.5
 21
392.8899999999998727
 31
0.0
  0
LINE
  5
12A98
  8
1
 10
108.4999999999997016
 20
410.2899999999996794
 30
0.0
 11
108.5
 21
380.8899999999998727
 31
0.0
  0
LINE
  5
12A99
  8
1
 10
84.5000000000000142
 20
410.2899999999996794
 30
0.0
 11
84.5000000000000142
 21
380.8899999999998727
 31
0.0
  0
CIRCLE
  5
12A9A
  8
0
 10
84.5000000000000142
 20
448.7899999999996794
 30
0.0
 40
3.200000000000002
  0
CIRCLE
  5
12A9B
  8
0
 10
108.5
 20
448.7899999999996794
 30
0.0
 40
3.200000000000002
  0
CIRCLE
  5
12A9C
  8
0
 10
84.5000000000000142
 20
448.7899999999996794
 30
0.0
 40
5.0
  0
CIRCLE
  5
12A9D
  8
0
 10
108.5
 20
448.7899999999996794
 30
0.0
 40
5.0
  0
LINE
  5
12A9E
  8
1
 10
108.5
 20
442.2899999999996794
 30
0.0
 11
108.5
 21
455.2899999999997931
 31
0.0
  0
LINE
  5
12A9F
  8
1
 10
84.5000000000000142
 20
442.2899999999996794
 30
0.0
 11
84.5000000000000142
 21
455.2899999999997931
 31
0.0
  0
LINE
  5
12AA0
  8
0
 10
87.4999999999997584
 20
407.7899999999996794
 30
0.0
 11
81.4999999999997726
 21
407.7899999999996794
 31
0.0
  0
LINE
  5
12AA1
  8
0
 10
86.4999999999997726
 20
408.7899999999996794
 30
0.0
 11
87.4999999999997584
 21
407.7899999999996794
 31
0.0
  0
LINE
  5
12AA2
  8
0
 10
81.4999999999997726
 20
407.7899999999996794
 30
0.0
 11
82.4999999999997584
 21
408.7899999999996794
 31
0.0
  0
LINE
  5
12AA3
  8
0
 10
81.4999999999997726
 20
396.3899999999998727
 30
0.0
 11
81.4999999999997726
 21
407.7899999999996794
 31
0.0
  0
LINE
  5
12AA4
  8
3
 10
82.0414999999998145
 20
396.3899999999998727
 30
0.0
 11
82.0415000000000276
 21
408.3315000000001191
 31
0.0
  0
LINE
  5
12AA5
  8
3
 10
86.9584999999999582
 20
396.3899999999998727
 30
0.0
 11
86.9584999999999582
 21
408.3314999999994939
 31
0.0
  0
LINE
  5
12AA6
  8
0
 10
87.4999999999997584
 20
396.3899999999998727
 30
0.0
 11
87.4999999999997584
 21
407.7899999999996794
 31
0.0
  0
LINE
  5
12AA7
  8
0
 10
82.4999999999997584
 20
408.7899999999996794
 30
0.0
 11
86.4999999999997726
 21
408.7899999999996794
 31
0.0
  0
LINE
  5
12AA8
  8
0
 10
111.4999999999997016
 20
407.7899999999996794
 30
0.0
 11
105.4999999999997016
 21
407.7899999999996794
 31
0.0
  0
LINE
  5
12AA9
  8
0
 10
110.4999999999997016
 20
408.7899999999996794
 30
0.0
 11
111.4999999999997016
 21
407.7899999999996794
 31
0.0
  0
LINE
  5
12AAA
  8
0
 10
105.4999999999997016
 20
407.7899999999996794
 30
0.0
 11
106.4999999999997016
 21
408.7899999999996794
 31
0.0
  0
LINE
  5
12AAB
  8
0
 10
105.4999999999997016
 20
396.3899999999998727
 30
0.0
 11
105.4999999999997016
 21
407.7899999999996794
 31
0.0
  0
LINE
  5
12AAC
  8
3
 10
106.0414999999998003
 20
396.3899999999998727
 30
0.0
 11
106.0414999999999992
 21
408.3315000000001191
 31
0.0
  0
LINE
  5
12AAD
  8
3
 10
110.9584999999999013
 20
396.3899999999998727
 30
0.0
 11
110.9584999999999013
 21
408.3314999999994939
 31
0.0
  0
LINE
  5
12AAE
  8
0
 10
111.4999999999997016
 20
396.3899999999998727
 30
0.0
 11
111.4999999999997016
 21
407.7899999999996794
 31
0.0
  0
LINE
  5
12AAF
  8
0
 10
106.4999999999997016
 20
408.7899999999996794
 30
0.0
 11
110.4999999999997016
 21
408.7899999999996794
 31
0.0
  0
LINE
  5
12AB0
  8
2
 10
86.9585000000001855
 20
391.7899999999999068
 30
0.0
 11
87.5
 21
390.8520944877013221
 31
0.0
  0
LINE
  5
12AB1
  8
2
 10
82.0415000000000276
 20
391.7899999999999068
 30
0.0
 11
81.5
 21
390.8520944877013221
 31
0.0
  0
LINE
  5
12AB2
  8
2
 10
87.5
 20
391.7899999999999068
 30
0.0
 11
81.5000000000002274
 21
391.7899999999999068
 31
0.0
  0
LINE
  5
12AB3
  8
2
 10
81.5
 20
388.7899999999999068
 30
0.0
 11
81.5
 21
396.3899999999998727
 31
0.0
  0
LINE
  5
12AB4
  8
2
 10
82.0415000000000276
 20
391.7899999999999068
 30
0.0
 11
82.0415000000000276
 21
396.3899999999998727
 31
0.0
  0
LINE
  5
12AB5
  8
2
 10
86.9585000000001855
 20
391.7899999999999068
 30
0.0
 11
86.9584999999999582
 21
396.3899999999998727
 31
0.0
  0
LINE
  5
12AB6
  8
2
 10
87.5
 20
388.7899999999999068
 30
0.0
 11
87.5
 21
396.3899999999998727
 31
0.0
  0
LINE
  5
12AB7
  8
2
 10
89.5000000000000142
 20
383.1899999999999977
 30
0.0
 11
88.8071796769727371
 21
382.7899999999999068
 31
0.0
  0
LINE
  5
12AB8
  8
2
 10
79.5
 20
383.1899999999999977
 30
0.0
 11
80.1928203230277177
 21
382.7899999999999068
 31
0.0
  0
LINE
  5
12AB9
  8
2
 10
89.5000000000000142
 20
383.1899999999999977
 30
0.0
 11
79.5
 21
383.1899999999999977
 31
0.0
  0
LINE
  5
12ABA
  8
2
 10
88.8071796769727371
 20
382.7899999999999068
 30
0.0
 11
80.1928203230277177
 21
382.7899999999999068
 31
0.0
  0
LINE
  5
12ABB
  8
2
 10
89.5000000000000142
 20
388.7899999999999068
 30
0.0
 11
89.5000000000000142
 21
383.1899999999999977
 31
0.0
  0
LINE
  5
12ABC
  8
2
 10
79.5
 20
383.1899999999999977
 30
0.0
 11
79.5
 21
388.7899999999999068
 31
0.0
  0
LINE
  5
12ABD
  8
2
 10
110.9585000000001997
 20
391.7899999999999068
 30
0.0
 11
111.5
 21
390.8520944877013221
 31
0.0
  0
LINE
  5
12ABE
  8
2
 10
106.0414999999999992
 20
391.7899999999999068
 30
0.0
 11
105.5
 21
390.8520944877013221
 31
0.0
  0
LINE
  5
12ABF
  8
2
 10
111.5
 20
391.7899999999999068
 30
0.0
 11
105.500000000000199
 21
391.7899999999999068
 31
0.0
  0
LINE
  5
12AC0
  8
2
 10
105.5
 20
388.7899999999999068
 30
0.0
 11
105.5
 21
396.3899999999998727
 31
0.0
  0
LINE
  5
12AC1
  8
2
 10
106.0414999999999992
 20
391.7899999999999068
 30
0.0
 11
106.0414999999999992
 21
396.3899999999998727
 31
0.0
  0
LINE
  5
12AC2
  8
2
 10
110.9585000000001997
 20
391.7899999999999068
 30
0.0
 11
110.9584999999999013
 21
396.3899999999998727
 31
0.0
  0
LINE
  5
12AC3
  8
2
 10
111.5
 20
388.7899999999999068
 30
0.0
 11
111.5
 21
396.3899999999998727
 31
0.0
  0
LINE
  5
12AC4
  8
2
 10
113.5
 20
383.1899999999999977
 30
0.0
 11
112.8071796769726944
 21
382.7899999999999068
 31
0.0
  0
LINE
  5
12AC5
  8
2
 10
103.5
 20
383.1899999999999977
 30
0.0
 11
104.1928203230277035
 21
382.7899999999999068
 31
0.0
  0
LINE
  5
12AC6
  8
2
 10
113.5
 20
383.1899999999999977
 30
0.0
 11
103.5
 21
383.1899999999999977
 31
0.0
  0
LINE
  5
12AC7
  8
2
 10
112.8071796769726944
 20
382.7899999999999068
 30
0.0
 11
104.1928203230277035
 21
382.7899999999999068
 31
0.0
  0
LINE
  5
12AC8
  8
2
 10
113.5
 20
388.7899999999999068
 30
0.0
 11
113.5
 21
383.1899999999999977
 31
0.0
  0
LINE
  5
12AC9
  8
2
 10
103.5
 20
383.1899999999999977
 30
0.0
 11
103.5
 21
388.7899999999999068
 31
0.0
  0
LINE
  5
12ACA
  8
2
 10
59.2295000000010532
 20
381.8899999999997021
 30
0.0
 11
59.2295000000005984
 21
388.560499999999081
 31
0.0
  0
LINE
  5
12ACB
  8
2
 10
59.2295000000008187
 20
381.8899999999998727
 30
0.0
 11
59.5
 21
381.4214802565538776
 31
0.0
  0
LINE
  5
12ACC
  8
2
 10
56.7704999999994016
 20
381.8899999999998727
 30
0.0
 11
56.5
 21
381.4214802565538776
 31
0.0
  0
LINE
  5
12ACD
  8
2
 10
56.7704999999994016
 20
381.8899999999994748
 30
0.0
 11
56.7704999999996289
 21
388.5604999999991946
 31
0.0
  0
LINE
  5
12ACE
  8
2
 10
56.5
 20
381.8899999999998727
 30
0.0
 11
59.5
 21
381.8899999999998727
 31
0.0
  0
LINE
  5
12ACF
  8
2
 10
59.5
 20
388.2900000000000205
 30
0.0
 11
56.5
 21
388.2900000000000205
 31
0.0
  0
LINE
  5
12AD0
  8
2
 10
58.9000000000000909
 20
388.8899999999998727
 30
0.0
 11
59.5
 21
388.2900000000000205
 31
0.0
  0
LINE
  5
12AD1
  8
2
 10
56.5
 20
388.2900000000000205
 30
0.0
 11
57.1000000000001435
 21
388.8899999999998727
 31
0.0
  0
LINE
  5
12AD2
  8
2
 10
60.75
 20
379.5899999999996908
 30
0.0
 11
60.4035898384863685
 21
379.3899999999998727
 31
0.0
  0
LINE
  5
12AD3
  8
2
 10
55.25
 20
379.5899999999996908
 30
0.0
 11
55.5964101615138588
 21
379.3899999999998727
 31
0.0
  0
LINE
  5
12AD4
  8
2
 10
60.75
 20
379.5899999999996908
 30
0.0
 11
55.25
 21
379.5899999999996908
 31
0.0
  0
LINE
  5
12AD5
  8
2
 10
59.4999999999997726
 20
388.2900000000000205
 30
0.0
 11
59.5
 21
381.3899999999998727
 31
0.0
  0
LINE
  5
12AD6
  8
2
 10
57.1000000000001435
 20
388.8899999999998727
 30
0.0
 11
58.9000000000000909
 21
388.8899999999998727
 31
0.0
  0
LINE
  5
12AD7
  8
2
 10
56.5
 20
381.3899999999998727
 30
0.0
 11
56.5
 21
388.2900000000000205
 31
0.0
  0
LINE
  5
12AD8
  8
2
 10
60.4035898384863685
 20
379.3899999999998727
 30
0.0
 11
55.5964101615138588
 21
379.3899999999998727
 31
0.0
  0
LINE
  5
12AD9
  8
2
 10
60.75
 20
381.3899999999998727
 30
0.0
 11
60.75
 21
379.5899999999995202
 31
0.0
  0
LINE
  5
12ADA
  8
2
 10
55.25
 20
379.5899999999995771
 30
0.0
 11
55.25
 21
381.3899999999998727
 31
0.0
  0
CIRCLE
  5
12ADB
  8
0
 10
58.0
 20
289.3999999999999204
 30
0.0
 40
2.75
  0
LINE
  5
12ADC
  8
0
 10
60.704163456598053
 20
288.8999999999999204
 30
0.0
 11
55.295836543401947
 21
288.8999999999999204
 31
0.0
  0
LINE
  5
12ADD
  8
0
 10
60.704163456598053
 20
289.8999999999999204
 30
0.0
 11
55.295836543401947
 21
289.8999999999999204
 31
0.0
  0
LINE
  5
12ADE
  8
0
 10
82.0000000000002132
 20
287.9566243270260202
 30
0.0
 11
83.7368054534615567
 21
286.95387923093989
 31
0.0
  0
LINE
  5
12ADF
  8
0
 10
83.7368054534613151
 20
291.846120769059894
 30
0.0
 11
81.9999999999997726
 21
290.843375672973707
 31
0.0
  0
LINE
  5
12AE0
  8
0
 10
81.9999999999997726
 20
290.843375672973707
 30
0.0
 11
82.0000000000002132
 21
287.9566243270260202
 31
0.0
  0
ARC
  5
12AE1
  8
0
 10
84.5000000000000142
 20
289.3999999999999204
 30
0.0
 40
5.0
 50
152.8732468827292905
 51
207.1267531167069933
  0
LINE
  5
12AE2
  8
0
 10
106.000000000000199
 20
287.9566243270260202
 30
0.0
 11
107.7368054534614998
 21
286.95387923093989
 31
0.0
  0
LINE
  5
12AE3
  8
0
 10
107.7368054534613009
 20
291.846120769059894
 30
0.0
 11
105.999999999999801
 21
290.843375672973707
 31
0.0
  0
LINE
  5
12AE4
  8
0
 10
105.999999999999801
 20
290.843375672973707
 30
0.0
 11
106.000000000000199
 21
287.9566243270260202
 31
0.0
  0
ARC
  5
12AE5
  8
0
 10
108.5
 20
289.3999999999999204
 30
0.0
 40
5.0
 50
152.8732468827292905
 51
207.1267531167069933
  0
LINE
  5
12AE6
  8
1
 10
178.000000000000199
 20
399.3899999999998727
 30
0.0
 11
177.9999999999996874
 21
327.4882373387699204
 31
0.0
  0
LINE
  5
12AE7
  8
1
 10
130.0
 20
397.8899999999998727
 30
0.0
 11
130.0
 21
327.4882373387699772
 31
0.0
  0
LINE
  5
12AE8
  8
1
 10
130.0
 20
298.8999999999998067
 30
0.0
 11
130.0
 21
279.8999999999999204
 31
0.0
  0
ARC
  5
12AE9
  8
0
 10
127.1999999999998039
 20
448.7899999999997931
 30
0.0
 40
0.75
 50
98.1534438729460277
 51
261.8212458608714996
  0
ARC
  5
12AEA
  8
0
 10
132.8000000000002103
 20
448.7899999999997931
 30
0.0
 40
0.7500000000000209
 50
278.1636083743741779
 51
81.8212458608715139
  0
ARC
  5
12AEB
  8
0
 10
134.5025230552737128
 20
293.9025230552736048
 30
0.0
 40
2.9974780065870439
 50
359.9517726450654891
 51
90.0482273549345109
  0
ARC
  5
12AEC
  8
0
 10
134.5023428572266937
 20
284.8976571427729141
 30
0.0
 40
2.9976580583179051
 50
269.9552197608416009
 51
0.0447802391583382
  0
LINE
  5
12AED
  8
0
 10
137.5
 20
293.8999999999999204
 30
0.0
 11
137.5
 21
284.8999999999999204
 31
0.0
  0
LINE
  5
12AEE
  8
0
 10
134.5
 20
281.8999999999999204
 30
0.0
 11
125.5
 21
281.8999999999999204
 31
0.0
  0
LINE
  5
12AEF
  8
0
 10
125.5
 20
296.8999999999999204
 30
0.0
 11
134.5
 21
296.8999999999999204
 31
0.0
  0
ARC
  5
12AF0
  8
0
 10
125.4942069771702933
 20
293.9057930228295845
 30
0.0
 40
2.9942125811720559
 50
89.8891474947636624
 51
180.110852505236295
  0
ARC
  5
12AF1
  8
0
 10
125.4921664289367982
 20
284.8921664289367186
 30
0.0
 40
2.992176683167608
 50
179.849998472455809
 51
270.1500015275311171
  0
LINE
  5
12AF2
  8
0
 10
122.5
 20
284.8999999999999204
 30
0.0
 11
122.5
 21
293.8999999999999204
 31
0.0
  0
CIRCLE
  5
12AF3
  8
0
 10
130.0
 20
289.3999999999999773
 30
0.0
 40
5.25
  0
LINE
  5
12AF4
  8
0
 10
125.6598771138748987
 20
291.8826061575153972
 30
0.0
 11
125.7000000000000028
 21
291.8826061575153972
 31
0.0
  0
LINE
  5
12AF5
  8
0
 10
130.0200614430625023
 20
294.399959753688222
 30
0.0
 11
130.0
 21
294.3652123150308171
 31
0.0
  0
LINE
  5
12AF6
  8
0
 10
130.0
 20
294.3652123150308171
 30
0.0
 11
134.2999999999998977
 21
291.8826061575153972
 31
0.0
  0
LINE
  5
12AF7
  8
0
 10
134.3200614430625137
 20
291.9173535961728021
 30
0.0
 11
134.2999999999998977
 21
291.8826061575153972
 31
0.0
  0
LINE
  5
12AF8
  8
0
 10
134.3200614430625137
 20
286.8826464038272093
 30
0.0
 11
134.2999999999998977
 21
286.9173938424846142
 31
0.0
  0
LINE
  5
12AF9
  8
0
 10
130.0200614430625023
 20
284.4000402463116757
 30
0.0
 11
130.0
 21
284.4347876849691943
 31
0.0
  0
LINE
  5
12AFA
  8
0
 10
125.6598771138748987
 20
286.9173938424846142
 30
0.0
 11
125.7000000000000028
 21
286.9173938424846142
 31
0.0
  0
CIRCLE
  5
12AFB
  8
0
 10
130.0
 20
289.3999999999999773
 30
0.0
 40
2.5
  0
CIRCLE
  5
12AFC
  8
0
 10
130.0
 20
289.3999999999999773
 30
0.0
 40
3.75
  0
CIRCLE
  5
12AFD
  8
0
 10
130.0
 20
289.3999999999999773
 30
0.0
 40
4.9999999999999902
  0
LINE
  5
12AFE
  8
1
 10
130.0
 20
279.8999999999999204
 30
0.0
 11
130.0
 21
298.8999999999998067
 31
0.0
  0
LINE
  5
12AFF
  8
0
 10
125.7000000000000028
 20
286.9173938424846142
 30
0.0
 11
125.7000000000000028
 21
291.8826061575153972
 31
0.0
  0
LINE
  5
12B00
  8
0
 10
134.2999999999998977
 20
286.9173938424846142
 30
0.0
 11
130.0
 21
284.4347876849691943
 31
0.0
  0
LINE
  5
12B01
  8
2
 10
137.5
 20
290.649999999999693
 30
0.0
 11
135.0990195135927934
 21
290.649999999999693
 31
0.0
  0
LINE
  5
12B02
  8
2
 10
135.0990195135927934
 20
288.1499999999998067
 30
0.0
 11
137.5
 21
288.1499999999998067
 31
0.0
  0
LINE
  5
12B03
  8
2
 10
134.9317846668319874
 20
287.5999999999997954
 30
0.0
 11
137.5
 21
287.5999999999997954
 31
0.0
  0
LINE
  5
12B04
  8
2
 10
137.5
 20
291.1999999999997044
 30
0.0
 11
134.9317846668319874
 21
291.1999999999997044
 31
0.0
  0
LINE
  5
12B05
  8
0
 10
170.1499999999998067
 20
358.1899999999998272
 30
0.0
 11
172.3499999999999091
 21
360.3899999999998727
 31
0.0
  0
LINE
  5
12B06
  8
0
 10
175.4999999999994884
 20
330.0
 30
0.0
 11
175.9999999999994884
 21
329.5
 31
0.0
  0
LINE
  5
12B07
  8
0
 10
179.9999999999994884
 20
329.5
 30
0.0
 11
180.4999999999994884
 21
330.0
 31
0.0
  0
LINE
  5
12B08
  8
0
 10
175.4999999999994884
 20
333.6999999999998749
 30
0.0
 11
175.4999999999994884
 21
330.0
 31
0.0
  0
LINE
  5
12B09
  8
0
 10
180.4999999999994884
 20
330.0
 30
0.0
 11
180.4999999999994884
 21
333.7000000000001023
 31
0.0
  0
LINE
  5
12B0A
  8
0
 10
179.9999999999994884
 20
329.5
 30
0.0
 11
175.9999999999994884
 21
329.5
 31
0.0
  0
ARC
  5
12B0B
  8
0
 10
170.9962398042748077
 20
334.3962398042752966
 30
0.0
 40
0.4962540502797877
 50
179.5658566279815034
 51
270.4341433720314853
  0
LINE
  5
12B0C
  8
0
 10
184.9999999999994884
 20
333.8999999999999204
 30
0.0
 11
170.9999999999994884
 21
333.8999999999999204
 31
0.0
  0
ARC
  5
12B0D
  8
0
 10
185.0019865839331032
 20
334.3980134160664193
 30
0.0
 40
0.4980173783092502
 50
269.7714473794559922
 51
0.2285526205569876
  0
LINE
  5
12B0E
  8
0
 10
185.4999999999994884
 20
339.8999999999999204
 30
0.0
 11
170.4999999999994884
 21
339.8999999999999204
 31
0.0
  0
LINE
  5
12B0F
  8
0
 10
185.4999999999994884
 20
358.3328932188132967
 30
0.0
 11
170.4999999999994884
 21
358.3328932188132967
 31
0.0
  0
LINE
  5
12B10
  8
0
 10
185.4999999999994884
 20
358.3328932188132967
 30
0.0
 11
185.4999999999994884
 21
339.8999999999999204
 31
0.0
  0
LINE
  5
12B11
  8
0
 10
185.4999999999994884
 20
336.8999999999999204
 30
0.0
 11
170.4999999999994884
 21
336.8999999999999204
 31
0.0
  0
LINE
  5
12B12
  8
0
 10
185.4999999999994884
 20
336.8999999999999204
 30
0.0
 11
185.4999999999994884
 21
334.3999999999998067
 31
0.0
  0
ARC
  5
12B13
  8
0
 10
185.0167050076356929
 20
358.3398126595355961
 30
0.0
 40
0.4833445234035886
 50
359.1797397639721794
 51
45.8202602360210989
  0
LINE
  5
12B14
  8
0
 10
170.4999999999994884
 20
339.8999999999999204
 30
0.0
 11
170.4999999999994884
 21
358.3328932188132967
 31
0.0
  0
LINE
  5
12B15
  8
0
 10
170.4999999999994884
 20
334.3999999999998067
 30
0.0
 11
170.4999999999994884
 21
336.8999999999999204
 31
0.0
  0
LINE
  5
12B16
  8
0
 10
185.3535533905929071
 20
358.6864466094065165
 30
0.0
 11
183.7964466094067006
 21
360.2435533905930924
 31
0.0
  0
LINE
  5
12B17
  8
0
 10
184.2499999999994884
 20
339.8999999999999204
 30
0.0
 11
184.2499999999994884
 21
336.8999999999999204
 31
0.0
  0
LINE
  5
12B18
  8
0
 10
171.7499999999994884
 20
339.8999999999999204
 30
0.0
 11
171.7499999999994884
 21
336.8999999999999204
 31
0.0
  0
LINE
  5
12B19
  8
0
 10
182.4999999999994884
 20
360.3899999999998727
 30
0.0
 11
182.4999999999994884
 21
333.8999999999999204
 31
0.0
  0
LINE
  5
12B1A
  8
0
 10
173.4999999999994884
 20
333.8999999999999204
 30
0.0
 11
173.4999999999994884
 21
360.3899999999998727
 31
0.0
  0
ARC
  5
12B1B
  8
0
 10
183.4443667664104112
 20
359.8935574585930794
 30
0.0
 40
0.4964447283040978
 50
44.8299343766365013
 51
90.1700656233605997
  0
ARC
  5
12B1C
  8
0
 10
172.5583561905573049
 20
359.8869836589523175
 30
0.0
 40
0.5030178927082622
 50
90.1423129444981015
 51
134.8576870555581024
  0
ARC
  5
12B1D
  8
2
 10
172.5137077337612936
 20
360.8894104588729874
 30
0.0
 40
0.5012926129012208
 50
274.9665582764787928
 51
0.0673822540636986
  0
ARC
  5
12B1E
  8
2
 10
183.4795745040472923
 20
360.8832584233672947
 30
0.0
 40
0.4946204493439851
 50
179.2190459385790007
 51
265.7470135308774957
  0
ARC
  5
12B1F
  8
2
 10
173.4153516536312054
 20
366.7895773556007271
 30
0.0
 40
0.4003516647195493
 50
150.0136922637335886
 51
179.9865151720713925
  0
ARC
  5
12B20
  8
2
 10
182.5989862104302119
 20
366.7934191468792733
 30
0.0
 40
0.3860319805320811
 50
359.4437685569973269
 51
30.5560240072106311
  0
LINE
  5
12B21
  8
2
 10
173.0149999999999011
 20
360.8899999999998727
 30
0.0
 11
173.0149999999999011
 21
366.7896715802243079
 31
0.0
  0
LINE
  5
12B22
  8
2
 10
182.9850000000000989
 20
360.8899999999998727
 30
0.0
 11
182.9850000000000989
 21
366.7896715802243079
 31
0.0
  0
LINE
  5
12B23
  8
2
 10
182.750001861631489
 20
367.3038825996674746
 30
0.0
 11
182.9314108855982965
 21
366.9896703260678805
 31
0.0
  0
LINE
  5
12B24
  8
2
 10
173.249998138368511
 20
367.3038825996674746
 30
0.0
 11
173.0685891144011919
 21
366.9896703260678805
 31
0.0
  0
LINE
  5
12B25
  8
2
 10
173.249998138368511
 20
367.3038825996674746
 30
0.0
 11
182.750001861631489
 21
367.3038825996674746
 31
0.0
  0
LINE
  5
12B26
  8
2
 10
173.249998138368511
 20
367.3038825996674746
 30
0.0
 11
173.249998138368511
 21
367.9038825995871207
 31
0.0
  0
LINE
  5
12B27
  8
2
 10
182.750001861631489
 20
367.3038825996674746
 30
0.0
 11
182.750001861631489
 21
367.9038825995871207
 31
0.0
  0
ARC
  5
12B28
  8
2
 10
173.7450171952854987
 20
367.904980943082478
 30
0.0
 40
0.4950202754128198
 50
89.8728728872069951
 51
180.1271271127799025
  0
LINE
  5
12B29
  8
2
 10
173.746115538781396
 20
368.3999999999999204
 30
0.0
 11
182.253884461218604
 21
368.3999999999999204
 31
0.0
  0
ARC
  5
12B2A
  8
2
 10
182.2622254437251001
 20
367.9122235820941
 30
0.0
 40
0.4878477281429839
 50
359.0203369740871153
 51
90.9796630259128563
  0
ARC
  5
12B2B
  8
2
 10
174.9999999999994884
 20
376.1999999999999886
 30
0.0
 40
0.1000000000000085
 50
270.0
 51
90.0000011238738864
  0
LINE
  5
12B2C
  8
2
 10
180.9999999999994884
 20
368.3999999999999204
 30
0.0
 11
180.9999999999994884
 21
376.0999999999997954
 31
0.0
  0
ARC
  5
12B2D
  8
2
 10
180.9999952536358876
 20
376.1999999999998181
 30
0.0
 40
0.100000000112691
 50
89.9972805338678938
 51
270.0027194661320777
  0
LINE
  5
12B2E
  8
2
 10
174.9999999999994884
 20
377.3086142322097203
 30
0.0
 11
174.9999999999994884
 21
376.2999999999998977
 31
0.0
  0
LINE
  5
12B2F
  8
2
 10
180.9999999999994884
 20
377.3086142322097203
 30
0.0
 11
180.2499999999994884
 21
378.1999999999999886
 31
0.0
  0
LINE
  5
12B30
  8
2
 10
180.9999999999994884
 20
376.2999999999998977
 30
0.0
 11
180.9999999999994884
 21
377.3086142322097203
 31
0.0
  0
LINE
  5
12B31
  8
2
 10
175.7499999999994884
 20
378.1999999999999886
 30
0.0
 11
174.9999999999994884
 21
377.3086142322097203
 31
0.0
  0
LINE
  5
12B32
  8
2
 10
174.9999999999994884
 20
376.0999999999999091
 30
0.0
 11
174.9999999999994884
 21
368.3999999999999204
 31
0.0
  0
LINE
  5
12B33
  8
2
 10
174.9999999999994884
 20
376.0999999999999091
 30
0.0
 11
180.9999999999994884
 21
376.0999999999999091
 31
0.0
  0
LINE
  5
12B34
  8
2
 10
174.9999999999994884
 20
376.2999999999998977
 30
0.0
 11
180.9999999999994884
 21
376.2999999999998977
 31
0.0
  0
LINE
  5
12B35
  8
2
 10
174.9999999999994884
 20
377.3086142322097203
 30
0.0
 11
180.9999999999994884
 21
377.3086142322097203
 31
0.0
  0
LINE
  5
12B36
  8
2
 10
175.7499999999994884
 20
378.1999999999999886
 30
0.0
 11
180.2499999999994884
 21
378.1999999999999886
 31
0.0
  0
ARC
  5
12B37
  8
0
 10
176.0297261866103042
 20
335.643407733263075
 30
0.0
 40
2.0143096709513459
 50
239.9411376382539061
 51
254.7529521371413068
  0
ARC
  5
12B38
  8
0
 10
179.9649820045083004
 20
335.6500224943637818
 30
0.0
 40
2.0220860476311411
 50
285.3424229596500936
 51
300.0654113473819962
  0
LINE
  5
12B39
  8
0
 10
175.4999999999994884
 20
333.6999999999998749
 30
0.0
 11
180.4999999999994884
 21
333.6999999999998749
 31
0.0
  0
ARC
  5
12B3A
  8
2
 10
178.0359459543292076
 20
371.9499999999998181
 30
0.0
 40
0.7230604270346733
 50
268.5903959252588038
 51
91.4096040747411962
  0
ARC
  5
12B3B
  8
2
 10
177.9999999999994884
 20
371.9499999999998181
 30
0.0
 40
0.72306966729991
 50
88.560948125878852
 51
271.439051874121219
  0
LINE
  5
12B3C
  8
0
 10
175.4999999999994884
 20
330.0
 30
0.0
 11
180.4999999999994884
 21
330.0
 31
0.0
  0
LINE
  5
12B3D
  8
1
 10
174.6999999999997897
 20
349.1164466094065801
 30
0.0
 11
181.2999999999996987
 21
349.1164466094065801
 31
0.0
  0
CIRCLE
  5
12B3E
  8
3
 10
177.9999999999994884
 20
349.1164466094065801
 30
0.0
 40
1.5
  0
CIRCLE
  5
12B3F
  8
0
 10
177.9999999999994884
 20
349.1164466094065801
 30
0.0
 40
1.2295
  0
LINE
  5
12B40
  8
0
 10
170.1500000000000909
 20
358.1899999999998272
 30
0.0
 11
172.350000000000108
 21
360.3899999999998727
 31
0.0
  0
ARC
  5
12B41
  8
0
 10
170.9912848217188071
 20
358.3365031638558094
 30
0.0
 40
0.4912980844197282
 50
134.5790000348546869
 51
180.4209999651388046
  0
LINE
  5
12B42
  8
0
 10
127.500000000000199
 20
330.0
 30
0.0
 11
128.000000000000199
 21
329.5
 31
0.0
  0
LINE
  5
12B43
  8
0
 10
132.000000000000199
 20
329.5
 30
0.0
 11
132.500000000000199
 21
330.0
 31
0.0
  0
LINE
  5
12B44
  8
0
 10
127.500000000000199
 20
333.6999999999998749
 30
0.0
 11
127.500000000000199
 21
330.0
 31
0.0
  0
LINE
  5
12B45
  8
0
 10
132.500000000000199
 20
330.0
 30
0.0
 11
132.500000000000199
 21
333.7000000000001023
 31
0.0
  0
LINE
  5
12B46
  8
0
 10
132.000000000000199
 20
329.5
 30
0.0
 11
128.000000000000199
 21
329.5
 31
0.0
  0
ARC
  5
12B47
  8
0
 10
122.9962398042755041
 20
334.3962398042752966
 30
0.0
 40
0.4962540502797877
 50
179.5658566279815034
 51
270.4341433720314853
  0
LINE
  5
12B48
  8
0
 10
137.000000000000199
 20
333.8999999999999204
 30
0.0
 11
123.000000000000199
 21
333.8999999999999204
 31
0.0
  0
ARC
  5
12B49
  8
0
 10
137.0019865839335012
 20
334.3980134160664193
 30
0.0
 40
0.4980173783092502
 50
269.7714473794559922
 51
0.2285526205569874
  0
LINE
  5
12B4A
  8
0
 10
137.500000000000199
 20
339.8999999999999204
 30
0.0
 11
122.500000000000199
 21
339.8999999999999204
 31
0.0
  0
LINE
  5
12B4B
  8
0
 10
137.500000000000199
 20
358.3328932188132967
 30
0.0
 11
134.3474994327661989
 21
358.3328932188132967
 31
0.0
  0
LINE
  5
12B4C
  8
0
 10
137.500000000000199
 20
358.3328932188132967
 30
0.0
 11
137.500000000000199
 21
339.8999999999999204
 31
0.0
  0
LINE
  5
12B4D
  8
0
 10
137.500000000000199
 20
336.8999999999999204
 30
0.0
 11
122.500000000000199
 21
336.8999999999999204
 31
0.0
  0
LINE
  5
12B4E
  8
0
 10
137.500000000000199
 20
336.8999999999999204
 30
0.0
 11
137.500000000000199
 21
334.3999999999998067
 31
0.0
  0
ARC
  5
12B4F
  8
0
 10
137.0167050076358919
 20
358.3398126595355961
 30
0.0
 40
0.4833445234035886
 50
359.1797397639721794
 51
45.8202602360211273
  0
LINE
  5
12B50
  8
0
 10
122.500000000000199
 20
339.8999999999999204
 30
0.0
 11
122.500000000000199
 21
358.1899999999998272
 31
0.0
  0
LINE
  5
12B51
  8
0
 10
122.500000000000199
 20
334.3999999999998067
 30
0.0
 11
122.500000000000199
 21
336.8999999999999204
 31
0.0
  0
LINE
  5
12B52
  8
0
 10
137.353553390593504
 20
358.6864466094065165
 30
0.0
 11
135.9862211385585908
 21
360.0537788614411738
 31
0.0
  0
LINE
  5
12B53
  8
0
 10
136.250000000000199
 20
339.8999999999999204
 30
0.0
 11
136.250000000000199
 21
336.8999999999999204
 31
0.0
  0
LINE
  5
12B54
  8
0
 10
123.750000000000199
 20
339.8999999999999204
 30
0.0
 11
123.750000000000199
 21
336.8999999999999204
 31
0.0
  0
LINE
  5
12B55
  8
0
 10
134.500000000000199
 20
358.475747807492894
 30
0.0
 11
134.500000000000199
 21
333.8999999999999204
 31
0.0
  0
LINE
  5
12B56
  8
0
 10
125.500000000000199
 20
333.8999999999999204
 30
0.0
 11
125.500000000000199
 21
358.1899999999999977
 31
0.0
  0
ARC
  5
12B57
  8
2
 10
124.5137077337615068
 20
360.8894104588729874
 30
0.0
 40
0.5012926129012208
 50
274.9665582764787928
 51
0.0673822540636986
  0
ARC
  5
12B58
  8
2
 10
135.4795745040476049
 20
360.8832584233672947
 30
0.0
 40
0.4946204493439851
 50
179.2190459385790007
 51
265.7470135308774957
  0
ARC
  5
12B59
  8
2
 10
125.4153516536316033
 20
366.7895773556007271
 30
0.0
 40
0.4003516647195493
 50
150.0136922637335886
 51
179.9865151720713925
  0
ARC
  5
12B5A
  8
2
 10
134.5989862104308941
 20
366.7934191468792733
 30
0.0
 40
0.3860319805320811
 50
359.4437685569973269
 51
30.5560240072106097
  0
LINE
  5
12B5B
  8
2
 10
125.0150000000001
 20
360.8899999999998727
 30
0.0
 11
125.0150000000001
 21
366.7896715802243079
 31
0.0
  0
LINE
  5
12B5C
  8
2
 10
134.9850000000002979
 20
360.8899999999998727
 30
0.0
 11
134.9850000000002979
 21
366.7896715802243079
 31
0.0
  0
LINE
  5
12B5D
  8
2
 10
134.7500018616316879
 20
367.3038825996674746
 30
0.0
 11
134.9314108855990071
 21
366.9896703260678805
 31
0.0
  0
LINE
  5
12B5E
  8
2
 10
125.2499981383686958
 20
367.3038825996674746
 30
0.0
 11
125.068589114401405
 21
366.9896703260678805
 31
0.0
  0
LINE
  5
12B5F
  8
2
 10
125.2499981383686958
 20
367.3038825996674746
 30
0.0
 11
134.7500018616316879
 21
367.3038825996674746
 31
0.0
  0
LINE
  5
12B60
  8
2
 10
125.2499981383686958
 20
367.3038825996674746
 30
0.0
 11
125.2499981383686958
 21
367.9038825995871207
 31
0.0
  0
LINE
  5
12B61
  8
2
 10
134.7500018616316879
 20
367.3038825996674746
 30
0.0
 11
134.7500018616316879
 21
367.9038825995871207
 31
0.0
  0
ARC
  5
12B62
  8
2
 10
125.745017195286195
 20
367.904980943082478
 30
0.0
 40
0.4950202754128198
 50
89.8728728872069951
 51
180.1271271127799025
  0
LINE
  5
12B63
  8
2
 10
125.746115538781595
 20
368.3999999999999204
 30
0.0
 11
134.2538844612188029
 21
368.3999999999999204
 31
0.0
  0
ARC
  5
12B64
  8
2
 10
134.2622254437258107
 20
367.9122235820941
 30
0.0
 40
0.4878477281429839
 50
359.0203369740871153
 51
90.9796630259128563
  0
ARC
  5
12B65
  8
2
 10
127.000000000000199
 20
376.1999999999999886
 30
0.0
 40
0.1000000000000085
 50
270.0
 51
90.0000011238738864
  0
LINE
  5
12B66
  8
2
 10
133.000000000000199
 20
372.6728416147400935
 30
0.0
 11
133.000000000000199
 21
376.0999999999999091
 31
0.0
  0
LINE
  5
12B67
  8
2
 10
133.000000000000199
 20
368.3999999999998067
 30
0.0
 11
133.0
 21
371.2271583852611911
 31
0.0
  0
ARC
  5
12B68
  8
2
 10
132.9999952536363139
 20
376.1999999999998181
 30
0.0
 40
0.100000000112691
 50
89.9972805338678938
 51
270.0027194661320777
  0
LINE
  5
12B69
  8
2
 10
127.000000000000199
 20
377.3086142322097203
 30
0.0
 11
127.000000000000199
 21
376.2999999999998977
 31
0.0
  0
LINE
  5
12B6A
  8
2
 10
133.000000000000199
 20
377.3086142322097203
 30
0.0
 11
132.250000000000199
 21
378.1999999999999886
 31
0.0
  0
LINE
  5
12B6B
  8
2
 10
133.000000000000199
 20
376.2999999999998977
 30
0.0
 11
133.000000000000199
 21
377.3086142322097203
 31
0.0
  0
LINE
  5
12B6C
  8
2
 10
127.750000000000199
 20
378.1999999999999886
 30
0.0
 11
127.000000000000199
 21
377.3086142322097203
 31
0.0
  0
LINE
  5
12B6D
  8
2
 10
126.999999999999801
 20
371.2271583852585763
 30
0.0
 11
127.0000000000004974
 21
368.3999999999999204
 31
0.0
  0
LINE
  5
12B6E
  8
2
 10
127.000000000000199
 20
376.0999999999999091
 30
0.0
 11
127.000000000000199
 21
372.6728416147400935
 31
0.0
  0
LINE
  5
12B6F
  8
2
 10
127.000000000000199
 20
376.0999999999999091
 30
0.0
 11
133.000000000000199
 21
376.0999999999999091
 31
0.0
  0
ARC
  5
12B70
  8
2
 10
135.762085243131196
 20
371.9499999999998181
 30
0.0
 40
2.8551033064184148
 50
165.3345104750472956
 51
194.6654895249527044
  0
LINE
  5
12B71
  8
2
 10
127.000000000000199
 20
376.2999999999998977
 30
0.0
 11
133.000000000000199
 21
376.2999999999998977
 31
0.0
  0
LINE
  5
12B72
  8
2
 10
127.000000000000199
 20
377.3086142322097203
 30
0.0
 11
133.000000000000199
 21
377.3086142322097203
 31
0.0
  0
LINE
  5
12B73
  8
2
 10
127.750000000000199
 20
378.1999999999999886
 30
0.0
 11
132.250000000000199
 21
378.1999999999999886
 31
0.0
  0
ARC
  5
12B74
  8
2
 10
124.2362237451726941
 20
371.9499999999998181
 30
0.0
 40
2.8567392577461321
 50
345.3430970499521209
 51
14.6569029500479502
  0
ARC
  5
12B75
  8
0
 10
128.0297261866107874
 20
335.643407733263075
 30
0.0
 40
2.0143096709513459
 50
239.9411376382541903
 51
254.7529521371413068
  0
ARC
  5
12B76
  8
0
 10
131.9649820045090109
 20
335.6500224943637818
 30
0.0
 40
2.0220860476311411
 50
285.3424229596500936
 51
300.0654113473819962
  0
LINE
  5
12B77
  8
0
 10
127.500000000000199
 20
333.6999999999998749
 30
0.0
 11
132.500000000000199
 21
333.6999999999998749
 31
0.0
  0
LINE
  5
12B78
  8
0
 10
127.500000000000199
 20
330.0
 30
0.0
 11
132.500000000000199
 21
330.0
 31
0.0
  0
ARC
  5
12B79
  8
2
 10
122.9912848217191055
 20
358.3365031638558094
 30
0.0
 40
0.4912980844197282
 50
134.5790000348546869
 51
180.4209999651388898
  0
LINE
  5
12B7A
  8
2
 10
134.3474994327661989
 20
358.3328932188132967
 30
0.0
 11
122.500000000000199
 21
358.3328932188132967
 31
0.0
  0
LINE
  5
12B7B
  8
2
 10
122.500000000000199
 20
358.1899999999999977
 30
0.0
 11
122.500000000000199
 21
358.3328932188132967
 31
0.0
  0
LINE
  5
12B7C
  8
2
 10
135.9862211385585908
 20
360.0537788614411738
 30
0.0
 11
135.7964466094070133
 21
360.2435533905930924
 31
0.0
  0
LINE
  5
12B7D
  8
2
 10
124.2035533905934983
 20
360.2435533905930924
 30
0.0
 11
122.6464466094068939
 21
358.6864466094065165
 31
0.0
  0
LINE
  5
12B7E
  8
2
 10
134.500000000000199
 20
360.3899999999998727
 30
0.0
 11
134.500000000000199
 21
358.475747807492894
 31
0.0
  0
LINE
  5
12B7F
  8
2
 10
125.500000000000199
 20
358.1899999999999977
 30
0.0
 11
125.500000000000199
 21
360.3899999999998727
 31
0.0
  0
ARC
  5
12B80
  8
2
 10
135.4443667664106101
 20
359.8935574585930794
 30
0.0
 40
0.4964447283040978
 50
44.8299343766365013
 51
90.1700656233605997
  0
ARC
  5
12B81
  8
2
 10
124.5583561905575039
 20
359.8869836589523175
 30
0.0
 40
0.5030178927082622
 50
90.1423129444981015
 51
134.8576870555581024
  0
ARC
  5
12B82
  8
2
 10
127.2000000000000028
 20
371.9499999999999886
 30
0.0
 40
0.7500000000000283
 50
105.4660099534061004
 51
254.5339900465939138
  0
ARC
  5
12B83
  8
2
 10
132.8000000000004093
 20
371.9499999999999886
 30
0.0
 40
0.7500000000000301
 50
285.4660099534061146
 51
74.5339900465938996
  0
CIRCLE
  5
12B84
  8
0
 10
84.5000000000000142
 20
448.7899999999996794
 30
0.0
 40
3.0
  0
CIRCLE
  5
12B85
  8
3
 10
84.5000000000000142
 20
448.7899999999996794
 30
0.0
 40
2.458499999999999
  0
CIRCLE
  5
12B86
  8
0
 10
108.5
 20
448.7899999999997931
 30
0.0
 40
3.0
  0
CIRCLE
  5
12B87
  8
3
 10
108.5
 20
448.7899999999997931
 30
0.0
 40
2.458499999999999
  0
LINE
  5
12B8A
  8
0
 10
248.0
 20
360.3899999999998727
 30
0.0
 11
248.0
 21
396.3899999999998727
 31
0.0
  0
LINE
  5
12B8B
  8
0
 10
336.0
 20
396.3899999999998727
 30
0.0
 11
336.0
 21
360.3899999999998727
 31
0.0
  0
POLYLINE
  5
12B8C
  8
0
 66
     1
 10
0.0
 20
0.0
 30
0.0
 70
   128
  0
VERTEX
  5
12DA9
  8
0
 10
249.7490909591728894
 20
360.3899999999998727
 30
0.0
  0
VERTEX
  5
12DAA
  8
0
 10
250.8190457447248889
 20
359.0805534714568239
 30
0.0
  0
VERTEX
  5
12DAB
  8
0
 10
251.8050423730259979
 20
358.1899999999998272
 30
0.0
  0
SEQEND
  5
12DAC
  8
0
  0
LINE
  5
12B8D
  8
0
 10
248.0
 20
360.3899999999998727
 30
0.0
 11
249.7490909591728894
 21
360.3899999999998727
 31
0.0
  0
LINE
  5
12B8E
  8
0
 10
334.2509090408269117
 20
360.3899999999998727
 30
0.0
 11
336.0
 21
360.3899999999998727
 31
0.0
  0
POLYLINE
  5
12B8F
  8
0
 66
     1
 10
0.0
 20
0.0
 30
0.0
 70
   128
  0
VERTEX
  5
12DAD
  8
0
 10
332.1949576269738031
 20
358.1899999999998272
 30
0.0
  0
VERTEX
  5
12DAE
  8
0
 10
333.4290621080745041
 20
359.3460448018848865
 30
0.0
  0
VERTEX
  5
12DAF
  8
0
 10
334.2509090408269117
 20
360.3899999999998727
 30
0.0
  0
SEQEND
  5
12DB0
  8
0
  0
LINE
  5
12B90
  8
0
 10
332.1949576269738031
 20
358.1899999999998272
 30
0.0
 11
251.8050423730259979
 21
358.1899999999998272
 31
0.0
  0
LINE
  5
12B91
  8
0
 10
336.0
 20
396.3899999999998727
 30
0.0
 11
248.0
 21
396.3899999999998727
 31
0.0
  0
LINE
  5
12B92
  8
0
 10
326.0
 20
438.7899999999996794
 30
0.0
 11
258.0
 21
438.7899999999996794
 31
0.0
  0
LINE
  5
12B93
  8
0
 10
308.5
 20
441.7899999999996794
 30
0.0
 11
258.5
 21
441.7899999999996794
 31
0.0
  0
LINE
  5
12B94
  8
0
 10
258.5
 20
455.7899999999997931
 30
0.0
 11
308.5
 21
455.7899999999997931
 31
0.0
  0
ARC
  5
12B95
  8
0
 10
326.0146774746569918
 20
448.7899999999997931
 30
0.0
 40
10.0000107714074797
 50
269.9159043252067818
 51
90.084095674793204
  0
LINE
  5
12B96
  8
0
 10
258.0
 20
458.7899999999997931
 30
0.0
 11
326.0
 21
458.7899999999997931
 31
0.0
  0
ARC
  5
12B97
  8
0
 10
257.9884101625174821
 20
448.7899999999997931
 30
0.0
 40
10.00000671621439
 50
89.9335951524334547
 51
270.0664048475665027
  0
LINE
  5
12B98
  8
0
 10
332.1949576269738031
 20
281.549999999999784
 30
0.0
 11
251.8050423730261969
 21
281.549999999999784
 31
0.0
  0
ARC
  5
12B99
  8
0
 10
326.0069101535485174
 20
289.3800892518930254
 30
0.0
 40
9.9800916441671195
 50
269.9603287545037915
 51
308.3189929834209124
  0
LINE
  5
12B9A
  8
0
 10
258.0
 20
279.3999999999999204
 30
0.0
 11
326.0
 21
279.3999999999999204
 31
0.0
  0
ARC
  5
12B9B
  8
0
 10
257.9995821467684891
 20
289.3987960078785022
 30
0.0
 40
9.998796016609468
 50
231.7182838511182865
 51
270.0023944109403828
  0
LINE
  5
12B9C
  8
0
 10
320.7265603196178745
 20
283.75
 30
0.0
 11
249.7490909591728894
 21
283.7499999999998863
 31
0.0
  0
POLYLINE
  5
12B9D
  8
0
 66
     1
 10
0.0
 20
0.0
 30
0.0
 70
   128
  0
VERTEX
  5
12DB1
  8
0
 10
332.5836893651725745
 20
281.9011030250832164
 30
0.0
  0
VERTEX
  5
12DB2
  8
0
 10
332.1949576269738031
 20
281.549999999999784
 30
0.0
  0
SEQEND
  5
12DB3
  8
0
  0
POLYLINE
  5
12B9E
  8
0
 66
     1
 10
0.0
 20
0.0
 30
0.0
 70
   128
  0
VERTEX
  5
12DB4
  8
0
 10
251.8050423730238094
 20
281.5500000000017735
 30
0.0
  0
VERTEX
  5
12DB5
  8
0
 10
250.570937891925297
 20
282.7060448018849002
 30
0.0
  0
VERTEX
  5
12DB6
  8
0
 10
249.7490909591728894
 20
283.7499999999998863
 30
0.0
  0
SEQEND
  5
12DB7
  8
0
  0
LINE
  5
12B9F
  8
0
 10
332.1949576269738031
 20
297.2499999999998863
 30
0.0
 11
251.8050423730259979
 21
297.2499999999998863
 31
0.0
  0
LINE
  5
12BA0
  8
0
 10
320.7272412428966959
 20
295.0499999999997272
 30
0.0
 11
249.7490909591728894
 21
295.0499999999998977
 31
0.0
  0
POLYLINE
  5
12BA1
  8
0
 66
     1
 10
0.0
 20
0.0
 30
0.0
 70
   128
  0
VERTEX
  5
12DB8
  8
0
 10
332.1949576269738031
 20
297.2499999999998863
 30
0.0
  0
VERTEX
  5
12DB9
  8
0
 10
332.5693857466017107
 20
296.8992552389165098
 30
0.0
  0
SEQEND
  5
12DBA
  8
0
  0
POLYLINE
  5
12BA2
  8
0
 66
     1
 10
0.0
 20
0.0
 30
0.0
 70
   128
  0
VERTEX
  5
12DBB
  8
0
 10
249.7490909591724915
 20
295.0499999999991019
 30
0.0
  0
VERTEX
  5
12DBC
  8
0
 10
250.8190457447248889
 20
296.3594465285427759
 30
0.0
  0
VERTEX
  5
12DBD
  8
0
 10
251.8050423730238094
 20
297.2499999999980105
 30
0.0
  0
SEQEND
  5
12DBE
  8
0
  0
LINE
  5
12BA3
  8
0
 10
326.0
 20
299.3999999999999204
 30
0.0
 11
258.0
 21
299.3999999999999204
 31
0.0
  0
ARC
  5
12BA4
  8
0
 10
326.004939467483382
 20
289.4142324612856783
 30
0.0
 40
9.9857687603702114
 50
51.6923368636122689
 51
90.0283413984641072
  0
ARC
  5
12BA5
  8
0
 10
257.9999997854899902
 20
289.4000006180835953
 30
0.0
 40
9.99999938191627
 50
89.9999987709416587
 51
128.2793229669985067
  0
ARC
  5
12BA6
  8
0
 10
326.0
 20
289.3999999999999204
 30
0.0
 40
10.0
 50
341.805127661231495
 51
18.1948723387685405
  0
ARC
  5
12BA7
  8
0
 10
258.0
 20
289.3999999999999204
 30
0.0
 40
10.0000000000000107
 50
145.5977086905350006
 51
214.4022913094649141
  0
CIRCLE
  5
12BA8
  8
0
 10
328.0
 20
448.7899999999997931
 30
0.0
 40
3.0
  0
CIRCLE
  5
12BA9
  8
0
 10
304.0
 20
289.3999999999999204
 30
0.0
 40
3.0000000000000071
  0
CIRCLE
  5
12BAA
  8
0
 10
280.0
 20
289.3999999999999204
 30
0.0
 40
3.0000000000000142
  0
CIRCLE
  5
12BAB
  8
0
 10
256.0
 20
289.3999999999999204
 30
0.0
 40
3.0000000000000209
  0
CIRCLE
  5
12BAC
  8
0
 10
328.0
 20
448.7899999999997931
 30
0.0
 40
3.7000000000000171
  0
CIRCLE
  5
12BAD
  8
0
 10
304.0
 20
289.3999999999999204
 30
0.0
 40
5.0000000000000071
  0
CIRCLE
  5
12BAE
  8
0
 10
280.0
 20
289.3999999999999204
 30
0.0
 40
5.0000000000000142
  0
CIRCLE
  5
12BAF
  8
0
 10
256.0
 20
289.3999999999999204
 30
0.0
 40
5.0000000000000213
  0
CIRCLE
  5
12BB0
  8
0
 10
304.0
 20
289.3999999999999204
 30
0.0
 40
5.5000000000000071
  0
CIRCLE
  5
12BB1
  8
0
 10
280.0
 20
289.3999999999999204
 30
0.0
 40
5.5000000000000142
  0
CIRCLE
  5
12BB2
  8
0
 10
256.0
 20
289.3999999999999204
 30
0.0
 40
5.5000000000000213
  0
LINE
  5
12BB3
  8
2
 10
251.5
 20
382.3899999999998727
 30
0.0
 11
315.5
 21
382.3899999999998727
 31
0.0
  0
LINE
  5
12BC1
  8
2
 10
253.25
 20
381.3899999999998727
 30
0.0
 11
258.75
 21
381.3899999999998727
 31
0.0
  0
LINE
  5
12BC2
  8
2
 10
251.5
 20
382.3899999999998727
 30
0.0
 11
251.5
 21
396.3899999999998727
 31
0.0
  0
LINE
  5
12BC3
  8
2
 10
315.5
 20
396.3899999999998727
 30
0.0
 11
315.5
 21
382.3899999999998727
 31
0.0
  0
LINE
  5
12BE6
  8
2
 10
249.7490909591728894
 20
360.3899999999998727
 30
0.0
 11
334.2509090408269117
 21
360.3899999999998727
 31
0.0
  0
LINE
  5
12BE7
  8
1
 10
339.0
 20
289.3999999999999204
 30
0.0
 11
245.0
 21
289.3999999999999204
 31
0.0
  0
LINE
  5
12BE8
  8
1
 10
304.0
 20
282.3999999999998067
 30
0.0
 11
304.0
 21
296.3999999999998067
 31
0.0
  0
LINE
  5
12BE9
  8
1
 10
280.0
 20
282.3999999999998067
 30
0.0
 11
280.0
 21
296.3999999999998067
 31
0.0
  0
LINE
  5
12BEA
  8
1
 10
256.0
 20
282.3999999999998067
 30
0.0
 11
256.0
 21
296.3999999999998067
 31
0.0
  0
LINE
  5
12BEB
  8
1
 10
339.0
 20
448.7899999999997931
 30
0.0
 11
244.9884034463032094
 21
448.7899999999997931
 31
0.0
  0
LINE
  5
12BEC
  8
1
 10
328.0
 20
443.5899999999998045
 30
0.0
 11
328.0
 21
453.9899999999998954
 31
0.0
  0
LINE
  5
12BED
  8
0
 10
370.3499999999999091
 20
360.3899999999998727
 30
0.0
 11
381.6500000000000909
 21
360.3899999999998727
 31
0.0
  0
LINE
  5
12BEE
  8
0
 10
381.6500000000000909
 20
360.3899999999998727
 30
0.0
 11
383.8499999999999091
 21
358.1899999999998272
 31
0.0
  0
LINE
  5
12BEF
  8
0
 10
386.0
 20
358.1899999999998272
 30
0.0
 11
383.8499999999999091
 21
358.1899999999998272
 31
0.0
  0
LINE
  5
12BF0
  8
0
 10
386.0
 20
358.1899999999998272
 30
0.0
 11
386.0
 21
396.3899999999998727
 31
0.0
  0
LINE
  5
12BF1
  8
0
 10
366.0
 20
358.1899999999998272
 30
0.0
 11
366.0
 21
396.3899999999998727
 31
0.0
  0
LINE
  5
12BF2
  8
0
 10
368.1500000000000909
 20
358.1899999999998272
 30
0.0
 11
366.0
 21
358.1899999999998272
 31
0.0
  0
LINE
  5
12BF3
  8
0
 10
368.1500000000000909
 20
358.1899999999998272
 30
0.0
 11
370.3499999999999091
 21
360.3899999999998727
 31
0.0
  0
LINE
  5
12BF4
  8
0
 10
386.0
 20
396.3899999999998727
 30
0.0
 11
366.0
 21
396.3899999999998727
 31
0.0
  0
LINE
  5
12BF5
  8
1
 10
304.0
 20
383.8899999999998727
 30
0.0
 11
304.0
 21
358.8899999999998727
 31
0.0
  0
LINE
  5
12BF6
  8
1
 10
280.0
 20
383.8899999999998727
 30
0.0
 11
280.0
 21
358.8899999999998727
 31
0.0
  0
ARC
  5
12BF8
  8
0
 10
258.5
 20
448.7899999999997931
 30
0.0
 40
7.0
 50
90.0
 51
270.0
  0
ARC
  5
12BF9
  8
0
 10
308.5
 20
448.7899999999997931
 30
0.0
 40
7.0
 50
270.0
 51
90.0
  0
LINE
  5
12BFC
  8
2
 10
277.5
 20
388.7899999999999068
 30
0.0
 11
287.5
 21
388.7899999999999068
 31
0.0
  0
LINE
  5
12BFD
  8
2
 10
301.5
 20
388.7899999999999068
 30
0.0
 11
311.5
 21
388.7899999999999068
 31
0.0
  0
LINE
  5
12BFE
  8
2
 10
277.5
 20
392.8899999999998727
 30
0.0
 11
287.5
 21
392.8899999999998727
 31
0.0
  0
LINE
  5
12BFF
  8
2
 10
301.5
 20
392.8899999999998727
 30
0.0
 11
311.5
 21
392.8899999999998727
 31
0.0
  0
LINE
  5
12C09
  8
2
 10
277.5
 20
392.8899999999998727
 30
0.0
 11
277.5
 21
396.3899999999998727
 31
0.0
  0
LINE
  5
12C0A
  8
2
 10
287.5
 20
396.3899999999998727
 30
0.0
 11
287.5
 21
392.8899999999998727
 31
0.0
  0
LINE
  5
12C0B
  8
2
 10
301.5
 20
392.8899999999998727
 30
0.0
 11
301.5
 21
396.3899999999998727
 31
0.0
  0
LINE
  5
12C0C
  8
2
 10
311.5
 20
396.3899999999998727
 30
0.0
 11
311.5
 21
392.8899999999998727
 31
0.0
  0
LINE
  5
12C15
  8
1
 10
306.4999999999997726
 20
410.2899999999996794
 30
0.0
 11
306.5
 21
380.8899999999998727
 31
0.0
  0
LINE
  5
12C16
  8
1
 10
282.5
 20
410.2899999999996794
 30
0.0
 11
282.5
 21
380.8899999999998727
 31
0.0
  0
CIRCLE
  5
12C17
  8
0
 10
282.5
 20
448.7899999999996794
 30
0.0
 40
3.200000000000002
  0
CIRCLE
  5
12C18
  8
0
 10
306.5
 20
448.7899999999996794
 30
0.0
 40
3.200000000000002
  0
CIRCLE
  5
12C19
  8
0
 10
282.5
 20
448.7899999999996794
 30
0.0
 40
5.0
  0
CIRCLE
  5
12C1A
  8
0
 10
306.5
 20
448.7899999999996794
 30
0.0
 40
5.0
  0
LINE
  5
12C1B
  8
1
 10
306.5
 20
442.2899999999996794
 30
0.0
 11
306.5
 21
455.2899999999997931
 31
0.0
  0
LINE
  5
12C1C
  8
1
 10
282.5
 20
442.2899999999996794
 30
0.0
 11
282.5
 21
455.2899999999997931
 31
0.0
  0
LINE
  5
12C1D
  8
0
 10
285.4999999999997726
 20
407.7899999999996794
 30
0.0
 11
279.4999999999997726
 21
407.7899999999996794
 31
0.0
  0
LINE
  5
12C1E
  8
0
 10
284.4999999999997726
 20
408.7899999999996794
 30
0.0
 11
285.4999999999997726
 21
407.7899999999996794
 31
0.0
  0
LINE
  5
12C1F
  8
0
 10
279.4999999999997726
 20
407.7899999999996794
 30
0.0
 11
280.4999999999997726
 21
408.7899999999996794
 31
0.0
  0
LINE
  5
12C20
  8
0
 10
279.4999999999997726
 20
396.3899999999998727
 30
0.0
 11
279.4999999999997726
 21
407.7899999999996794
 31
0.0
  0
LINE
  5
12C21
  8
3
 10
280.0414999999998145
 20
396.3899999999998727
 30
0.0
 11
280.041499999999985
 21
408.3315000000001191
 31
0.0
  0
LINE
  5
12C22
  8
3
 10
284.958500000000015
 20
396.3899999999998727
 30
0.0
 11
284.958500000000015
 21
408.3314999999994939
 31
0.0
  0
LINE
  5
12C23
  8
0
 10
285.4999999999997726
 20
396.3899999999998727
 30
0.0
 11
285.4999999999997726
 21
407.7899999999996794
 31
0.0
  0
LINE
  5
12C24
  8
0
 10
280.4999999999997726
 20
408.7899999999996794
 30
0.0
 11
284.4999999999997726
 21
408.7899999999996794
 31
0.0
  0
LINE
  5
12C25
  8
0
 10
309.4999999999997726
 20
407.7899999999996794
 30
0.0
 11
303.4999999999997726
 21
407.7899999999996794
 31
0.0
  0
LINE
  5
12C26
  8
0
 10
308.4999999999997726
 20
408.7899999999996794
 30
0.0
 11
309.4999999999997726
 21
407.7899999999996794
 31
0.0
  0
LINE
  5
12C27
  8
0
 10
303.4999999999997726
 20
407.7899999999996794
 30
0.0
 11
304.4999999999997726
 21
408.7899999999996794
 31
0.0
  0
LINE
  5
12C28
  8
0
 10
303.4999999999997726
 20
396.3899999999998727
 30
0.0
 11
303.4999999999997726
 21
407.7899999999996794
 31
0.0
  0
LINE
  5
12C29
  8
3
 10
304.0414999999998145
 20
396.3899999999998727
 30
0.0
 11
304.041499999999985
 21
408.3315000000001191
 31
0.0
  0
LINE
  5
12C2A
  8
3
 10
308.958500000000015
 20
396.3899999999998727
 30
0.0
 11
308.958500000000015
 21
408.3314999999994939
 31
0.0
  0
LINE
  5
12C2B
  8
0
 10
309.4999999999997726
 20
396.3899999999998727
 30
0.0
 11
309.4999999999997726
 21
407.7899999999996794
 31
0.0
  0
LINE
  5
12C2C
  8
0
 10
304.4999999999997726
 20
408.7899999999996794
 30
0.0
 11
308.4999999999997726
 21
408.7899999999996794
 31
0.0
  0
LINE
  5
12C2D
  8
2
 10
284.9585000000001855
 20
391.7899999999999068
 30
0.0
 11
285.5
 21
390.8520944877013221
 31
0.0
  0
LINE
  5
12C2E
  8
2
 10
280.041499999999985
 20
391.7899999999999068
 30
0.0
 11
279.5
 21
390.8520944877013221
 31
0.0
  0
LINE
  5
12C2F
  8
2
 10
285.5
 20
391.7899999999999068
 30
0.0
 11
279.5000000000002274
 21
391.7899999999999068
 31
0.0
  0
LINE
  5
12C30
  8
2
 10
279.5
 20
388.7899999999999068
 30
0.0
 11
279.5
 21
396.3899999999998727
 31
0.0
  0
LINE
  5
12C31
  8
2
 10
280.041499999999985
 20
391.7899999999999068
 30
0.0
 11
280.041499999999985
 21
396.3899999999998727
 31
0.0
  0
LINE
  5
12C32
  8
2
 10
284.9585000000001855
 20
391.7899999999999068
 30
0.0
 11
284.958500000000015
 21
396.3899999999998727
 31
0.0
  0
LINE
  5
12C33
  8
2
 10
285.5
 20
388.7899999999999068
 30
0.0
 11
285.5
 21
396.3899999999998727
 31
0.0
  0
LINE
  5
12C34
  8
2
 10
287.5
 20
383.1899999999999977
 30
0.0
 11
286.8071796769727939
 21
382.7899999999999068
 31
0.0
  0
LINE
  5
12C35
  8
2
 10
277.5
 20
383.1899999999999977
 30
0.0
 11
278.1928203230277177
 21
382.7899999999999068
 31
0.0
  0
LINE
  5
12C36
  8
2
 10
287.5
 20
383.1899999999999977
 30
0.0
 11
277.5
 21
383.1899999999999977
 31
0.0
  0
LINE
  5
12C37
  8
2
 10
286.8071796769727939
 20
382.7899999999999068
 30
0.0
 11
278.1928203230277177
 21
382.7899999999999068
 31
0.0
  0
LINE
  5
12C38
  8
2
 10
287.5
 20
388.7899999999999068
 30
0.0
 11
287.5
 21
383.1899999999999977
 31
0.0
  0
LINE
  5
12C39
  8
2
 10
277.5
 20
383.1899999999999977
 30
0.0
 11
277.5
 21
388.7899999999999068
 31
0.0
  0
LINE
  5
12C3A
  8
2
 10
308.9585000000001855
 20
391.7899999999999068
 30
0.0
 11
309.5
 21
390.8520944877013221
 31
0.0
  0
LINE
  5
12C3B
  8
2
 10
304.041499999999985
 20
391.7899999999999068
 30
0.0
 11
303.5
 21
390.8520944877013221
 31
0.0
  0
LINE
  5
12C3C
  8
2
 10
309.5
 20
391.7899999999999068
 30
0.0
 11
303.5000000000002274
 21
391.7899999999999068
 31
0.0
  0
LINE
  5
12C3D
  8
2
 10
303.5
 20
388.7899999999999068
 30
0.0
 11
303.5
 21
396.3899999999998727
 31
0.0
  0
LINE
  5
12C3E
  8
2
 10
304.041499999999985
 20
391.7899999999999068
 30
0.0
 11
304.041499999999985
 21
396.3899999999998727
 31
0.0
  0
LINE
  5
12C3F
  8
2
 10
308.9585000000001855
 20
391.7899999999999068
 30
0.0
 11
308.958500000000015
 21
396.3899999999998727
 31
0.0
  0
LINE
  5
12C40
  8
2
 10
309.5
 20
388.7899999999999068
 30
0.0
 11
309.5
 21
396.3899999999998727
 31
0.0
  0
LINE
  5
12C41
  8
2
 10
311.5
 20
383.1899999999999977
 30
0.0
 11
310.8071796769726802
 21
382.7899999999999068
 31
0.0
  0
LINE
  5
12C42
  8
2
 10
301.5
 20
383.1899999999999977
 30
0.0
 11
302.1928203230277177
 21
382.7899999999999068
 31
0.0
  0
LINE
  5
12C43
  8
2
 10
311.5
 20
383.1899999999999977
 30
0.0
 11
301.5
 21
383.1899999999999977
 31
0.0
  0
LINE
  5
12C44
  8
2
 10
310.8071796769726802
 20
382.7899999999999068
 30
0.0
 11
302.1928203230277177
 21
382.7899999999999068
 31
0.0
  0
LINE
  5
12C45
  8
2
 10
311.5
 20
388.7899999999999068
 30
0.0
 11
311.5
 21
383.1899999999999977
 31
0.0
  0
LINE
  5
12C46
  8
2
 10
301.5
 20
383.1899999999999977
 30
0.0
 11
301.5
 21
388.7899999999999068
 31
0.0
  0
LINE
  5
12C47
  8
2
 10
257.22950000000111
 20
381.8899999999997021
 30
0.0
 11
257.2295000000005984
 21
388.560499999999081
 31
0.0
  0
LINE
  5
12C48
  8
2
 10
257.2295000000008258
 20
381.8899999999998727
 30
0.0
 11
257.5
 21
381.4214802565538776
 31
0.0
  0
LINE
  5
12C49
  8
2
 10
254.7704999999994016
 20
381.8899999999998727
 30
0.0
 11
254.5
 21
381.4214802565538776
 31
0.0
  0
LINE
  5
12C4A
  8
2
 10
254.7704999999994016
 20
381.8899999999994748
 30
0.0
 11
254.7704999999996005
 21
388.5604999999991946
 31
0.0
  0
LINE
  5
12C4B
  8
2
 10
254.5
 20
381.8899999999998727
 30
0.0
 11
257.5
 21
381.8899999999998727
 31
0.0
  0
LINE
  5
12C4C
  8
2
 10
257.5
 20
388.2900000000000205
 30
0.0
 11
254.5
 21
388.2900000000000205
 31
0.0
  0
LINE
  5
12C4D
  8
2
 10
256.9000000000000909
 20
388.8899999999998727
 30
0.0
 11
257.5
 21
388.2900000000000205
 31
0.0
  0
LINE
  5
12C4E
  8
2
 10
254.5
 20
388.2900000000000205
 30
0.0
 11
255.100000000000108
 21
388.8899999999998727
 31
0.0
  0
LINE
  5
12C4F
  8
2
 10
258.75
 20
379.5899999999996908
 30
0.0
 11
258.4035898384864254
 21
379.3899999999998727
 31
0.0
  0
LINE
  5
12C50
  8
2
 10
253.25
 20
379.5899999999996908
 30
0.0
 11
253.5964101615138873
 21
379.3899999999998727
 31
0.0
  0
LINE
  5
12C51
  8
2
 10
258.75
 20
379.5899999999996908
 30
0.0
 11
253.25
 21
379.5899999999996908
 31
0.0
  0
LINE
  5
12C52
  8
2
 10
257.4999999999997726
 20
388.2900000000000205
 30
0.0
 11
257.5
 21
381.3899999999998727
 31
0.0
  0
LINE
  5
12C53
  8
2
 10
255.100000000000108
 20
388.8899999999998727
 30
0.0
 11
256.9000000000000909
 21
388.8899999999998727
 31
0.0
  0
LINE
  5
12C54
  8
2
 10
254.5
 20
381.3899999999998727
 30
0.0
 11
254.5
 21
388.2900000000000205
 31
0.0
  0
LINE
  5
12C55
  8
2
 10
258.4035898384864254
 20
379.3899999999998727
 30
0.0
 11
253.5964101615138873
 21
379.3899999999998727
 31
0.0
  0
LINE
  5
12C56
  8
2
 10
258.75
 20
381.3899999999998727
 30
0.0
 11
258.75
 21
379.5899999999995202
 31
0.0
  0
LINE
  5
12C57
  8
2
 10
253.25
 20
379.5899999999995771
 30
0.0
 11
253.25
 21
381.3899999999998727
 31
0.0
  0
CIRCLE
  5
12C58
  8
0
 10
256.0
 20
289.3999999999999204
 30
0.0
 40
2.75
  0
LINE
  5
12C59
  8
0
 10
258.7041634565981099
 20
288.8999999999999204
 30
0.0
 11
253.2958365434018901
 21
288.8999999999999204
 31
0.0
  0
LINE
  5
12C5A
  8
0
 10
258.7041634565981099
 20
289.8999999999999204
 30
0.0
 11
253.2958365434018901
 21
289.8999999999999204
 31
0.0
  0
LINE
  5
12C5B
  8
0
 10
280.0000000000002274
 20
287.9566243270260202
 30
0.0
 11
281.7368054534616135
 21
286.95387923093989
 31
0.0
  0
LINE
  5
12C5C
  8
0
 10
281.7368054534612725
 20
291.846120769059894
 30
0.0
 11
279.9999999999997726
 21
290.843375672973707
 31
0.0
  0
LINE
  5
12C5D
  8
0
 10
279.9999999999997726
 20
290.843375672973707
 30
0.0
 11
280.0000000000002274
 21
287.9566243270260202
 31
0.0
  0
ARC
  5
12C5E
  8
0
 10
282.5
 20
289.3999999999999204
 30
0.0
 40
5.0
 50
152.8732468827290063
 51
207.1267531167071922
  0
LINE
  5
12C5F
  8
0
 10
304.0000000000002274
 20
287.9566243270260202
 30
0.0
 11
305.7368054534616135
 21
286.95387923093989
 31
0.0
  0
LINE
  5
12C60
  8
0
 10
305.7368054534613862
 20
291.846120769059894
 30
0.0
 11
303.9999999999997726
 21
290.843375672973707
 31
0.0
  0
LINE
  5
12C61
  8
0
 10
303.9999999999997726
 20
290.843375672973707
 30
0.0
 11
304.0000000000002274
 21
287.9566243270260202
 31
0.0
  0
ARC
  5
12C62
  8
0
 10
306.5
 20
289.3999999999999204
 30
0.0
 40
5.0
 50
152.8732468827290063
 51
207.1267531167071922
  0
LINE
  5
12C63
  8
1
 10
376.0000000000002274
 20
399.3899999999998727
 30
0.0
 11
375.9999999999997158
 21
327.4882373387698067
 31
0.0
  0
LINE
  5
12C64
  8
1
 10
328.0
 20
397.8899999999998727
 30
0.0
 11
328.0
 21
327.4882373387699204
 31
0.0
  0
LINE
  5
12C65
  8
1
 10
328.0
 20
298.8999999999998067
 30
0.0
 11
328.0
 21
279.8999999999999204
 31
0.0
  0
ARC
  5
12C66
  8
0
 10
325.1999999999998181
 20
448.7899999999997931
 30
0.0
 40
0.75
 50
98.1534438729460561
 51
261.821245860871386
  0
ARC
  5
12C67
  8
0
 10
330.8000000000001819
 20
448.7899999999997931
 30
0.0
 40
0.7500000000000209
 50
278.1636083743741779
 51
81.821245860871457
  0
ARC
  5
12C68
  8
0
 10
332.5025230552736843
 20
293.9025230552736048
 30
0.0
 40
2.9974780065870439
 50
359.9517726450654891
 51
90.0482273549345109
  0
ARC
  5
12C69
  8
0
 10
332.5023428572267221
 20
284.8976571427729141
 30
0.0
 40
2.9976580583179051
 50
269.9552197608416009
 51
0.0447802391583376
  0
LINE
  5
12C6A
  8
0
 10
335.5
 20
293.8999999999999204
 30
0.0
 11
335.5
 21
284.8999999999999204
 31
0.0
  0
LINE
  5
12C6B
  8
0
 10
332.5
 20
281.8999999999999204
 30
0.0
 11
323.5
 21
281.8999999999999204
 31
0.0
  0
LINE
  5
12C6C
  8
0
 10
323.5
 20
296.8999999999999204
 30
0.0
 11
332.5
 21
296.8999999999999204
 31
0.0
  0
ARC
  5
12C6D
  8
0
 10
323.4942069771702791
 20
293.9057930228295845
 30
0.0
 40
2.9942125811720559
 50
89.8891474947636624
 51
180.110852505236295
  0
ARC
  5
12C6E
  8
0
 10
323.4921664289367982
 20
284.8921664289367186
 30
0.0
 40
2.992176683167608
 50
179.849998472455809
 51
270.1500015275311171
  0
LINE
  5
12C6F
  8
0
 10
320.5
 20
284.8999999999999204
 30
0.0
 11
320.5
 21
293.8999999999999204
 31
0.0
  0
CIRCLE
  5
12C70
  8
0
 10
328.0
 20
289.3999999999999773
 30
0.0
 40
5.25
  0
LINE
  5
12C71
  8
0
 10
323.6598771138749271
 20
291.8826061575153972
 30
0.0
 11
323.6999999999999886
 21
291.8826061575153972
 31
0.0
  0
LINE
  5
12C72
  8
0
 10
328.020061443062616
 20
294.399959753688222
 30
0.0
 11
328.0
 21
294.3652123150308171
 31
0.0
  0
LINE
  5
12C73
  8
0
 10
328.0
 20
294.3652123150308171
 30
0.0
 11
332.2999999999998977
 21
291.8826061575153972
 31
0.0
  0
LINE
  5
12C74
  8
0
 10
332.3200614430625137
 20
291.9173535961728021
 30
0.0
 11
332.2999999999998977
 21
291.8826061575153972
 31
0.0
  0
LINE
  5
12C75
  8
0
 10
332.3200614430625137
 20
286.8826464038272093
 30
0.0
 11
332.2999999999998977
 21
286.9173938424846142
 31
0.0
  0
LINE
  5
12C76
  8
0
 10
328.020061443062616
 20
284.4000402463116757
 30
0.0
 11
328.0
 21
284.4347876849691943
 31
0.0
  0
LINE
  5
12C77
  8
0
 10
323.6598771138749271
 20
286.9173938424846142
 30
0.0
 11
323.6999999999999886
 21
286.9173938424846142
 31
0.0
  0
CIRCLE
  5
12C78
  8
0
 10
328.0
 20
289.3999999999999773
 30
0.0
 40
2.5
  0
CIRCLE
  5
12C79
  8
0
 10
328.0
 20
289.3999999999999773
 30
0.0
 40
3.75
  0
CIRCLE
  5
12C7A
  8
0
 10
328.0
 20
289.3999999999999773
 30
0.0
 40
4.9999999999999902
  0
LINE
  5
12C7B
  8
1
 10
328.0
 20
279.8999999999999204
 30
0.0
 11
328.0
 21
298.8999999999998067
 31
0.0
  0
LINE
  5
12C7C
  8
0
 10
323.6999999999999886
 20
286.9173938424846142
 30
0.0
 11
323.6999999999999886
 21
291.8826061575153972
 31
0.0
  0
LINE
  5
12C7D
  8
0
 10
332.2999999999998977
 20
286.9173938424846142
 30
0.0
 11
328.0
 21
284.4347876849691943
 31
0.0
  0
LINE
  5
12C7E
  8
2
 10
335.5
 20
290.649999999999693
 30
0.0
 11
333.0990195135927934
 21
290.649999999999693
 31
0.0
  0
LINE
  5
12C7F
  8
2
 10
333.0990195135927934
 20
288.1499999999998067
 30
0.0
 11
335.5
 21
288.1499999999998067
 31
0.0
  0
LINE
  5
12C80
  8
2
 10
332.9317846668320726
 20
287.5999999999997954
 30
0.0
 11
335.5
 21
287.5999999999997954
 31
0.0
  0
LINE
  5
12C81
  8
2
 10
335.5
 20
291.1999999999997044
 30
0.0
 11
332.9317846668320726
 21
291.1999999999997044
 31
0.0
  0
LINE
  5
12C82
  8
0
 10
368.1499999999999204
 20
358.1899999999998272
 30
0.0
 11
370.3499999999999091
 21
360.3899999999998727
 31
0.0
  0
LINE
  5
12C83
  8
0
 10
373.4999999999994884
 20
330.0
 30
0.0
 11
373.9999999999994884
 21
329.5
 31
0.0
  0
LINE
  5
12C84
  8
0
 10
377.9999999999994884
 20
329.5
 30
0.0
 11
378.4999999999996021
 21
330.0
 31
0.0
  0
LINE
  5
12C85
  8
0
 10
373.4999999999994884
 20
333.6999999999998749
 30
0.0
 11
373.4999999999994884
 21
330.0
 31
0.0
  0
LINE
  5
12C86
  8
0
 10
378.4999999999996021
 20
330.0
 30
0.0
 11
378.4999999999996021
 21
333.7000000000001023
 31
0.0
  0
LINE
  5
12C87
  8
0
 10
377.9999999999994884
 20
329.5
 30
0.0
 11
373.9999999999994884
 21
329.5
 31
0.0
  0
ARC
  5
12C88
  8
0
 10
368.9962398042748077
 20
334.3962398042752966
 30
0.0
 40
0.4962540502797877
 50
179.5658566279815034
 51
270.4341433720314853
  0
LINE
  5
12C89
  8
0
 10
382.9999999999996021
 20
333.8999999999999204
 30
0.0
 11
368.9999999999994884
 21
333.8999999999999204
 31
0.0
  0
ARC
  5
12C8A
  8
0
 10
383.0019865839331032
 20
334.3980134160664193
 30
0.0
 40
0.4980173783092502
 50
269.7714473794559922
 51
0.2285526205569856
  0
LINE
  5
12C8B
  8
0
 10
383.4999999999994884
 20
339.8999999999999204
 30
0.0
 11
368.4999999999996021
 21
339.8999999999999204
 31
0.0
  0
LINE
  5
12C8C
  8
0
 10
383.4999999999994884
 20
358.3328932188132967
 30
0.0
 11
368.4999999999996021
 21
358.3328932188132967
 31
0.0
  0
LINE
  5
12C8D
  8
0
 10
383.4999999999994884
 20
358.3328932188132967
 30
0.0
 11
383.4999999999994884
 21
339.8999999999999204
 31
0.0
  0
LINE
  5
12C8E
  8
0
 10
383.4999999999994884
 20
336.8999999999999204
 30
0.0
 11
368.4999999999996021
 21
336.8999999999999204
 31
0.0
  0
LINE
  5
12C8F
  8
0
 10
383.4999999999994884
 20
336.8999999999999204
 30
0.0
 11
383.4999999999994884
 21
334.3999999999998067
 31
0.0
  0
ARC
  5
12C90
  8
0
 10
383.0167050076357214
 20
358.3398126595355961
 30
0.0
 40
0.4833445234035886
 50
359.1797397639721794
 51
45.820260236020637
  0
LINE
  5
12C91
  8
0
 10
368.4999999999996021
 20
339.8999999999999204
 30
0.0
 11
368.4999999999996021
 21
358.3328932188132967
 31
0.0
  0
LINE
  5
12C92
  8
0
 10
368.4999999999996021
 20
334.3999999999998067
 30
0.0
 11
368.4999999999996021
 21
336.8999999999999204
 31
0.0
  0
LINE
  5
12C93
  8
0
 10
383.3535533905928787
 20
358.6864466094065165
 30
0.0
 11
381.7964466094068143
 21
360.2435533905930924
 31
0.0
  0
LINE
  5
12C94
  8
0
 10
382.2499999999994884
 20
339.8999999999999204
 30
0.0
 11
382.2499999999994884
 21
336.8999999999999204
 31
0.0
  0
LINE
  5
12C95
  8
0
 10
369.7499999999994884
 20
339.8999999999999204
 30
0.0
 11
369.7499999999994884
 21
336.8999999999999204
 31
0.0
  0
LINE
  5
12C96
  8
0
 10
380.4999999999996021
 20
360.3899999999998727
 30
0.0
 11
380.4999999999996021
 21
333.8999999999999204
 31
0.0
  0
LINE
  5
12C97
  8
0
 10
371.4999999999994884
 20
333.8999999999999204
 30
0.0
 11
371.4999999999994884
 21
360.3899999999998727
 31
0.0
  0
ARC
  5
12C98
  8
0
 10
381.4443667664103828
 20
359.8935574585930794
 30
0.0
 40
0.4964447283040978
 50
44.8299343766369986
 51
90.1700656233605997
  0
ARC
  5
12C99
  8
0
 10
370.5583561905572765
 20
359.8869836589523175
 30
0.0
 40
0.5030178927082622
 50
90.1423129444981015
 51
134.8576870555581877
  0
ARC
  5
12C9A
  8
2
 10
370.5137077337612936
 20
360.8894104588729874
 30
0.0
 40
0.5012926129012208
 50
274.9665582764787928
 51
0.0673822540636986
  0
ARC
  5
12C9B
  8
2
 10
381.4795745040473776
 20
360.8832584233672947
 30
0.0
 40
0.4946204493439851
 50
179.2190459385790007
 51
265.7470135308774957
  0
ARC
  5
12C9C
  8
2
 10
371.4153516536312054
 20
366.7895773556007271
 30
0.0
 40
0.4003516647195493
 50
150.0136922637335886
 51
179.9865151720713925
  0
ARC
  5
12C9D
  8
2
 10
380.5989862104302119
 20
366.7934191468792733
 30
0.0
 40
0.3860319805320811
 50
359.4437685569973269
 51
30.5560240072104889
  0
LINE
  5
12C9E
  8
2
 10
371.0149999999998727
 20
360.8899999999998727
 30
0.0
 11
371.0149999999998727
 21
366.7896715802243079
 31
0.0
  0
LINE
  5
12C9F
  8
2
 10
380.9850000000001273
 20
360.8899999999998727
 30
0.0
 11
380.9850000000001273
 21
366.7896715802243079
 31
0.0
  0
LINE
  5
12CA0
  8
2
 10
380.7500018616315174
 20
367.3038825996674746
 30
0.0
 11
380.931410885598325
 21
366.9896703260678805
 31
0.0
  0
LINE
  5
12CA1
  8
2
 10
371.2499981383684826
 20
367.3038825996674746
 30
0.0
 11
371.0685891144012203
 21
366.9896703260678805
 31
0.0
  0
LINE
  5
12CA2
  8
2
 10
371.2499981383684826
 20
367.3038825996674746
 30
0.0
 11
380.7500018616315174
 21
367.3038825996674746
 31
0.0
  0
LINE
  5
12CA3
  8
2
 10
371.2499981383684826
 20
367.3038825996674746
 30
0.0
 11
371.2499981383684826
 21
367.9038825995871207
 31
0.0
  0
LINE
  5
12CA4
  8
2
 10
380.7500018616315174
 20
367.3038825996674746
 30
0.0
 11
380.7500018616315174
 21
367.9038825995871207
 31
0.0
  0
ARC
  5
12CA5
  8
2
 10
371.7450171952855271
 20
367.904980943082478
 30
0.0
 40
0.4950202754128198
 50
89.8728728872069951
 51
180.1271271127799025
  0
LINE
  5
12CA6
  8
2
 10
371.746115538781396
 20
368.3999999999999204
 30
0.0
 11
380.253884461218604
 21
368.3999999999999204
 31
0.0
  0
ARC
  5
12CA7
  8
2
 10
380.2622254437250717
 20
367.9122235820941
 30
0.0
 40
0.4878477281429839
 50
359.0203369740871153
 51
90.9796630259128563
  0
ARC
  5
12CA8
  8
2
 10
372.9999999999994884
 20
376.1999999999999886
 30
0.0
 40
0.1000000000000085
 50
270.0
 51
90.0000011238738864
  0
LINE
  5
12CA9
  8
2
 10
378.9999999999996021
 20
368.3999999999999204
 30
0.0
 11
378.9999999999996021
 21
376.0999999999997954
 31
0.0
  0
ARC
  5
12CAA
  8
2
 10
378.999995253635916
 20
376.1999999999998181
 30
0.0
 40
0.100000000112691
 50
89.9972805338678938
 51
270.0027194661320777
  0
LINE
  5
12CAB
  8
2
 10
372.9999999999994884
 20
377.3086142322097203
 30
0.0
 11
372.9999999999994884
 21
376.2999999999998977
 31
0.0
  0
LINE
  5
12CAC
  8
2
 10
378.9999999999996021
 20
377.3086142322097203
 30
0.0
 11
378.2499999999994884
 21
378.1999999999999886
 31
0.0
  0
LINE
  5
12CAD
  8
2
 10
378.9999999999996021
 20
376.2999999999998977
 30
0.0
 11
378.9999999999996021
 21
377.3086142322097203
 31
0.0
  0
LINE
  5
12CAE
  8
2
 10
373.7499999999994884
 20
378.1999999999999886
 30
0.0
 11
372.9999999999994884
 21
377.3086142322097203
 31
0.0
  0
LINE
  5
12CAF
  8
2
 10
372.9999999999994884
 20
376.0999999999999091
 30
0.0
 11
372.9999999999996021
 21
368.3999999999999204
 31
0.0
  0
LINE
  5
12CB0
  8
2
 10
372.9999999999994884
 20
376.0999999999999091
 30
0.0
 11
378.9999999999996021
 21
376.0999999999999091
 31
0.0
  0
LINE
  5
12CB1
  8
2
 10
372.9999999999994884
 20
376.2999999999998977
 30
0.0
 11
378.9999999999996021
 21
376.2999999999998977
 31
0.0
  0
LINE
  5
12CB2
  8
2
 10
372.9999999999994884
 20
377.3086142322097203
 30
0.0
 11
378.9999999999996021
 21
377.3086142322097203
 31
0.0
  0
LINE
  5
12CB3
  8
2
 10
373.7499999999994884
 20
378.1999999999999886
 30
0.0
 11
378.2499999999994884
 21
378.1999999999999886
 31
0.0
  0
ARC
  5
12CB4
  8
0
 10
374.0297261866102758
 20
335.643407733263075
 30
0.0
 40
2.0143096709513459
 50
239.9411376382545882
 51
254.7529521371413068
  0
ARC
  5
12CB5
  8
0
 10
377.964982004508272
 20
335.6500224943637818
 30
0.0
 40
2.0220860476311411
 50
285.3424229596500936
 51
300.0654113473819962
  0
LINE
  5
12CB6
  8
0
 10
373.4999999999994884
 20
333.6999999999998749
 30
0.0
 11
378.4999999999996021
 21
333.6999999999998749
 31
0.0
  0
ARC
  5
12CB7
  8
2
 10
376.0359459543291791
 20
371.9499999999998181
 30
0.0
 40
0.7230604270346733
 50
268.5903959252588038
 51
91.4096040747411962
  0
ARC
  5
12CB8
  8
2
 10
375.9999999999994884
 20
371.9499999999998181
 30
0.0
 40
0.72306966729991
 50
88.560948125878852
 51
271.439051874121219
  0
LINE
  5
12CB9
  8
0
 10
373.4999999999994884
 20
330.0
 30
0.0
 11
378.4999999999996021
 21
330.0
 31
0.0
  0
LINE
  5
12CBA
  8
1
 10
372.6999999999998181
 20
349.1164466094065801
 30
0.0
 11
379.2999999999997272
 21
349.1164466094065801
 31
0.0
  0
CIRCLE
  5
12CBB
  8
3
 10
375.9999999999994884
 20
349.1164466094065801
 30
0.0
 40
1.5
  0
CIRCLE
  5
12CBC
  8
0
 10
375.9999999999994884
 20
349.1164466094065801
 30
0.0
 40
1.2295
  0
LINE
  5
12CBD
  8
0
 10
368.1500000000000909
 20
358.1899999999998272
 30
0.0
 11
370.3500000000000796
 21
360.3899999999998727
 31
0.0
  0
ARC
  5
12CBE
  8
0
 10
368.9912848217189207
 20
358.3365031638558094
 30
0.0
 40
0.4912980844197282
 50
134.5790000348546869
 51
180.4209999651388046
  0
LINE
  5
12CBF
  8
0
 10
325.5000000000002842
 20
330.0
 30
0.0
 11
326.0000000000002274
 21
329.5
 31
0.0
  0
LINE
  5
12CC0
  8
0
 10
330.0000000000002274
 20
329.5
 30
0.0
 11
330.5000000000002274
 21
330.0
 31
0.0
  0
LINE
  5
12CC1
  8
0
 10
325.5000000000002842
 20
333.6999999999998749
 30
0.0
 11
325.5000000000002842
 21
330.0
 31
0.0
  0
LINE
  5
12CC2
  8
0
 10
330.5000000000002274
 20
330.0
 30
0.0
 11
330.5000000000002274
 21
333.7000000000001023
 31
0.0
  0
LINE
  5
12CC3
  8
0
 10
330.0000000000002274
 20
329.5
 30
0.0
 11
326.0000000000002274
 21
329.5
 31
0.0
  0
ARC
  5
12CC4
  8
0
 10
320.9962398042756035
 20
334.3962398042752966
 30
0.0
 40
0.4962540502797877
 50
179.5658566279815034
 51
270.4341433720314853
  0
LINE
  5
12CC5
  8
0
 10
335.0000000000002274
 20
333.8999999999999204
 30
0.0
 11
321.0000000000002274
 21
333.8999999999999204
 31
0.0
  0
ARC
  5
12CC6
  8
0
 10
335.0019865839336148
 20
334.3980134160664193
 30
0.0
 40
0.4980173783092502
 50
269.7714473794559922
 51
0.2285526205569855
  0
LINE
  5
12CC7
  8
0
 10
335.5000000000002274
 20
339.8999999999999204
 30
0.0
 11
320.5000000000002274
 21
339.8999999999999204
 31
0.0
  0
LINE
  5
12CC8
  8
0
 10
335.5000000000002274
 20
358.3328932188132967
 30
0.0
 11
332.3474994327661989
 21
358.3328932188132967
 31
0.0
  0
LINE
  5
12CC9
  8
0
 10
335.5000000000002274
 20
358.3328932188132967
 30
0.0
 11
335.5000000000002274
 21
339.8999999999999204
 31
0.0
  0
LINE
  5
12CCA
  8
0
 10
335.5000000000002274
 20
336.8999999999999204
 30
0.0
 11
320.5000000000002274
 21
336.8999999999999204
 31
0.0
  0
LINE
  5
12CCB
  8
0
 10
335.5000000000002274
 20
336.8999999999999204
 30
0.0
 11
335.5000000000002274
 21
334.3999999999998067
 31
0.0
  0
ARC
  5
12CCC
  8
0
 10
335.0167050076358919
 20
358.3398126595355961
 30
0.0
 40
0.4833445234035886
 50
359.1797397639721794
 51
45.8202602360206583
  0
LINE
  5
12CCD
  8
0
 10
320.5000000000002274
 20
339.8999999999999204
 30
0.0
 11
320.5000000000002274
 21
358.1899999999998272
 31
0.0
  0
LINE
  5
12CCE
  8
0
 10
320.5000000000002274
 20
334.3999999999998067
 30
0.0
 11
320.5000000000002274
 21
336.8999999999999204
 31
0.0
  0
LINE
  5
12CCF
  8
0
 10
335.3535533905936177
 20
358.6864466094065165
 30
0.0
 11
333.9862211385586761
 21
360.0537788614411738
 31
0.0
  0
LINE
  5
12CD0
  8
0
 10
334.2500000000002274
 20
339.8999999999999204
 30
0.0
 11
334.2500000000002274
 21
336.8999999999999204
 31
0.0
  0
LINE
  5
12CD1
  8
0
 10
321.7500000000002274
 20
339.8999999999999204
 30
0.0
 11
321.7500000000002274
 21
336.8999999999999204
 31
0.0
  0
LINE
  5
12CD2
  8
0
 10
332.5000000000002274
 20
358.475747807492894
 30
0.0
 11
332.5000000000002274
 21
333.8999999999999204
 31
0.0
  0
LINE
  5
12CD3
  8
0
 10
323.5000000000002274
 20
333.8999999999999204
 30
0.0
 11
323.5000000000002274
 21
358.1899999999999977
 31
0.0
  0
ARC
  5
12CD4
  8
2
 10
322.513707733761521
 20
360.8894104588729874
 30
0.0
 40
0.5012926129012208
 50
274.9665582764787928
 51
0.0673822540636985
  0
ARC
  5
12CD5
  8
2
 10
333.4795745040476049
 20
360.8832584233672947
 30
0.0
 40
0.4946204493439851
 50
179.2190459385790007
 51
265.7470135308774957
  0
ARC
  5
12CD6
  8
2
 10
323.415351653631717
 20
366.7895773556007271
 30
0.0
 40
0.4003516647195493
 50
150.0136922637335886
 51
179.9865151720713925
  0
ARC
  5
12CD7
  8
2
 10
332.5989862104308941
 20
366.7934191468792733
 30
0.0
 40
0.3860319805320811
 50
359.4437685569973269
 51
30.5560240072104783
  0
LINE
  5
12CD8
  8
2
 10
323.0150000000001
 20
360.8899999999998727
 30
0.0
 11
323.0150000000001
 21
366.7896715802243079
 31
0.0
  0
LINE
  5
12CD9
  8
2
 10
332.9850000000002979
 20
360.8899999999998727
 30
0.0
 11
332.9850000000002979
 21
366.7896715802243079
 31
0.0
  0
LINE
  5
12CDA
  8
2
 10
332.7500018616316879
 20
367.3038825996674746
 30
0.0
 11
332.9314108855990071
 21
366.9896703260678805
 31
0.0
  0
LINE
  5
12CDB
  8
2
 10
323.24999813836871
 20
367.3038825996674746
 30
0.0
 11
323.0685891144013908
 21
366.9896703260678805
 31
0.0
  0
LINE
  5
12CDC
  8
2
 10
323.24999813836871
 20
367.3038825996674746
 30
0.0
 11
332.7500018616316879
 21
367.3038825996674746
 31
0.0
  0
LINE
  5
12CDD
  8
2
 10
323.24999813836871
 20
367.3038825996674746
 30
0.0
 11
323.24999813836871
 21
367.9038825995871207
 31
0.0
  0
LINE
  5
12CDE
  8
2
 10
332.7500018616316879
 20
367.3038825996674746
 30
0.0
 11
332.7500018616316879
 21
367.9038825995871207
 31
0.0
  0
ARC
  5
12CDF
  8
2
 10
323.7450171952862092
 20
367.904980943082478
 30
0.0
 40
0.4950202754128198
 50
89.8728728872069951
 51
180.1271271127799025
  0
LINE
  5
12CE0
  8
2
 10
323.7461155387816234
 20
368.3999999999999204
 30
0.0
 11
332.2538844612187745
 21
368.3999999999999204
 31
0.0
  0
ARC
  5
12CE1
  8
2
 10
332.2622254437258107
 20
367.9122235820941
 30
0.0
 40
0.4878477281429839
 50
359.0203369740871153
 51
90.9796630259128563
  0
ARC
  5
12CE2
  8
2
 10
325.0000000000002274
 20
376.1999999999999886
 30
0.0
 40
0.1000000000000085
 50
270.0
 51
90.0000011238738864
  0
LINE
  5
12CE3
  8
2
 10
331.0000000000002274
 20
372.6728416147400935
 30
0.0
 11
331.0000000000002274
 21
376.0999999999999091
 31
0.0
  0
LINE
  5
12CE4
  8
2
 10
331.0000000000002274
 20
368.3999999999998067
 30
0.0
 11
331.0
 21
371.2271583852611911
 31
0.0
  0
ARC
  5
12CE5
  8
2
 10
330.9999952536364276
 20
376.1999999999998181
 30
0.0
 40
0.100000000112691
 50
89.9972805338678938
 51
270.0027194661320777
  0
LINE
  5
12CE6
  8
2
 10
325.0000000000002274
 20
377.3086142322097203
 30
0.0
 11
325.0000000000002274
 21
376.2999999999998977
 31
0.0
  0
LINE
  5
12CE7
  8
2
 10
331.0000000000002274
 20
377.3086142322097203
 30
0.0
 11
330.2500000000002274
 21
378.1999999999999886
 31
0.0
  0
LINE
  5
12CE8
  8
2
 10
331.0000000000002274
 20
376.2999999999998977
 30
0.0
 11
331.0000000000002274
 21
377.3086142322097203
 31
0.0
  0
LINE
  5
12CE9
  8
2
 10
325.7500000000002274
 20
378.1999999999999886
 30
0.0
 11
325.0000000000002274
 21
377.3086142322097203
 31
0.0
  0
LINE
  5
12CEA
  8
2
 10
324.9999999999997726
 20
371.2271583852585763
 30
0.0
 11
325.0000000000003979
 21
368.3999999999999204
 31
0.0
  0
LINE
  5
12CEB
  8
2
 10
325.0000000000002274
 20
376.0999999999999091
 30
0.0
 11
325.0000000000002274
 21
372.6728416147400935
 31
0.0
  0
LINE
  5
12CEC
  8
2
 10
325.0000000000002274
 20
376.0999999999999091
 30
0.0
 11
331.0000000000002274
 21
376.0999999999999091
 31
0.0
  0
ARC
  5
12CED
  8
2
 10
333.762085243131196
 20
371.9499999999998181
 30
0.0
 40
2.8551033064184148
 50
165.3345104750474093
 51
194.6654895249525055
  0
LINE
  5
12CEE
  8
2
 10
325.0000000000002274
 20
376.2999999999998977
 30
0.0
 11
331.0000000000002274
 21
376.2999999999998977
 31
0.0
  0
LINE
  5
12CEF
  8
2
 10
325.0000000000002274
 20
377.3086142322097203
 30
0.0
 11
331.0000000000002274
 21
377.3086142322097203
 31
0.0
  0
LINE
  5
12CF0
  8
2
 10
325.7500000000002274
 20
378.1999999999999886
 30
0.0
 11
330.2500000000002274
 21
378.1999999999999886
 31
0.0
  0
ARC
  5
12CF1
  8
2
 10
322.236223745172822
 20
371.9499999999998181
 30
0.0
 40
2.8567392577461321
 50
345.3430970499521777
 51
14.6569029500477992
  0
ARC
  5
12CF2
  8
0
 10
326.0297261866107874
 20
335.643407733263075
 30
0.0
 40
2.0143096709513459
 50
239.9411376382545882
 51
254.7529521371413068
  0
ARC
  5
12CF3
  8
0
 10
329.9649820045090109
 20
335.6500224943637818
 30
0.0
 40
2.0220860476311411
 50
285.3424229596500936
 51
300.0654113473819962
  0
LINE
  5
12CF4
  8
0
 10
325.5000000000002842
 20
333.6999999999998749
 30
0.0
 11
330.5000000000002274
 21
333.6999999999998749
 31
0.0
  0
LINE
  5
12CF5
  8
0
 10
325.5000000000002842
 20
330.0
 30
0.0
 11
330.5000000000002274
 21
330.0
 31
0.0
  0
ARC
  5
12CF6
  8
2
 10
320.9912848217190913
 20
358.3365031638558094
 30
0.0
 40
0.4912980844197282
 50
134.5790000348546869
 51
180.4209999651388898
  0
LINE
  5
12CF7
  8
2
 10
332.3474994327661989
 20
358.3328932188132967
 30
0.0
 11
320.5000000000002274
 21
358.3328932188132967
 31
0.0
  0
LINE
  5
12CF8
  8
2
 10
320.5000000000002274
 20
358.1899999999999977
 30
0.0
 11
320.5000000000002274
 21
358.3328932188132967
 31
0.0
  0
LINE
  5
12CF9
  8
2
 10
333.9862211385586761
 20
360.0537788614411738
 30
0.0
 11
333.7964466094069849
 21
360.2435533905930924
 31
0.0
  0
LINE
  5
12CFA
  8
2
 10
322.2035533905935267
 20
360.2435533905930924
 30
0.0
 11
320.6464466094068939
 21
358.6864466094065165
 31
0.0
  0
LINE
  5
12CFB
  8
2
 10
332.5000000000002274
 20
360.3899999999998727
 30
0.0
 11
332.5000000000002274
 21
358.475747807492894
 31
0.0
  0
LINE
  5
12CFC
  8
2
 10
323.5000000000002274
 20
358.1899999999999977
 30
0.0
 11
323.5000000000002274
 21
360.3899999999998727
 31
0.0
  0
ARC
  5
12CFD
  8
2
 10
333.4443667664107238
 20
359.8935574585930794
 30
0.0
 40
0.4964447283040978
 50
44.8299343766369986
 51
90.1700656233605997
  0
ARC
  5
12CFE
  8
2
 10
322.5583561905576175
 20
359.8869836589523175
 30
0.0
 40
0.5030178927082622
 50
90.1423129444981015
 51
134.8576870555581877
  0
ARC
  5
12CFF
  8
2
 10
325.2000000000001023
 20
371.9499999999999886
 30
0.0
 40
0.7500000000000283
 50
105.4660099534061004
 51
254.5339900465938001
  0
ARC
  5
12D00
  8
2
 10
330.8000000000004093
 20
371.9499999999999886
 30
0.0
 40
0.7500000000000301
 50
285.4660099534061146
 51
74.5339900465938712
  0
CIRCLE
  5
12D01
  8
0
 10
282.5
 20
448.7899999999996794
 30
0.0
 40
3.0
  0
CIRCLE
  5
12D02
  8
3
 10
282.5
 20
448.7899999999996794
 30
0.0
 40
2.458499999999999
  0
CIRCLE
  5
12D03
  8
0
 10
306.5
 20
448.7899999999997931
 30
0.0
 40
3.0
  0
CIRCLE
  5
12D04
  8
3
 10
306.5
 20
448.7899999999997931
 30
0.0
 40
2.458499999999999
  0
LINE
  5
12D1C
  8
1
 10
58.0
 20
390.3899999999998727
 30
0.0
 11
58.0
 21
358.8899999999998727
 31
0.0
  0
LINE
  5
12D1D
  8
1
 10
256.0
 20
390.3899999999998727
 30
0.0
 11
256.0
 21
358.8899999999998727
 31
0.0
  0
ENDSEC
  0
EOF
