  0
SECTION
  2
HEADER
  9
$ACADVER
  1
AC1009
  9
$INSBASE
 10
0.0
 20
0.0
 30
0.0
  9
$EXTMIN
 10
0.0
 20
-2.960436562073669
 30
0.0
  9
$EXTMAX
 10
173.5
 20
169.0
 30
0.0
  9
$LIMMIN
 10
0.0
 20
0.0
  9
$LIMMAX
 10
375.0
 20
270.0
  9
$ORTHOMODE
 70
     1
  9
$REGENMODE
 70
     1
  9
$FILLMODE
 70
     1
  9
$QTEXTMODE
 70
     0
  9
$MIRRTEXT
 70
     0
  9
$DRAGMODE
 70
     2
  9
$LTSCALE
 40
5.0
  9
$OSMODE
 70
    37
  9
$ATTMODE
 70
     1
  9
$TEXTSIZE
 40
0.2
  9
$TRACEWID
 40
0.05
  9
$TEXTSTYLE
  7
STANDARD
  9
$CLAYER
  8
0
  9
$CELTYPE
  6
BYLAYER
  9
$CECOLOR
 62
   256
  9
$DIMSCALE
 40
1.0
  9
$DIMASZ
 40
3.0
  9
$DIMEXO
 40
2.0
  9
$DIMDLI
 40
0.38
  9
$DIMRND
 40
0.0
  9
$DIMDLE
 40
0.0
  9
$DIMEXE
 40
2.0
  9
$DIMTP
 40
0.0
  9
$DIMTM
 40
0.0
  9
$DIMTXT
 40
3.2000000000000002
  9
$DIMCEN
 40
0.09
  9
$DIMTSZ
 40
0.0
  9
$DIMTOL
 70
     0
  9
$DIMLIM
 70
     0
  9
$DIMTIH
 70
     0
  9
$DIMTOH
 70
     0
  9
$DIMSE1
 70
     0
  9
$DIMSE2
 70
     0
  9
$DIMTAD
 70
     1
  9
$DIMZIN
 70
     0
  9
$DIMBLK
  1

  9
$DIMASO
 70
     1
  9
$DIMSHO
 70
     0
  9
$DIMPOST
  1

  9
$DIMAPOST
  1

  9
$DIMALT
 70
     0
  9
$DIMALTD
 70
     2
  9
$DIMALTF
 40
25.399999999999999
  9
$DIMLFAC
 40
1.0
  9
$DIMTOFL
 70
     0
  9
$DIMTVP
 40
1.6000000000000001
  9
$DIMTIX
 70
     1
  9
$DIMSOXD
 70
     0
  9
$DIMSAH
 70
     0
  9
$DIMBLK1
  1

  9
$DIMBLK2
  1

  9
$DIMSTYLE
  2
STANDARD
  9
$DIMCLRD
 70
     0
  9
$DIMCLRE
 70
     0
  9
$DIMCLRT
 70
     0
  9
$DIMTFAC
 40
1.0
  9
$DIMGAP
 40
0.09
  9
$LUNITS
 70
     2
  9
$LUPREC
 70
     4
  9
$SKETCHINC
 40
0.1
  9
$FILLETRAD
 40
2.0
  9
$AUNITS
 70
     0
  9
$AUPREC
 70
     0
  9
$MENU
  1
E:\r13\win\SUPPORT\ACAD
  9
$ELEVATION
 40
0.0
  9
$PELEVATION
 40
0.0
  9
$THICKNESS
 40
0.0
  9
$LIMCHECK
 70
     0
  9
$BLIPMODE
 70
     0
  9
$CHAMFERA
 40
0.0
  9
$CHAMFERB
 40
0.0
  9
$SKPOLY
 70
     0
  9
$TDCREATE
 40
2447977.5416277782
  9
$TDUPDATE
 40
2458247.5719541898
  9
$TDINDWG
 40
0.0461308218
  9
$TDUSRTIMER
 40
0.0461308218
  9
$USRTIMER
 70
     1
  9
$ANGBASE
 50
0.0
  9
$ANGDIR
 70
     0
  9
$PDMODE
 70
     0
  9
$PDSIZE
 40
0.0
  9
$PLINEWID
 40
0.0
  9
$COORDS
 70
     1
  9
$SPLFRAME
 70
     0
  9
$SPLINETYPE
 70
     6
  9
$SPLINESEGS
 70
     8
  9
$ATTDIA
 70
     0
  9
$ATTREQ
 70
     1
  9
$HANDLING
 70
     1
  9
$HANDSEED
  5
1378
  9
$SURFTAB1
 70
     6
  9
$SURFTAB2
 70
     6
  9
$SURFTYPE
 70
     6
  9
$SURFU
 70
     6
  9
$SURFV
 70
     6
  9
$UCSNAME
  2

  9
$UCSORG
 10
0.0
 20
0.0
 30
0.0
  9
$UCSXDIR
 10
1.0
 20
0.0
 30
0.0
  9
$UCSYDIR
 10
0.0
 20
1.0
 30
0.0
  9
$PUCSNAME
  2

  9
$PUCSORG
 10
0.0
 20
0.0
 30
0.0
  9
$PUCSXDIR
 10
1.0
 20
0.0
 30
0.0
  9
$PUCSYDIR
 10
0.0
 20
1.0
 30
0.0
  9
$USERI1
 70
     0
  9
$USERI2
 70
     1
  9
$USERI3
 70
     1
  9
$USERI4
 70
     0
  9
$USERI5
 70
     0
  9
$USERR1
 40
0.0
  9
$USERR2
 40
0.0
  9
$USERR3
 40
0.0
  9
$USERR4
 40
0.0
  9
$USERR5
 40
0.0
  9
$WORLDVIEW
 70
     1
  9
$SHADEDGE
 70
     3
  9
$SHADEDIF
 70
    70
  9
$TILEMODE
 70
     1
  9
$MAXACTVP
 70
    16
  9
$PLIMCHECK
 70
     0
  9
$PEXTMIN
 10
1.0000000000000000E+020
 20
1.0000000000000000E+020
 30
1.0000000000000000E+020
  9
$PEXTMAX
 10
-1.0000000000000000E+020
 20
-1.0000000000000000E+020
 30
-1.0000000000000000E+020
  9
$PLIMMIN
 10
0.0
 20
0.0
  9
$PLIMMAX
 10
12.0
 20
9.0
  9
$UNITMODE
 70
     0
  9
$VISRETAIN
 70
     0
  9
$PLINEGEN
 70
     1
  9
$PSLTSCALE
 70
     0
  0
ENDSEC
  0
SECTION
  2
TABLES
  0
TABLE
  2
VPORT
 70
     1
  0
VPORT
  2
*ACTIVE
 70
     0
 10
0.0
 20
0.0
 11
1.0
 21
1.0
 12
194.4619372947021
 22
83.026491870332393
 13
0.0
 23
0.0
 14
10.0
 24
10.0
 15
10.0
 25
10.0
 16
0.0
 26
0.0
 36
1.0
 17
0.0
 27
0.0
 37
0.0
 40
173.4952918803528
 41
2.6019575856443709
 42
50.0
 43
0.0
 44
0.0
 50
0.0
 51
0.0
 71
     0
 72
   500
 73
     1
 74
     0
 75
     0
 76
     0
 77
     0
 78
     2
  0
ENDTAB
  0
TABLE
  2
LTYPE
 70
     4
  0
LTYPE
  2
CONTINUOUS
 70
     0
  3
Solid Line
 72
    65
 73
     0
 40
0.0
  0
LTYPE
  2
CENTER
 70
     0
  3
____ _ ____ _ ____ _ ____ _ ____ _ ____ _ ____
 72
    65
 73
     4
 40
2.0
 49
1.25
 49
-0.25
 49
0.25
 49
-0.25
  0
LTYPE
  2
HIDDEN
 70
     0
  3
_ _ _ _ _ _ _ _ _ _ _ _ _ _ _ _ _ _ _ _ _ _ _
 72
    65
 73
     2
 40
0.375
 49
0.25
 49
-0.125
  0
LTYPE
  2
PHANTOM2
 70
     0
  3
___ _ _ ___ _ _ ___ _ _ ___ _ _
 72
    65
 73
     6
 40
1.25
 49
0.625
 49
-0.125
 49
0.125
 49
-0.125
 49
0.125
 49
-0.125
  0
ENDTAB
  0
TABLE
  2
LAYER
 70
     3
  0
LAYER
  2
0
 70
     0
 62
     7
  6
CONTINUOUS
  0
LAYER
  2
1
 70
     0
 62
     1
  6
CENTER
  0
LAYER
  2
2
 70
     0
 62
     2
  6
HIDDEN
  0
ENDTAB
  0
TABLE
  2
STYLE
 70
     2
  0
STYLE
  2
STANDARD
 70
     0
 40
0.0
 41
1.0
 50
0.0
 71
     0
 42
0.2
  3
TXT
  4
BIGFONT
  0
STYLE
  2
STANDARD1
 70
     0
 40
0.0
 41
1.0
 50
0.0
 71
     0
 42
3.0
  3
txt
  4

  0
ENDTAB
  0
TABLE
  2
VIEW
 70
     1
  0
VIEW
  2
ALL
 70
     0
 40
270.0
 10
220.99159663865549
 20
135.0
 41
0.0
 11
0.0
 21
0.0
 31
1.0
 12
0.0
 22
0.0
 32
0.0
 42
0.0
 43
0.0
 44
0.0
 50
0.0
 71
     0
  0
ENDTAB
  0
TABLE
  2
UCS
 70
     0
  0
ENDTAB
  0
TABLE
  2
APPID
 70
     6
  0
APPID
  2
ACAD
 70
     0
  0
APPID
  2
GENIUS_GENODEF_13
 70
     0
  0
APPID
  2
GENIUS_GENOBJ-N-FIL_13
 70
     0
  0
APPID
  2
ACAD_MLEADERVER
 70
     0
  0
APPID
  2
ACAD_NAV_VCDISPLAY
 70
     0
  0
APPID
  2
ACAD_EXEMPT_FROM_CAD_STANDARDS
 70
     0
  0
ENDTAB
  0
TABLE
  2
DIMSTYLE
 70
     1
  0
DIMSTYLE
  2
STANDARD
 70
     0
  3

  4

  5

  6

  7

 40
1.0
 41
0.18
 42
0.0625
 43
0.38
 44
0.18
 45
0.0
 46
0.0
 47
0.0
 48
0.0
140
0.18
141
0.09
142
0.0
143
25.399999999999999
144
1.0
145
0.0
146
1.0
147
0.09
 71
     0
 72
     0
 73
     1
 74
     1
 75
     0
 76
     0
 77
     0
 78
     0
170
     0
171
     2
172
     0
173
     0
174
     0
175
     0
176
     0
177
     0
178
     0
  0
ENDTAB
  0
ENDSEC
  0
SECTION
  2
BLOCKS
  0
BLOCK
  8
0
  2
$MODEL_SPACE
 70
     0
 10
0.0
 20
0.0
 30
0.0
  3
$MODEL_SPACE
  1

  0
ENDBLK
  5
19F
  8
0
  0
BLOCK
 67
     1
  8
0
  2
$PAPER_SPACE
 70
     0
 10
0.0
 20
0.0
 30
0.0
  3
$PAPER_SPACE
  1

  0
ENDBLK
  5
19D
 67
     1
  8
0
  0
ENDSEC
  0
SECTION
  2
ENTITIES
  0
TEXT
  5
CD6
  8
0
 62
     3
 10
0.0
 20
0.0
 30
0.0
 40
10.0
  1
FTTH6060
  7
STANDARD1
  0
LINE
  5
103A
  8
0
 10
71.0
 20
63.900000000000041
 30
0.0
 11
71.0
 21
50.000000000000057
 31
0.0
  0
LINE
  5
103B
  8
0
 10
71.0
 20
110.0
 30
0.0
 11
71.0
 21
96.10000000000008
 31
0.0
  0
LINE
  5
103C
  8
0
 10
86.500221112900007
 20
63.898746006400017
 30
0.0
 11
86.482367301899984
 21
64.000000000000057
 31
0.0
  0
LINE
  5
103D
  8
0
 10
73.517632698100002
 20
64.000000000000057
 30
0.0
 11
73.499778887099993
 21
63.898746006400017
 31
0.0
  0
LINE
  5
103E
  8
0
 10
73.499778887099993
 20
96.101253993599997
 30
0.0
 11
73.517632698100002
 21
96.000000000000057
 31
0.0
  0
LINE
  5
103F
  8
0
 10
86.482367301899984
 20
96.000000000000057
 30
0.0
 11
86.500221112900007
 21
96.101253993599997
 31
0.0
  0
LINE
  5
1040
  8
0
 10
88.999999999999986
 20
64.000000000000057
 30
0.0
 11
88.999999999999986
 21
96.000000000000057
 31
0.0
  0
LINE
  5
1041
  8
0
 10
88.291553925299993
 20
50.000000000000057
 30
0.0
 11
88.291553834099986
 21
63.900000000000041
 31
0.0
  0
LINE
  5
1042
  8
0
 10
110.0
 20
50.0
 30
0.0
 11
71.0
 21
50.000000000000057
 31
0.0
  0
LINE
  5
1043
  8
0
 10
88.291553834099986
 20
63.900000000000041
 30
0.0
 11
71.00975524990001
 21
63.900000000000041
 31
0.0
  0
LINE
  5
1044
  8
0
 10
88.291553834099986
 20
96.10000000000008
 30
0.0
 11
71.00975524990001
 21
96.10000000000008
 31
0.0
  0
LINE
  5
1045
  8
0
 10
110.0
 20
109.9999999999999
 30
0.0
 11
71.0
 21
110.0
 31
0.0
  0
LINE
  5
1046
  8
0
 10
88.291553834099986
 20
96.10000000000008
 30
0.0
 11
88.291553925299993
 21
110.0
 31
0.0
  0
LINE
  5
1047
  8
0
 10
89.500019637600005
 20
63.900000000000041
 30
0.0
 11
89.796696661200016
 21
61.123464586000011
 31
0.0
  0
LINE
  5
104B
  8
0
 10
88.291553834099986
 20
63.900000000000041
 30
0.0
 11
89.500019637600005
 21
63.900000000000041
 31
0.0
  0
LINE
  5
104E
  8
0
 10
89.796696661200016
 20
98.876535413999974
 30
0.0
 11
89.500019637600005
 21
96.10000000000008
 31
0.0
  0
LINE
  5
1050
  8
0
 10
89.500019637600005
 20
96.10000000000008
 30
0.0
 11
88.291553834099986
 21
96.10000000000008
 31
0.0
  0
LINE
  5
105A
  8
0
 10
89.5000073641
 20
96.099954054100024
 30
0.0
 11
89.5000073641
 21
63.900045946000041
 31
0.0
  0
LINE
  5
105F
  8
0
 10
110.0
 20
110.0
 30
0.0
 11
110.0
 21
50.000000000000057
 31
0.0
  0
CIRCLE
  5
1062
  8
0
 10
97.999999999999986
 20
62.000000000000057
 30
0.0
 40
4.1500000000000057
  0
CIRCLE
  5
1063
  8
0
 10
97.999999999999986
 20
98.000000000000057
 30
0.0
 40
4.1500000000000057
  0
LINE
  5
1064
  8
0
 10
71.708445983399997
 20
64.000000000000057
 30
0.0
 11
88.999999999999986
 21
64.000000000000057
 31
0.0
  0
LINE
  5
1066
  8
0
 10
88.999999999999986
 20
96.000000000000057
 30
0.0
 11
71.708445983399997
 21
96.000000000000057
 31
0.0
  0
LINE
  5
1069
  8
0
 10
68.525832677900013
 20
92.952623665700045
 30
0.0
 11
70.882812384700003
 21
96.000000000000057
 31
0.0
  0
LINE
  5
106A
  8
0
 10
70.882812384700003
 20
64.000000000000057
 30
0.0
 11
68.525832677900013
 21
67.047376334300054
 31
0.0
  0
LINE
  5
106C
  8
0
 10
71.708445983399997
 20
64.000000000000057
 30
0.0
 11
70.882812384700003
 21
64.000000000000057
 31
0.0
  0
LINE
  5
106D
  8
0
 10
71.708445983399997
 20
96.000000000000057
 30
0.0
 11
70.882812384700003
 21
96.000000000000057
 31
0.0
  0
LINE
  5
1074
  8
0
 10
70.582999999999998
 20
110.0
 30
0.0
 11
50.0
 21
110.0
 31
0.0
  0
LINE
  5
1075
  8
0
 10
70.582999999999998
 20
110.0
 30
0.0
 11
70.582999999999998
 21
96.000000000000057
 31
0.0
  0
LINE
  5
1079
  8
0
 10
70.882812384700003
 20
96.000000000000057
 30
0.0
 11
70.582999999999998
 21
96.000000000000057
 31
0.0
  0
LINE
  5
107A
  8
0
 10
70.582999999999998
 20
64.000000000000057
 30
0.0
 11
70.582999999999998
 21
50.000000000000057
 31
0.0
  0
LINE
  5
107B
  8
0
 10
70.582999999999998
 20
50.000000000000057
 30
0.0
 11
50.0
 21
50.0
 31
0.0
  0
LINE
  5
1080
  8
0
 10
70.582999999999998
 20
64.000000000000057
 30
0.0
 11
70.882812384700003
 21
64.000000000000057
 31
0.0
  0
LINE
  5
1082
  8
0
 10
50.0
 20
110.0
 30
0.0
 11
50.0
 21
50.000000000000057
 31
0.0
  0
CIRCLE
  5
1084
  8
0
 10
62.0
 20
98.000000000000057
 30
0.0
 40
4.1500000000387578
  0
CIRCLE
  5
1085
  8
0
 10
62.0
 20
62.000000000000057
 30
0.0
 40
4.1500000000387578
  0
ARC
  5
108C
  8
0
 10
94.740540473899998
 20
150.27774425659999
 30
0.0
 40
7.000000000001191
 50
100.49941422399991
 51
157.1144911492012
  0
ARC
  5
108D
  8
0
 10
79.999999999999986
 20
156.5
 30
0.0
 40
9.0000000000009521
 50
90.0
 51
337.11448773450292
  0
LINE
  5
108E
  8
0
 10
70.0
 20
165.5
 30
0.0
 11
89.999999999999986
 21
165.5
 31
0.0
  0
LINE
  5
108F
  8
0
 10
110.0
 20
166.0
 30
0.0
 11
110.0
 21
160.49998872559999
 31
0.0
  0
ARC
  5
1090
  8
0
 10
108.0
 20
160.49998872559999
 30
0.0
 40
2.0000000000010161
 50
270.03004534919938
 51
0.0
  0
ARC
  5
1091
  8
0
 10
108.04300000000001
 20
78.500000000000057
 30
0.0
 40
80.000000000000028
 50
90.030045349199412
 51
100.49941422399991
  0
LINE
  5
1092
  8
0
 10
86.370225261400023
 20
157.7923738312
 30
0.0
 11
86.607522415800005
 21
157.91854696629991
 31
0.0
  0
ARC
  5
1093
  8
0
 10
85.739000049199987
 20
159.55200002620001
 30
0.0
 40
1.850000000000513
 50
297.99999913650208
 51
117.99999999999829
  0
LINE
  5
1094
  8
0
 10
84.8704776581
 20
161.18545307299999
 30
0.0
 11
84.632939961199995
 21
161.0591520392
 31
0.0
  0
LINE
  5
1095
  8
0
 10
89.999999999999986
 20
165.5
 30
0.0
 11
89.999999999999986
 21
166.0
 31
0.0
  0
LINE
  5
1096
  8
0
 10
89.999999999999986
 20
166.0
 30
0.0
 11
110.0
 21
166.0
 31
0.0
  0
ARC
  5
1097
  8
0
 10
79.999999999999986
 20
156.5
 30
0.0
 40
6.4999999999999956
 50
44.540077959899797
 51
11.46835855979905
  0
LINE
  5
109A
  8
0
 10
82.3094010768
 20
156.5
 30
0.0
 11
81.154700538400007
 21
154.5
 31
0.0
  0
LINE
  5
109B
  8
0
 10
81.154700538400007
 20
158.5
 30
0.0
 11
82.3094010768
 21
156.5
 31
0.0
  0
LINE
  5
109C
  8
0
 10
78.845299461599993
 20
158.5
 30
0.0
 11
81.154700538400007
 21
158.5
 31
0.0
  0
LINE
  5
109D
  8
0
 10
77.6905989232
 20
156.5
 30
0.0
 11
78.845299461599993
 21
158.5
 31
0.0
  0
LINE
  5
109E
  8
0
 10
78.845299461599993
 20
154.5
 30
0.0
 11
77.6905989232
 21
156.5
 31
0.0
  0
LINE
  5
109F
  8
0
 10
81.154700538400007
 20
154.5
 30
0.0
 11
78.845299461599993
 21
154.5
 31
0.0
  0
CIRCLE
  5
10A0
  8
0
 10
79.999999999999986
 20
156.5
 30
0.0
 40
4.0
  0
ARC
  5
10A2
  8
0
 10
52.0
 20
160.5
 30
0.0
 40
1.9999999999999289
 50
180.0
 51
270.0
  0
LINE
  5
10A3
  8
0
 10
50.0
 20
166.0
 30
0.0
 11
70.0
 21
166.0
 31
0.0
  0
LINE
  5
10A4
  8
0
 10
70.0
 20
166.0
 30
0.0
 11
70.0
 21
165.5
 31
0.0
  0
LINE
  5
10A6
  8
0
 10
70.582999999999998
 20
165.5
 30
0.0
 11
70.582999999999998
 21
158.5
 31
0.0
  0
LINE
  5
10A7
  8
0
 10
70.882812384700003
 20
158.5
 30
0.0
 11
52.0
 21
158.5
 31
0.0
  0
LINE
  5
10A8
  8
0
 10
50.0
 20
160.5
 30
0.0
 11
50.0
 21
166.0
 31
0.0
  0
ARC
  5
10AA
  8
0
 10
65.259459526100002
 20
150.27774425659999
 30
0.0
 40
7.0000000000041167
 50
62.18457705579781
 51
79.500584588199814
  0
ARC
  5
10AB
  8
0
 10
51.912037182799999
 20
78.211420549699994
 30
0.0
 40
80.291941505979182
 50
79.506563108600105
 51
82.782223627400214
  0
LINE
  5
10AC
  8
0
 10
62.0
 20
157.86711009539999
 30
0.0
 11
62.0
 21
158.5
 31
0.0
  0
LINE
  5
10AD
  8
0
 10
70.882812384700003
 20
154.44642541830001
 30
0.0
 11
70.882812384700003
 21
158.5
 31
0.0
  0
ARC
  5
10AE
  8
0
 10
65.259459526100002
 20
150.27774425659999
 30
0.0
 40
7.000000000003002
 50
36.550129993803161
 51
62.18457705579781
  0
ARC
  5
10AF
  8
0
 10
65.259459526100002
 20
150.27774425659999
 30
0.0
 40
7.0000000000034417
 50
22.885510771600991
 51
36.550129993803161
  0
POLYLINE
  5
10B2
  8
0
 66
     1
 10
0.0
 20
0.0
 30
0.0
 70
   128
  0
VERTEX
  5
1374
  8
0
 10
51.998450501000008
 20
158.4999895366
 30
0.0
  0
VERTEX
  5
1375
  8
0
 10
57.009145043799997
 20
158.3403147505
 30
0.0
  0
VERTEX
  5
1376
  8
0
 10
62.0
 20
157.86711009539999
 30
0.0
  0
SEQEND
  5
1377
  8
0
  0
LINE
  5
10B7
  8
2
 10
108.0015622965
 20
158.5
 30
0.0
 11
89.500007364100014
 21
158.5
 31
0.0
  0
LINE
  5
10BB
  8
2
 10
89.499999999999986
 20
165.5
 30
0.0
 11
89.499999999999972
 21
154.91851310900279
 31
0.0
  0
LINE
  5
10D8
  8
2
 10
70.25
 20
159.10000000000011
 30
0.0
 11
53.75
 21
159.10000000000011
 31
0.0
  0
LINE
  5
10D9
  8
2
 10
66.149999999999991
 20
163.19999999999999
 30
0.0
 11
57.850000000000001
 21
163.19999999999999
 31
0.0
  0
LINE
  5
10E4
  8
2
 10
70.25
 20
158.5
 30
0.0
 11
70.25
 21
159.10000000000011
 31
0.0
  0
LINE
  5
10E5
  8
2
 10
53.75
 20
159.10000000000011
 30
0.0
 11
53.75
 21
158.5
 31
0.0
  0
LINE
  5
10E6
  8
2
 10
70.250000000100002
 20
159.10000000000011
 30
0.0
 11
66.149999999999991
 21
163.19999999999999
 31
0.0
  0
LINE
  5
10E7
  8
2
 10
57.850000000000001
 20
163.19999999999999
 30
0.0
 11
53.749999999900012
 21
159.10000000000011
 31
0.0
  0
LINE
  5
10E8
  8
2
 10
66.149999999999991
 20
163.19999999999999
 30
0.0
 11
66.149999999999991
 21
166.00293586890001
 31
0.0
  0
LINE
  5
10E9
  8
2
 10
57.850000000000001
 20
166.00293586890001
 30
0.0
 11
57.850000000000001
 21
163.19999999999999
 31
0.0
  0
LINE
  5
10EA
  8
0
 10
150.0
 20
63.900000000000041
 30
0.0
 11
150.0
 21
50.000000000000057
 31
0.0
  0
LINE
  5
10EB
  8
0
 10
150.0
 20
110.0
 30
0.0
 11
150.0
 21
96.10000000000008
 31
0.0
  0
LINE
  5
10EC
  8
0
 10
152.51763269809999
 20
64.000000000000057
 30
0.0
 11
152.49977888710001
 21
63.898746006400017
 31
0.0
  0
LINE
  5
10ED
  8
0
 10
152.49977888710001
 20
96.101253993599997
 30
0.0
 11
152.51763269809999
 21
96.000000000000057
 31
0.0
  0
LINE
  5
10EE
  8
0
 10
150.0
 20
96.000000000000057
 30
0.0
 11
150.0
 21
64.000000000000057
 31
0.0
  0
LINE
  5
10F2
  8
0
 10
168.5
 20
110.0
 30
0.0
 11
168.5
 21
50.000000000000057
 31
0.0
  0
LINE
  5
10F3
  8
0
 10
160.99999436379969
 20
110.0
 30
0.0
 11
160.99998900060001
 21
50.000000000000057
 31
0.0
  0
LINE
  5
10F8
  8
0
 10
160.9999892681999
 20
106.25
 30
0.0
 11
160.36711000790001
 21
106.25
 31
0.0
  0
ARC
  5
10F9
  8
0
 10
161.8735241004
 20
104.6034551843
 30
0.0
 40
2.2316794681216678
 50
132.45520983590151
 51
172.57816013630239
  0
LINE
  5
10FE
  8
0
 10
160.36711000790001
 20
53.750000000000057
 30
0.0
 11
160.9999892681999
 21
53.750000000000057
 31
0.0
  0
ARC
  5
1101
  8
0
 10
187.16474955309991
 20
92.763597441200034
 30
0.0
 40
30.059491563825009
 50
156.20465520469821
 51
168.2664107506971
  0
LINE
  5
1104
  8
0
 10
157.7333883474999
 20
98.876535413999974
 30
0.0
 11
157.41853528440001
 21
96.10000000000008
 31
0.0
  0
LINE
  5
1109
  8
0
 10
157.41853528440001
 20
63.900000000000041
 30
0.0
 11
157.7333883474999
 21
61.123464586000011
 31
0.0
  0
LINE
  5
110C
  8
0
 10
161.0
 20
96.10000000000008
 30
0.0
 11
149.99999999999989
 21
96.10000000000008
 31
0.0
  0
LINE
  5
110D
  8
0
 10
161.0
 20
63.900001296700047
 30
0.0
 11
149.99999999999989
 21
63.899997314055717
 31
0.0
  0
LINE
  5
110F
  8
0
 10
168.5
 20
50.000000000000057
 30
0.0
 11
150.0
 21
50.000000000000057
 31
0.0
  0
LINE
  5
1111
  8
0
 10
168.5
 20
110.0
 30
0.0
 11
150.0
 21
110.0
 31
0.0
  0
LINE
  5
1112
  8
0
 10
150.0
 20
64.000000000000057
 30
0.0
 11
161.0
 21
64.000000000000057
 31
0.0
  0
LINE
  5
1113
  8
0
 10
161.0
 20
96.000000000000057
 30
0.0
 11
150.0
 21
96.000000000000057
 31
0.0
  0
LINE
  5
1115
  8
1
 10
61.999999999999993
 20
155.5
 30
0.0
 11
61.999999999999993
 21
169.0
 31
0.0
  0
LINE
  5
1121
  8
2
 10
106.25
 20
159.10000000000011
 30
0.0
 11
89.750000000000014
 21
159.10000000000011
 31
0.0
  0
LINE
  5
1122
  8
2
 10
102.15000000000001
 20
163.19999999999999
 30
0.0
 11
93.850000000000009
 21
163.19999999999999
 31
0.0
  0
LINE
  5
1123
  8
2
 10
106.25
 20
158.5
 30
0.0
 11
106.25
 21
159.10000000000011
 31
0.0
  0
LINE
  5
1124
  8
2
 10
89.750000000000014
 20
159.10000000000011
 30
0.0
 11
89.750000000000014
 21
158.5
 31
0.0
  0
LINE
  5
1125
  8
2
 10
106.2500000001
 20
159.10000000000011
 30
0.0
 11
102.15000000000001
 21
163.19999999999999
 31
0.0
  0
LINE
  5
1126
  8
2
 10
93.850000000000009
 20
163.19999999999999
 30
0.0
 11
89.749999999900027
 21
159.10000000000011
 31
0.0
  0
LINE
  5
1127
  8
2
 10
102.15000000000001
 20
163.19999999999999
 30
0.0
 11
102.15000000000001
 21
166.00293586890001
 31
0.0
  0
LINE
  5
1128
  8
2
 10
93.850000000000009
 20
166.00293586890001
 30
0.0
 11
93.850000000000009
 21
163.19999999999999
 31
0.0
  0
LINE
  5
1129
  8
1
 10
98.0
 20
155.5
 30
0.0
 11
98.0
 21
169.0
 31
0.0
  0
LINE
  5
11C0
  8
1
 10
79.999999999999986
 20
168.0
 30
0.0
 11
79.999999999999986
 21
145.0
 31
0.0
  0
LINE
  5
11C1
  8
1
 10
68.499999999999986
 20
156.5
 30
0.0
 11
91.499999999999986
 21
156.5
 31
0.0
  0
LINE
  5
11C6
  8
1
 10
45.0
 20
80.000000000000057
 30
0.0
 11
115.0
 21
80.000000000000057
 31
0.0
  0
LINE
  5
11C7
  8
1
 10
145.0
 20
80.000000000000057
 30
0.0
 11
173.5
 21
80.000000000000057
 31
0.0
  0
LINE
  5
11CE
  8
1
 10
79.999999999999986
 20
45.000000000000107
 30
0.0
 11
79.999999999999986
 21
115.0
 31
0.0
  0
CIRCLE
  5
11CF
  8
0
 10
62.0
 20
62.000000000000057
 30
0.0
 40
8.25
  0
CIRCLE
  5
11D0
  8
0
 10
62.0
 20
98.000000000000057
 30
0.0
 40
8.25
  0
CIRCLE
  5
11D1
  8
0
 10
97.999999999999986
 20
98.000000000000057
 30
0.0
 40
8.25
  0
CIRCLE
  5
11D2
  8
0
 10
97.999999999999986
 20
62.000000000000057
 30
0.0
 40
8.25
  0
LINE
  5
11D5
  8
1
 10
50.75
 20
98.000000000000057
 30
0.0
 11
73.25
 21
98.000000000000057
 31
0.0
  0
LINE
  5
11D8
  8
1
 10
62.0
 20
86.750000000000057
 30
0.0
 11
62.0
 21
109.25
 31
0.0
  0
LINE
  5
11D9
  8
1
 10
86.749999999999986
 20
98.000000000000057
 30
0.0
 11
109.25
 21
98.000000000000057
 31
0.0
  0
LINE
  5
11DA
  8
1
 10
97.999999999999986
 20
86.750000000000057
 30
0.0
 11
97.999999999999986
 21
109.25
 31
0.0
  0
LINE
  5
11DB
  8
1
 10
86.749999999999986
 20
62.000000000000057
 30
0.0
 11
109.25
 21
62.000000000000057
 31
0.0
  0
LINE
  5
11DC
  8
1
 10
97.999999999999986
 20
50.750000000000057
 30
0.0
 11
97.999999999999986
 21
73.250000000000057
 31
0.0
  0
LINE
  5
11DD
  8
1
 10
50.75
 20
62.000000000000057
 30
0.0
 11
73.25
 21
62.000000000000057
 31
0.0
  0
LINE
  5
11DE
  8
1
 10
62.0
 20
50.750000000000057
 30
0.0
 11
62.0
 21
73.250000000000057
 31
0.0
  0
ARC
  5
122E
  8
0
 10
161.8735241004
 20
55.396544815700111
 30
0.0
 40
2.2316794681216678
 50
187.4218398636975
 51
227.54479016410289
  0
ARC
  5
122F
  8
0
 10
187.16474955309991
 20
67.23640255880008
 30
0.0
 40
30.059491563825009
 50
191.73358924930281
 51
203.79534479529499
  0
LINE
  5
1286
  8
2
 10
161.59999999999999
 20
89.750000000000057
 30
0.0
 11
161.59999999999999
 21
106.25
 31
0.0
  0
LINE
  5
1287
  8
2
 10
165.6999999999999
 20
93.849999999999966
 30
0.0
 11
165.6999999999999
 21
102.15000000000001
 31
0.0
  0
LINE
  5
1288
  8
2
 10
161.0
 20
89.750000000000057
 30
0.0
 11
161.59999999999999
 21
89.750000000000057
 31
0.0
  0
LINE
  5
1289
  8
2
 10
161.59999999999999
 20
106.25
 30
0.0
 11
161.0
 21
106.25
 31
0.0
  0
LINE
  5
128A
  8
2
 10
161.59999999999999
 20
89.749999999900027
 30
0.0
 11
165.6999999999999
 21
93.849999999999966
 31
0.0
  0
LINE
  5
128B
  8
2
 10
165.6999999999999
 20
102.15000000000001
 30
0.0
 11
161.59999999999999
 21
106.2500000001
 31
0.0
  0
LINE
  5
128C
  8
2
 10
165.6999999999999
 20
93.849999999999966
 30
0.0
 11
168.5029358688999
 21
93.849999999999966
 31
0.0
  0
LINE
  5
128D
  8
2
 10
168.5029358688999
 20
102.15000000000001
 30
0.0
 11
165.6999999999999
 21
102.15000000000001
 31
0.0
  0
LINE
  5
128E
  8
1
 10
158.0
 20
98.000000000000057
 30
0.0
 11
171.5
 21
98.000000000000057
 31
0.0
  0
LINE
  5
128F
  8
2
 10
161.59999999999999
 20
53.750000000000057
 30
0.0
 11
161.59999999999999
 21
70.250000000000057
 31
0.0
  0
LINE
  5
1290
  8
2
 10
165.6999999999999
 20
57.849999999999959
 30
0.0
 11
165.6999999999999
 21
66.150000000000034
 31
0.0
  0
LINE
  5
1291
  8
2
 10
161.0
 20
53.750000000000057
 30
0.0
 11
161.59999999999999
 21
53.750000000000057
 31
0.0
  0
LINE
  5
1292
  8
2
 10
161.59999999999999
 20
70.250000000000057
 30
0.0
 11
161.0
 21
70.250000000000057
 31
0.0
  0
LINE
  5
1293
  8
2
 10
161.59999999999999
 20
53.749999999900012
 30
0.0
 11
165.6999999999999
 21
57.849999999999959
 31
0.0
  0
LINE
  5
1294
  8
2
 10
165.6999999999999
 20
66.150000000000034
 30
0.0
 11
161.59999999999999
 21
70.250000000099988
 31
0.0
  0
LINE
  5
1295
  8
2
 10
165.6999999999999
 20
57.849999999999959
 30
0.0
 11
168.5029358688999
 21
57.849999999999959
 31
0.0
  0
LINE
  5
1296
  8
2
 10
168.5029358688999
 20
66.150000000000034
 30
0.0
 11
165.6999999999999
 21
66.150000000000034
 31
0.0
  0
LINE
  5
1297
  8
1
 10
158.0
 20
62.000000000000057
 30
0.0
 11
171.5
 21
62.000000000000057
 31
0.0
  0
ENDSEC
  0
EOF
