  0
SECTION
  2
HEADER
  9
$ACADVER
  1
AC1009
  9
$INSBASE
 10
0.0
 20
0.0
 30
0.0
  9
$EXTMIN
 10
0.0
 20
-2.960436562073669
 30
0.0
  9
$EXTMAX
 10
130.3213287694939
 20
112.1344276219918
 30
0.0
  9
$LIMMIN
 10
0.0
 20
0.0
  9
$LIMMAX
 10
187.5
 20
135.0
  9
$ORTHOMODE
 70
     1
  9
$REGENMODE
 70
     1
  9
$FILLMODE
 70
     1
  9
$QTEXTMODE
 70
     0
  9
$MIRRTEXT
 70
     0
  9
$DRAGMODE
 70
     2
  9
$LTSCALE
 40
5.0
  9
$OSMODE
 70
    55
  9
$ATTMODE
 70
     1
  9
$TEXTSIZE
 40
4.000000000000048
  9
$TRACEWID
 40
0.05
  9
$TEXTSTYLE
  7
STANDARD
  9
$CLAYER
  8
0
  9
$CELTYPE
  6
BYLAYER
  9
$CECOLOR
 62
   256
  9
$DIMSCALE
 40
0.5
  9
$DIMASZ
 40
3.0
  9
$DIMEXO
 40
2.0
  9
$DIMDLI
 40
0.38
  9
$DIMRND
 40
0.0
  9
$DIMDLE
 40
0.0
  9
$DIMEXE
 40
2.0
  9
$DIMTP
 40
0.0
  9
$DIMTM
 40
0.0
  9
$DIMTXT
 40
3.2000000000000002
  9
$DIMCEN
 40
0.09
  9
$DIMTSZ
 40
0.0
  9
$DIMTOL
 70
     0
  9
$DIMLIM
 70
     0
  9
$DIMTIH
 70
     0
  9
$DIMTOH
 70
     0
  9
$DIMSE1
 70
     0
  9
$DIMSE2
 70
     0
  9
$DIMTAD
 70
     1
  9
$DIMZIN
 70
     0
  9
$DIMBLK
  1

  9
$DIMASO
 70
     1
  9
$DIMSHO
 70
     0
  9
$DIMPOST
  1

  9
$DIMAPOST
  1

  9
$DIMALT
 70
     0
  9
$DIMALTD
 70
     2
  9
$DIMALTF
 40
25.399999999999999
  9
$DIMLFAC
 40
1.0
  9
$DIMTOFL
 70
     0
  9
$DIMTVP
 40
1.6000000000000001
  9
$DIMTIX
 70
     1
  9
$DIMSOXD
 70
     0
  9
$DIMSAH
 70
     0
  9
$DIMBLK1
  1

  9
$DIMBLK2
  1

  9
$DIMSTYLE
  2
STANDARD
  9
$DIMCLRD
 70
     0
  9
$DIMCLRE
 70
     0
  9
$DIMCLRT
 70
     0
  9
$DIMTFAC
 40
1.0
  9
$DIMGAP
 40
0.09
  9
$LUNITS
 70
     2
  9
$LUPREC
 70
     4
  9
$SKETCHINC
 40
0.1
  9
$FILLETRAD
 40
1.8999999999999999
  9
$AUNITS
 70
     0
  9
$AUPREC
 70
     0
  9
$MENU
  1
E:\r13\win\SUPPORT\ACAD
  9
$ELEVATION
 40
0.0
  9
$PELEVATION
 40
0.0
  9
$THICKNESS
 40
0.0
  9
$LIMCHECK
 70
     0
  9
$BLIPMODE
 70
     0
  9
$CHAMFERA
 40
0.0
  9
$CHAMFERB
 40
0.0
  9
$SKPOLY
 70
     0
  9
$TDCREATE
 40
2449839.7834490738
  9
$TDUPDATE
 40
2456598.6771012498
  9
$TDINDWG
 40
0.1371625347
  9
$TDUSRTIMER
 40
0.1371625347
  9
$USRTIMER
 70
     1
  9
$ANGBASE
 50
0.0
  9
$ANGDIR
 70
     0
  9
$PDMODE
 70
     0
  9
$PDSIZE
 40
0.0
  9
$PLINEWID
 40
0.0
  9
$COORDS
 70
     1
  9
$SPLFRAME
 70
     0
  9
$SPLINETYPE
 70
     6
  9
$SPLINESEGS
 70
     8
  9
$ATTDIA
 70
     0
  9
$ATTREQ
 70
     1
  9
$HANDLING
 70
     1
  9
$HANDSEED
  5
BD6
  9
$SURFTAB1
 70
     6
  9
$SURFTAB2
 70
     6
  9
$SURFTYPE
 70
     6
  9
$SURFU
 70
     6
  9
$SURFV
 70
     6
  9
$UCSNAME
  2

  9
$UCSORG
 10
0.0
 20
0.0
 30
0.0
  9
$UCSXDIR
 10
1.0
 20
0.0
 30
0.0
  9
$UCSYDIR
 10
0.0
 20
1.0
 30
0.0
  9
$PUCSNAME
  2

  9
$PUCSORG
 10
0.0
 20
0.0
 30
0.0
  9
$PUCSXDIR
 10
1.0
 20
0.0
 30
0.0
  9
$PUCSYDIR
 10
0.0
 20
1.0
 30
0.0
  9
$USERI1
 70
     0
  9
$USERI2
 70
     1
  9
$USERI3
 70
     1
  9
$USERI4
 70
     0
  9
$USERI5
 70
     0
  9
$USERR1
 40
0.0
  9
$USERR2
 40
0.0
  9
$USERR3
 40
0.0
  9
$USERR4
 40
0.0
  9
$USERR5
 40
0.0
  9
$WORLDVIEW
 70
     1
  9
$SHADEDGE
 70
     3
  9
$SHADEDIF
 70
    70
  9
$TILEMODE
 70
     1
  9
$MAXACTVP
 70
    16
  9
$PLIMCHECK
 70
     0
  9
$PEXTMIN
 10
1.0000000000000000E+020
 20
1.0000000000000000E+020
 30
1.0000000000000000E+020
  9
$PEXTMAX
 10
-1.0000000000000000E+020
 20
-1.0000000000000000E+020
 30
-1.0000000000000000E+020
  9
$PLIMMIN
 10
0.0
 20
0.0
  9
$PLIMMAX
 10
12.0
 20
9.0
  9
$UNITMODE
 70
     0
  9
$VISRETAIN
 70
     0
  9
$PLINEGEN
 70
     0
  9
$PSLTSCALE
 70
     0
  0
ENDSEC
  0
SECTION
  2
TABLES
  0
TABLE
  2
VPORT
 70
     1
  0
VPORT
  2
*ACTIVE
 70
     0
 10
0.0
 20
0.0
 11
1.0
 21
1.0
 12
93.74713919532617
 22
86.941769983850563
 13
0.0
 23
0.0
 14
5.0
 24
5.0
 15
5.0
 25
5.0
 16
0.0
 26
0.0
 36
1.0
 17
0.0
 27
0.0
 37
0.0
 40
181.41026326986619
 41
1.7807262569832401
 42
50.0
 43
0.0
 44
0.0
 50
0.0
 51
0.0
 71
     0
 72
   500
 73
     1
 74
     0
 75
     0
 76
     0
 77
     0
 78
     2
  0
ENDTAB
  0
TABLE
  2
LTYPE
 70
     4
  0
LTYPE
  2
CONTINUOUS
 70
     0
  3
Solid Line
 72
    65
 73
     0
 40
0.0
  0
LTYPE
  2
CENTER
 70
     0
  3
____ _ ____ _ ____ _ ____ _ ____ _ ____ _ ____
 72
    65
 73
     4
 40
2.0
 49
1.25
 49
-0.25
 49
0.25
 49
-0.25
  0
LTYPE
  2
HIDDEN
 70
     0
  3
_ _ _ _ _ _ _ _ _ _ _ _ _ _ _ _ _ _ _ _ _ _ _
 72
    65
 73
     2
 40
0.375
 49
0.25
 49
-0.125
  0
LTYPE
  2
PHANTOM2
 70
     0
  3
___ _ _ ___ _ _ ___ _ _ ___ _ _
 72
    65
 73
     6
 40
1.25
 49
0.625
 49
-0.125
 49
0.125
 49
-0.125
 49
0.125
 49
-0.125
  0
ENDTAB
  0
TABLE
  2
LAYER
 70
     4
  0
LAYER
  2
0
 70
     0
 62
     7
  6
CONTINUOUS
  0
LAYER
  2
1
 70
     0
 62
     1
  6
CENTER
  0
LAYER
  2
3
 70
     0
 62
     3
  6
CONTINUOUS
  0
LAYER
  2
2
 70
     0
 62
     2
  6
HIDDEN
  0
ENDTAB
  0
TABLE
  2
STYLE
 70
     2
  0
STYLE
  2
STANDARD
 70
     0
 40
0.0
 41
1.0
 50
0.0
 71
     0
 42
4.000000000000048
  3
TXT
  4
BIGFONT
  0
STYLE
  2
STANDARD1
 70
     0
 40
0.0
 41
1.0
 50
0.0
 71
     0
 42
3.0
  3
txt
  4

  0
ENDTAB
  0
TABLE
  2
VIEW
 70
     1
  0
VIEW
  2
ALL
 70
     0
 40
135.0
 10
110.4957983193277
 20
67.5
 41
0.0
 11
0.0
 21
0.0
 31
1.0
 12
0.0
 22
0.0
 32
0.0
 42
0.0
 43
0.0
 44
0.0
 50
0.0
 71
     0
  0
ENDTAB
  0
TABLE
  2
UCS
 70
     0
  0
ENDTAB
  0
TABLE
  2
APPID
 70
     3
  0
APPID
  2
ACAD
 70
     0
  0
APPID
  2
ACAD_MLEADERVER
 70
     0
  0
APPID
  2
ACAD_NAV_VCDISPLAY
 70
     0
  0
ENDTAB
  0
TABLE
  2
DIMSTYLE
 70
     1
  0
DIMSTYLE
  2
STANDARD
 70
     0
  3

  4

  5

  6

  7

 40
1.0
 41
0.18
 42
0.0625
 43
0.38
 44
0.18
 45
0.0
 46
0.0
 47
0.0
 48
0.0
140
0.18
141
0.09
142
0.0
143
25.399999999999999
144
1.0
145
0.0
146
1.0
147
0.09
 71
     0
 72
     0
 73
     1
 74
     1
 75
     0
 76
     0
 77
     0
 78
     0
170
     0
171
     2
172
     0
173
     0
174
     0
175
     0
176
     0
177
     0
178
     0
  0
ENDTAB
  0
ENDSEC
  0
SECTION
  2
BLOCKS
  0
BLOCK
  8
0
  2
$MODEL_SPACE
 70
     0
 10
0.0
 20
0.0
 30
0.0
  3
$MODEL_SPACE
  1

  0
ENDBLK
  5
3DB
  8
0
  0
BLOCK
 67
     1
  8
0
  2
$PAPER_SPACE
 70
     0
 10
0.0
 20
0.0
 30
0.0
  3
$PAPER_SPACE
  1

  0
ENDBLK
  5
3D9
 67
     1
  8
0
  0
ENDSEC
  0
SECTION
  2
ENTITIES
  0
LINE
  5
7A5
  8
2
 10
78.1641023557642
 20
30.134427621991879
 30
0.0
 11
78.1641023557642
 21
31.134427621991879
 31
0.0
  0
LINE
  5
7A6
  8
2
 10
78.1641023557642
 20
31.134427621991879
 30
0.0
 11
76.1641023557642
 21
31.134427621991879
 31
0.0
  0
LINE
  5
7A7
  8
2
 10
76.1641023557642
 20
31.134427621991879
 30
0.0
 11
76.1641023557642
 21
30.134427621991879
 31
0.0
  0
LINE
  5
7A8
  8
2
 10
76.1641023557642
 20
30.134427621991879
 30
0.0
 11
73.6641023557642
 21
30.134427621991879
 31
0.0
  0
LINE
  5
7A9
  8
2
 10
72.1641023557642
 20
31.134427621991879
 30
0.0
 11
72.6641023557642
 21
31.134427621991879
 31
0.0
  0
LINE
  5
7AA
  8
2
 10
73.6641023557642
 20
30.134427621991879
 30
0.0
 11
72.6641023557642
 21
31.134427621991879
 31
0.0
  0
LINE
  5
7AB
  8
2
 10
73.093506355764205
 20
32.063831621991881
 30
0.0
 11
72.6641023557642
 21
31.634427621991879
 31
0.0
  0
LINE
  5
7AC
  8
2
 10
72.6641023557642
 20
31.134427621991879
 30
0.0
 11
72.6641023557642
 21
37.134427621991883
 31
0.0
  0
LINE
  5
7AD
  8
2
 10
73.093506355764205
 20
36.205022621991873
 30
0.0
 11
73.093506355764205
 21
32.063831621991881
 31
0.0
  0
LINE
  5
7AE
  8
2
 10
72.1641023557642
 20
37.134427621991883
 30
0.0
 11
72.6641023557642
 21
37.134427621991883
 31
0.0
  0
LINE
  5
7AF
  8
2
 10
72.6641023557642
 20
36.634427621991883
 30
0.0
 11
73.093506355764205
 21
36.205022621991873
 31
0.0
  0
LINE
  5
7B0
  8
2
 10
73.6641023557642
 20
38.134427621991868
 30
0.0
 11
72.6641023557642
 21
37.134427621991883
 31
0.0
  0
LINE
  5
7B1
  8
2
 10
76.1641023557642
 20
38.134427621991868
 30
0.0
 11
73.6641023557642
 21
38.134427621991868
 31
0.0
  0
LINE
  5
7B2
  8
2
 10
76.1641023557642
 20
37.134427621991883
 30
0.0
 11
76.1641023557642
 21
38.134427621991868
 31
0.0
  0
LINE
  5
7B3
  8
2
 10
78.1641023557642
 20
37.134427621991883
 30
0.0
 11
76.1641023557642
 21
37.134427621991883
 31
0.0
  0
LINE
  5
7B4
  8
2
 10
78.1641023557642
 20
38.134427621991868
 30
0.0
 11
78.1641023557642
 21
37.134427621991883
 31
0.0
  0
LINE
  5
7B5
  8
2
 10
81.1641023557642
 20
38.134427621991868
 30
0.0
 11
78.1641023557642
 21
38.134427621991868
 31
0.0
  0
LINE
  5
7B6
  8
2
 10
81.1641023557642
 20
37.134427621991883
 30
0.0
 11
81.1641023557642
 21
38.134427621991868
 31
0.0
  0
LINE
  5
7B7
  8
2
 10
82.664102355764214
 20
36.634427621991883
 30
0.0
 11
82.234697355764197
 21
36.20502362199187
 31
0.0
  0
LINE
  5
7B8
  8
2
 10
82.664102355764214
 20
36.634427621991883
 30
0.0
 11
72.6641023557642
 21
36.634427621991883
 31
0.0
  0
LINE
  5
7B9
  8
2
 10
82.234697355764197
 20
36.20502362199187
 30
0.0
 11
73.093506355764205
 21
36.205022621991873
 31
0.0
  0
LINE
  5
7BA
  8
2
 10
82.364102355764189
 20
37.134427621991883
 30
0.0
 11
81.1641023557642
 21
37.134427621991883
 31
0.0
  0
LINE
  5
7BB
  8
2
 10
82.234697355764197
 20
36.20502362199187
 30
0.0
 11
82.234697355764197
 21
32.063831621991881
 31
0.0
  0
LINE
  5
7BC
  8
2
 10
82.234697355764197
 20
32.063831621991881
 30
0.0
 11
82.664102355764214
 21
31.634427621991879
 31
0.0
  0
LINE
  5
7BD
  8
2
 10
82.664102355764214
 20
31.634427621991879
 30
0.0
 11
72.6641023557642
 21
31.634427621991879
 31
0.0
  0
LINE
  5
7BE
  8
2
 10
82.234697355764197
 20
32.063831621991881
 30
0.0
 11
73.093506355764205
 21
32.063831621991881
 31
0.0
  0
LINE
  5
7BF
  8
2
 10
82.364102355764189
 20
31.134427621991879
 30
0.0
 11
81.1641023557642
 21
31.134427621991879
 31
0.0
  0
LINE
  5
7C0
  8
2
 10
81.1641023557642
 20
30.134427621991879
 30
0.0
 11
78.1641023557642
 21
30.134427621991879
 31
0.0
  0
LINE
  5
7C1
  8
2
 10
81.1641023557642
 20
31.134427621991879
 30
0.0
 11
81.1641023557642
 21
30.134427621991879
 31
0.0
  0
LINE
  5
7C2
  8
2
 10
76.164102355764186
 20
107.1344276219919
 30
0.0
 11
76.164102355764186
 21
108.1344276219919
 31
0.0
  0
LINE
  5
7C3
  8
2
 10
82.364102355764189
 20
107.1344276219919
 30
0.0
 11
81.164102355764186
 21
107.1344276219919
 31
0.0
  0
LINE
  5
7C4
  8
2
 10
81.164102355764186
 20
107.1344276219919
 30
0.0
 11
81.164102355764186
 21
108.1344276219919
 31
0.0
  0
LINE
  5
7C5
  8
2
 10
78.164102355764186
 20
108.1344276219919
 30
0.0
 11
78.164102355764186
 21
107.1344276219919
 31
0.0
  0
LINE
  5
7C6
  8
2
 10
78.164102355764186
 20
107.1344276219919
 30
0.0
 11
76.164102355764186
 21
107.1344276219919
 31
0.0
  0
LINE
  5
7C7
  8
2
 10
81.164102355764186
 20
108.1344276219919
 30
0.0
 11
78.164102355764186
 21
108.1344276219919
 31
0.0
  0
LINE
  5
7C8
  8
2
 10
76.164102355764186
 20
108.1344276219919
 30
0.0
 11
73.664102355764186
 21
108.1344276219919
 31
0.0
  0
LINE
  5
7C9
  8
2
 10
72.164102355764186
 20
101.1344276219919
 30
0.0
 11
72.664102355764186
 21
101.1344276219919
 31
0.0
  0
LINE
  5
7CA
  8
2
 10
72.664102355764186
 20
101.1344276219919
 30
0.0
 11
72.664102355764186
 21
107.1344276219919
 31
0.0
  0
LINE
  5
7CB
  8
2
 10
73.664102355764186
 20
108.1344276219919
 30
0.0
 11
72.664102355764186
 21
107.1344276219919
 31
0.0
  0
LINE
  5
7CC
  8
2
 10
82.664102355764186
 20
106.6344276219919
 30
0.0
 11
72.664102355764186
 21
106.6344276219919
 31
0.0
  0
LINE
  5
7CD
  8
2
 10
82.234697355764183
 20
106.2050236219919
 30
0.0
 11
73.093506355764191
 21
106.2050226219919
 31
0.0
  0
LINE
  5
7CE
  8
2
 10
72.164102355764186
 20
107.1344276219919
 30
0.0
 11
72.664102355764186
 21
107.1344276219919
 31
0.0
  0
LINE
  5
7CF
  8
2
 10
72.664102355764186
 20
106.6344276219919
 30
0.0
 11
73.093506355764191
 21
106.2050226219919
 31
0.0
  0
LINE
  5
7D0
  8
2
 10
76.164102355764186
 20
100.1344276219919
 30
0.0
 11
73.664102355764186
 21
100.1344276219919
 31
0.0
  0
LINE
  5
7D1
  8
2
 10
73.664102355764186
 20
100.1344276219919
 30
0.0
 11
72.664102355764186
 21
101.1344276219919
 31
0.0
  0
LINE
  5
7D2
  8
2
 10
76.164102355764186
 20
101.1344276219919
 30
0.0
 11
76.164102355764186
 21
100.1344276219919
 31
0.0
  0
LINE
  5
7D3
  8
2
 10
73.093506355764191
 20
106.2050226219919
 30
0.0
 11
73.093506355764191
 21
102.06383162199189
 31
0.0
  0
LINE
  5
7D4
  8
2
 10
73.093506355764191
 20
102.06383162199189
 30
0.0
 11
72.664102355764186
 21
101.6344276219919
 31
0.0
  0
LINE
  5
7D5
  8
2
 10
78.164102355764186
 20
101.1344276219919
 30
0.0
 11
76.164102355764186
 21
101.1344276219919
 31
0.0
  0
LINE
  5
7D6
  8
2
 10
78.164102355764186
 20
100.1344276219919
 30
0.0
 11
78.164102355764186
 21
101.1344276219919
 31
0.0
  0
LINE
  5
7D7
  8
2
 10
81.164102355764186
 20
100.1344276219919
 30
0.0
 11
78.164102355764186
 21
100.1344276219919
 31
0.0
  0
LINE
  5
7D8
  8
2
 10
81.164102355764186
 20
101.1344276219919
 30
0.0
 11
81.164102355764186
 21
100.1344276219919
 31
0.0
  0
LINE
  5
7D9
  8
2
 10
82.234697355764183
 20
102.06383162199189
 30
0.0
 11
82.664102355764186
 21
101.6344276219919
 31
0.0
  0
LINE
  5
7DA
  8
2
 10
82.234697355764183
 20
106.2050236219919
 30
0.0
 11
82.234697355764183
 21
102.06383162199189
 31
0.0
  0
LINE
  5
7DB
  8
2
 10
82.664102355764186
 20
101.6344276219919
 30
0.0
 11
72.664102355764186
 21
101.6344276219919
 31
0.0
  0
LINE
  5
7DC
  8
2
 10
82.234697355764183
 20
102.06383162199189
 30
0.0
 11
73.093506355764191
 21
102.06383162199189
 31
0.0
  0
LINE
  5
7DD
  8
2
 10
82.364102355764189
 20
101.1344276219919
 30
0.0
 11
81.164102355764186
 21
101.1344276219919
 31
0.0
  0
CIRCLE
  5
7DE
  8
0
 10
29.821328769493949
 20
69.134427621991804
 30
0.0
 40
3.000000000000099
  0
CIRCLE
  5
7DF
  8
3
 10
29.82132876949381
 20
69.134427621991804
 30
0.0
 40
2.5
  0
CIRCLE
  5
7E0
  8
0
 10
29.82132876949381
 20
69.134427621991804
 30
0.0
 40
2.0669999999999988
  0
CIRCLE
  5
7E1
  8
3
 10
119.8213287694938
 20
69.134427621991804
 30
0.0
 40
2.5
  0
CIRCLE
  5
7E2
  8
0
 10
119.8213287694938
 20
69.134427621991804
 30
0.0
 40
2.0669999999999988
  0
LINE
  5
7E3
  8
2
 10
82.664102355764186
 20
71.634427621991918
 30
0.0
 11
82.234697355764183
 21
71.205023621991913
 31
0.0
  0
LINE
  5
7E4
  8
2
 10
82.364102355764189
 20
72.134427621991918
 30
0.0
 11
81.164102355764186
 21
72.134427621991918
 31
0.0
  0
LINE
  5
7E5
  8
2
 10
81.164102355764186
 20
72.134427621991918
 30
0.0
 11
81.164102355764186
 21
73.134427621991904
 31
0.0
  0
LINE
  5
7E6
  8
2
 10
76.164102355764186
 20
72.134427621991918
 30
0.0
 11
76.164102355764186
 21
73.134427621991904
 31
0.0
  0
LINE
  5
7E7
  8
2
 10
81.164102355764186
 20
73.134427621991904
 30
0.0
 11
78.164102355764186
 21
73.134427621991904
 31
0.0
  0
LINE
  5
7E8
  8
2
 10
78.164102355764186
 20
72.134427621991918
 30
0.0
 11
76.164102355764186
 21
72.134427621991918
 31
0.0
  0
LINE
  5
7E9
  8
2
 10
78.164102355764186
 20
73.134427621991904
 30
0.0
 11
78.164102355764186
 21
72.134427621991918
 31
0.0
  0
LINE
  5
7EA
  8
2
 10
76.164102355764186
 20
73.134427621991904
 30
0.0
 11
73.664102355764186
 21
73.134427621991904
 31
0.0
  0
LINE
  5
7EB
  8
2
 10
72.664102355764186
 20
71.634427621991918
 30
0.0
 11
73.093506355764191
 21
71.205022621991915
 31
0.0
  0
LINE
  5
7EC
  8
2
 10
72.164102355764186
 20
72.134427621991918
 30
0.0
 11
72.664102355764186
 21
72.134427621991918
 31
0.0
  0
LINE
  5
7ED
  8
2
 10
82.234697355764183
 20
71.205023621991913
 30
0.0
 11
73.093506355764191
 21
71.205022621991915
 31
0.0
  0
LINE
  5
7EE
  8
2
 10
82.664102355764186
 20
71.634427621991918
 30
0.0
 11
72.664102355764186
 21
71.634427621991918
 31
0.0
  0
LINE
  5
7EF
  8
2
 10
73.664102355764186
 20
73.134427621991904
 30
0.0
 11
72.664102355764186
 21
72.134427621991918
 31
0.0
  0
LINE
  5
7F0
  8
2
 10
76.164102355764186
 20
65.134427621991918
 30
0.0
 11
73.664102355764186
 21
65.134427621991918
 31
0.0
  0
LINE
  5
7F1
  8
2
 10
73.664102355764186
 20
65.134427621991918
 30
0.0
 11
72.664102355764186
 21
66.134427621991904
 31
0.0
  0
LINE
  5
7F2
  8
2
 10
73.093506355764191
 20
67.063831621991923
 30
0.0
 11
72.664102355764186
 21
66.634427621991918
 31
0.0
  0
LINE
  5
7F3
  8
2
 10
72.164102355764186
 20
66.134427621991904
 30
0.0
 11
72.664102355764186
 21
66.134427621991904
 31
0.0
  0
LINE
  5
7F4
  8
2
 10
73.093506355764191
 20
71.205022621991915
 30
0.0
 11
73.093506355764191
 21
67.063831621991923
 31
0.0
  0
LINE
  5
7F5
  8
2
 10
72.664102355764186
 20
66.134427621991904
 30
0.0
 11
72.664102355764186
 21
72.134427621991918
 31
0.0
  0
LINE
  5
7F6
  8
2
 10
76.164102355764186
 20
66.134427621991904
 30
0.0
 11
76.164102355764186
 21
65.134427621991918
 31
0.0
  0
LINE
  5
7F7
  8
2
 10
81.164102355764186
 20
66.134427621991904
 30
0.0
 11
81.164102355764186
 21
65.134427621991918
 31
0.0
  0
LINE
  5
7F8
  8
2
 10
81.164102355764186
 20
65.134427621991918
 30
0.0
 11
78.164102355764186
 21
65.134427621991918
 31
0.0
  0
LINE
  5
7F9
  8
2
 10
78.164102355764186
 20
65.134427621991918
 30
0.0
 11
78.164102355764186
 21
66.134427621991904
 31
0.0
  0
LINE
  5
7FA
  8
2
 10
78.164102355764186
 20
66.134427621991904
 30
0.0
 11
76.164102355764186
 21
66.134427621991904
 31
0.0
  0
LINE
  5
7FB
  8
2
 10
82.234697355764183
 20
67.063831621991923
 30
0.0
 11
82.664102355764186
 21
66.634427621991918
 31
0.0
  0
LINE
  5
7FC
  8
2
 10
82.234697355764183
 20
71.205023621991913
 30
0.0
 11
82.234697355764183
 21
67.063831621991923
 31
0.0
  0
LINE
  5
7FD
  8
2
 10
82.364102355764189
 20
66.134427621991904
 30
0.0
 11
81.164102355764186
 21
66.134427621991904
 31
0.0
  0
LINE
  5
7FE
  8
2
 10
82.234697355764183
 20
67.063831621991923
 30
0.0
 11
73.093506355764191
 21
67.063831621991923
 31
0.0
  0
LINE
  5
7FF
  8
2
 10
82.664102355764186
 20
66.634427621991918
 30
0.0
 11
72.664102355764186
 21
66.634427621991918
 31
0.0
  0
LINE
  5
800
  8
1
 10
29.821328769493949
 20
58.634427621991819
 30
0.0
 11
29.821328769493949
 21
79.634427621991819
 31
0.0
  0
LINE
  5
801
  8
1
 10
19.321328769493789
 20
69.134427621991804
 30
0.0
 11
40.321328769493959
 21
69.134427621991804
 31
0.0
  0
LINE
  5
802
  8
1
 10
85.164102355764186
 20
69.134427621991861
 30
0.0
 11
67.164102355764143
 21
69.134427621991861
 31
0.0
  0
CIRCLE
  5
803
  8
0
 10
29.821328769493959
 20
69.134427621991804
 30
0.0
 40
8.0
  0
LINE
  5
804
  8
0
 10
69.664102355764101
 20
61.884427621991847
 30
0.0
 11
69.664102355764143
 21
76.384427621991847
 31
0.0
  0
LINE
  5
805
  8
0
 10
76.364102355764103
 20
77.134427621991833
 30
0.0
 11
76.914102355764157
 21
77.134427621991847
 31
0.0
  0
LINE
  5
806
  8
0
 10
77.664102355764143
 20
76.384427621991847
 30
0.0
 11
77.664102355764143
 21
61.884427621991833
 31
0.0
  0
LINE
  5
807
  8
0
 10
77.664102355764143
 20
74.634427621991847
 30
0.0
 11
81.614102355764132
 21
74.634427621991833
 31
0.0
  0
LINE
  5
808
  8
0
 10
82.364102355764118
 20
73.884427621991833
 30
0.0
 11
82.364102355764189
 21
64.38442762199189
 31
0.0
  0
LINE
  5
809
  8
0
 10
82.36410235576416
 20
72.134427621991847
 30
0.0
 11
82.664102355764172
 21
72.134427621991847
 31
0.0
  0
LINE
  5
80A
  8
0
 10
82.664102355764172
 20
72.134427621991847
 30
0.0
 11
82.664102355764214
 21
66.134427621991975
 31
0.0
  0
LINE
  5
80B
  8
0
 10
77.664102355764143
 20
63.634427621991847
 30
0.0
 11
81.614102355764174
 21
63.634427621991847
 31
0.0
  0
LINE
  5
80C
  8
0
 10
69.664102355764143
 20
76.384427621991847
 30
0.0
 11
70.164102355771064
 21
76.884427621998739
 31
0.0
  0
LINE
  5
80D
  8
0
 10
77.664102355764143
 20
76.384427621991847
 30
0.0
 11
76.914102355764157
 21
77.134427621991847
 31
0.0
  0
LINE
  5
80E
  8
0
 10
82.364102355764118
 20
73.884427621991833
 30
0.0
 11
81.614102355764132
 21
74.634427621991833
 31
0.0
  0
LINE
  5
80F
  8
0
 10
81.614102355764174
 20
63.634427621991847
 30
0.0
 11
82.36410235576416
 21
64.384427621991847
 31
0.0
  0
LINE
  5
810
  8
0
 10
76.914102355764186
 20
61.134427621991847
 30
0.0
 11
77.664102355764186
 21
61.884427621991847
 31
0.0
  0
LINE
  5
811
  8
0
 10
76.914102355764115
 20
77.134427621991847
 30
0.0
 11
76.914102355764115
 21
61.134427621991797
 31
0.0
  0
LINE
  5
812
  8
0
 10
81.614102355764132
 20
74.634427621991833
 30
0.0
 11
81.614102355764132
 21
63.634427621991847
 31
0.0
  0
CIRCLE
  5
813
  8
0
 10
29.821328769493959
 20
69.134427621991804
 30
0.0
 40
6.0
  0
ARC
  5
814
  8
0
 10
20.94632876949365
 20
69.134427621991804
 30
0.0
 40
1.149999999999999
 50
322.0130205273594
 51
37.986979472640613
  0
ARC
  5
815
  8
0
 10
22.135353310906801
 20
64.696927621991648
 30
0.0
 40
1.149999999999999
 50
352.0130205273594
 51
67.986979472640627
  0
ARC
  5
816
  8
0
 10
25.383828769493789
 20
61.44845216340466
 30
0.0
 40
1.149999999999999
 50
22.013020527359352
 51
97.986979472640584
  0
ARC
  5
817
  8
0
 10
29.821328769493949
 20
60.259427621991513
 30
0.0
 40
1.149999999999999
 50
52.013020527359359
 51
127.9869794726406
  0
ARC
  5
818
  8
0
 10
34.258828769494123
 20
61.44845216340466
 30
0.0
 40
1.149999999999999
 50
82.01302052735933
 51
157.9869794726406
  0
ARC
  5
819
  8
0
 10
37.507304228081111
 20
64.69692762199162
 30
0.0
 40
1.149999999999999
 50
112.0130205273593
 51
187.9869794726406
  0
ARC
  5
81A
  8
0
 10
38.696328769494272
 20
69.134427621991804
 30
0.0
 40
1.149999999999999
 50
142.0130205273594
 51
217.9869794726406
  0
ARC
  5
81B
  8
0
 10
37.507304228081139
 20
73.571927621991961
 30
0.0
 40
1.149999999999999
 50
172.01302052735929
 51
247.9869794726406
  0
ARC
  5
81C
  8
0
 10
34.258828769494137
 20
76.820403080578984
 30
0.0
 40
1.149999999999999
 50
202.0130205273594
 51
277.98697947264071
  0
ARC
  5
81D
  8
0
 10
29.821328769493991
 20
78.009427621992131
 30
0.0
 40
1.149999999999999
 50
232.0130205273594
 51
307.9869794726406
  0
ARC
  5
81E
  8
0
 10
25.383828769493821
 20
76.820403080578984
 30
0.0
 40
1.149999999999999
 50
262.01302052735929
 51
337.9869794726406
  0
ARC
  5
81F
  8
0
 10
22.135353310906801
 20
73.571927621991961
 30
0.0
 40
1.149999999999999
 50
292.0130205273594
 51
7.9869794726406402
  0
CIRCLE
  5
820
  8
0
 10
29.821328769493959
 20
69.134427621991804
 30
0.0
 40
7.25
  0
LINE
  5
821
  8
0
 10
82.364102355764146
 20
66.134427621991961
 30
0.0
 11
82.664102355764214
 21
66.134427621991975
 31
0.0
  0
LINE
  5
822
  8
0
 10
70.414102355764157
 20
69.842232362603681
 30
0.0
 11
76.114103523771519
 21
69.842232362603696
 31
0.0
  0
LINE
  5
823
  8
0
 10
70.414102355764157
 20
72.505764115984547
 30
0.0
 11
76.136962393263474
 21
72.505764115984547
 31
0.0
  0
LINE
  5
824
  8
0
 10
70.414102355764157
 20
73.731717888562457
 30
0.0
 11
76.114102355763805
 21
73.731717888562443
 31
0.0
  0
LINE
  5
825
  8
0
 10
70.414102355764157
 20
75.681558459610287
 30
0.0
 11
76.148947925734873
 21
75.681558459610272
 31
0.0
  0
LINE
  5
826
  8
0
 10
70.414102355764157
 20
76.389363200222121
 30
0.0
 11
76.114102355763777
 21
76.389363200222121
 31
0.0
  0
LINE
  5
827
  8
0
 10
70.414102355764157
 20
77.103054382555243
 30
0.0
 11
76.114102355763563
 21
77.103054382555257
 31
0.0
  0
LINE
  5
828
  8
0
 10
70.414102355764157
 20
68.426622881379927
 30
0.0
 11
76.136718895403007
 21
68.426622881379942
 31
0.0
  0
POLYLINE
  5
829
  8
0
 66
     1
 10
0.0
 20
0.0
 30
0.0
  0
VERTEX
  5
82A
  8
0
 10
70.164102355763831
 20
69.134427621991847
 30
0.0
 42
0.0363338685802231
 50
90.0
  0
VERTEX
  5
82B
  8
0
 10
70.185172611901891
 20
68.84485702214198
 30
0.0
 42
0.0486020662739422
 50
90.0
  0
VERTEX
  5
82C
  8
0
 10
70.23732566046732
 20
68.633934090149182
 30
0.0
 42
0.0918921657250572
 70
     2
 50
289.4534628247896
  0
VERTEX
  5
82D
  8
0
 10
70.340748515484393
 20
68.454468140540214
 30
0.0
 42
0.2563706040809025
 50
289.4534628247896
  0
VERTEX
  5
82E
  8
0
 10
70.414102355764186
 20
68.426622881379942
 30
0.0
 42
0.2196144455096618
 50
90.0
  0
SEQEND
  5
82F
  8
0
  0
POLYLINE
  5
830
  8
0
 66
     1
 10
0.0
 20
0.0
 30
0.0
  0
VERTEX
  5
831
  8
0
 10
70.414102355764101
 20
69.842232362603781
 30
0.0
 42
0.2196144455096195
 50
90.0
  0
VERTEX
  5
832
  8
0
 10
70.336032968336596
 20
69.80620438457882
 30
0.0
 42
0.0918921657250284
 50
90.0
  0
VERTEX
  5
833
  8
0
 10
70.237325660467263
 20
69.634921153834526
 30
0.0
 42
0.0486020662739239
 70
     2
 50
250.54653717521691
  0
VERTEX
  5
834
  8
0
 10
70.185172611901834
 20
69.4239982218416
 30
0.0
 42
0.0363338685801739
 50
250.54653717521691
  0
VERTEX
  5
835
  8
0
 10
70.164102355763831
 20
69.134427621991847
 30
0.0
 42
0.0363338685802231
 50
90.0
  0
SEQEND
  5
836
  8
0
  0
POLYLINE
  5
837
  8
0
 66
     1
 10
0.0
 20
0.0
 30
0.0
  0
VERTEX
  5
838
  8
0
 10
76.114102355763805
 20
69.842232362603781
 30
0.0
 42
-0.2196144455096195
 50
90.0
  0
VERTEX
  5
839
  8
0
 10
76.192171743191309
 20
69.80620438457882
 30
0.0
 42
-0.0918921657250284
 50
90.0
  0
VERTEX
  5
83A
  8
0
 10
76.290879051060642
 20
69.634921153834526
 30
0.0
 42
-0.0486020662739239
 70
     2
 50
289.453462824783
  0
VERTEX
  5
83B
  8
0
 10
76.343032099626072
 20
69.4239982218416
 30
0.0
 42
-0.0363338685801739
 50
90.0
  0
VERTEX
  5
83C
  8
0
 10
76.364102355764075
 20
69.134427621991847
 30
0.0
 42
-0.0363338685802231
 50
90.0
  0
SEQEND
  5
83D
  8
0
  0
POLYLINE
  5
83E
  8
0
 66
     1
 10
0.0
 20
0.0
 30
0.0
  0
VERTEX
  5
83F
  8
0
 10
76.364102355764075
 20
69.134427621991847
 30
0.0
 42
-0.0363338685802231
 50
90.0
  0
VERTEX
  5
840
  8
0
 10
76.343032099626015
 20
68.84485702214198
 30
0.0
 42
-0.0486020662739422
 50
90.0
  0
VERTEX
  5
841
  8
0
 10
76.290879051060585
 20
68.633934090149182
 30
0.0
 42
-0.0918921657250572
 70
     2
 50
250.54653717521029
  0
VERTEX
  5
842
  8
0
 10
76.187456196043513
 20
68.454468140540214
 30
0.0
 42
-0.2563706040809025
 50
90.0
  0
VERTEX
  5
843
  8
0
 10
76.114102355763706
 20
68.426622881379942
 30
0.0
 42
-0.2196144455096618
 50
90.0
  0
SEQEND
  5
844
  8
0
  0
LINE
  5
845
  8
0
 10
70.414102355764143
 20
69.842232362603681
 30
0.0
 11
70.414102355764129
 21
72.505764115984547
 31
0.0
  0
POLYLINE
  5
846
  8
0
 66
     1
 10
0.0
 20
0.0
 30
0.0
  0
VERTEX
  5
847
  8
0
 10
70.414102355764101
 20
73.731717888562457
 30
0.0
 42
0.2244450920054925
 50
90.0
  0
VERTEX
  5
848
  8
0
 10
70.336736200281152
 20
73.695146684467133
 30
0.0
 42
0.0901691907520375
 50
90.0
  0
VERTEX
  5
849
  8
0
 10
70.237325660467263
 20
73.516502802233816
 30
0.0
 42
0.0470196877347411
 70
     2
 50
251.20999383284229
  0
VERTEX
  5
84A
  8
0
 10
70.185198767475526
 20
73.297797117864832
 30
0.0
 42
0.035016086932325
 50
251.20999383284229
  0
VERTEX
  5
84B
  8
0
 10
70.164102355763831
 20
72.996927621991958
 30
0.0
 42
0.0350160869323387
 50
90.0
  0
SEQEND
  5
84C
  8
0
  0
POLYLINE
  5
84D
  8
0
 66
     1
 10
0.0
 20
0.0
 30
0.0
  0
VERTEX
  5
84E
  8
0
 10
70.16410235576376
 20
72.996927621991958
 30
0.0
 42
0.0519942056325265
 50
90.0
  0
VERTEX
  5
84F
  8
0
 10
70.184798190976295
 20
72.798445061349753
 30
0.0
 42
0.0658520295855318
 50
90.0
  0
VERTEX
  5
850
  8
0
 10
70.237325660467263
 20
72.649622576222754
 30
0.0
 42
0.1046008475216924
 70
     2
 50
296.9758878539098
  0
VERTEX
  5
851
  8
0
 10
70.334365888260123
 20
72.529440150049567
 30
0.0
 42
0.1998248705224882
 50
296.9758878539098
  0
VERTEX
  5
852
  8
0
 10
70.414102355764172
 20
72.505764115984547
 30
0.0
 42
0.1724524218163822
 50
90.0
  0
SEQEND
  5
853
  8
0
  0
LINE
  5
854
  8
0
 10
70.414102355764129
 20
73.731717888562457
 30
0.0
 11
70.414102355764129
 21
75.681558459610272
 31
0.0
  0
POLYLINE
  5
855
  8
0
 66
     1
 10
0.0
 20
0.0
 30
0.0
  0
VERTEX
  5
856
  8
0
 10
70.164102355763816
 20
75.824473866226896
 30
0.0
 50
90.0
  0
VERTEX
  5
857
  8
0
 10
70.180256056487835
 20
75.774648826496318
 30
0.0
 42
0.1065107702596174
 50
90.0
  0
VERTEX
  5
858
  8
0
 10
70.237325660467278
 20
75.723417413072255
 30
0.0
 42
0.0718266842203901
 70
     2
 50
330.24505355315
  0
VERTEX
  5
859
  8
0
 10
70.322688342704225
 20
75.689726181605522
 30
0.0
 42
0.0718208819146952
 50
330.24505355315
  0
VERTEX
  5
85A
  8
0
 10
70.414102355764129
 20
75.681558459613527
 30
0.0
 42
0.0581924543484093
 50
90.0
  0
SEQEND
  5
85B
  8
0
  0
POLYLINE
  5
85C
  8
0
 66
     1
 10
0.0
 20
0.0
 30
0.0
  0
VERTEX
  5
85D
  8
0
 10
70.414102355764129
 20
76.389363200222093
 30
0.0
 42
0.1903295519116534
 50
90.0
  0
VERTEX
  5
85E
  8
0
 10
70.331728832249752
 20
76.356828383851791
 30
0.0
 42
0.1007950070163301
 50
90.0
  0
VERTEX
  5
85F
  8
0
 10
70.237325660467278
 20
76.223910944914849
 30
0.0
 42
0.0589055386465863
 70
     2
 50
246.12751664736999
  0
VERTEX
  5
860
  8
0
 10
70.184970748987155
 20
76.054047241347519
 30
0.0
 42
0.0453568750980548
 50
246.12751664736999
  0
VERTEX
  5
861
  8
0
 10
70.164102355763816
 20
75.824473866226896
 30
0.0
 42
0.0453568750980339
 50
90.0
  0
SEQEND
  5
862
  8
0
  0
LINE
  5
863
  8
0
 10
70.414102355764129
 20
76.389363200222093
 30
0.0
 11
70.414102355764157
 21
77.103054382555229
 31
0.0
  0
POLYLINE
  5
864
  8
0
 66
     1
 10
0.0
 20
0.0
 30
0.0
  0
VERTEX
  5
865
  8
0
 10
70.164102355763831
 20
76.884427621991492
 30
0.0
 42
0.087101949488593
 50
90.0
  0
VERTEX
  5
866
  8
0
 10
70.261251031792483
 20
76.901480677397515
 30
0.0
 42
0.0930219345922933
 50
90.0
  0
VERTEX
  5
867
  8
0
 10
70.340879051060696
 20
76.948461917611766
 30
0.0
 42
0.10283426098262
 70
     2
 50
41.169924429810322
  0
VERTEX
  5
868
  8
0
 10
70.399996452743494
 20
77.026664835702206
 30
0.0
 42
0.1306095639862077
 50
41.169924429810322
  0
VERTEX
  5
869
  8
0
 10
70.414102355757123
 20
77.103054382555243
 30
0.0
 42
0.0381262100094925
 50
90.0
  0
SEQEND
  5
86A
  8
0
  0
POLYLINE
  5
86B
  8
0
 66
     1
 10
0.0
 20
0.0
 30
0.0
  0
VERTEX
  5
86C
  8
0
 10
76.364102355764146
 20
72.996927621991958
 30
0.0
 42
-0.0519942056325265
 50
90.0
  0
VERTEX
  5
86D
  8
0
 10
76.343406520551611
 20
72.798445061349753
 30
0.0
 42
-0.0658520295855318
 50
90.0
  0
VERTEX
  5
86E
  8
0
 10
76.290879051060642
 20
72.649622576222754
 30
0.0
 42
-0.1046008475216924
 70
     2
 50
243.0241121460902
  0
VERTEX
  5
86F
  8
0
 10
76.193838823267754
 20
72.529440150049567
 30
0.0
 42
-0.1998248705224882
 50
90.0
  0
VERTEX
  5
870
  8
0
 10
76.114102355763734
 20
72.505764115984547
 30
0.0
 42
-0.1724524218163822
 50
90.0
  0
SEQEND
  5
871
  8
0
  0
POLYLINE
  5
872
  8
0
 66
     1
 10
0.0
 20
0.0
 30
0.0
  0
VERTEX
  5
873
  8
0
 10
76.114102355763805
 20
73.731717888562457
 30
0.0
 42
-0.2244450920054925
 50
90.0
  0
VERTEX
  5
874
  8
0
 10
76.191468511246754
 20
73.695146684467133
 30
0.0
 42
-0.0901691907520375
 50
90.0
  0
VERTEX
  5
875
  8
0
 10
76.290879051060642
 20
73.516502802233816
 30
0.0
 42
-0.0470196877347411
 70
     2
 50
288.79000616715769
  0
VERTEX
  5
876
  8
0
 10
76.343005944052379
 20
73.297797117864832
 30
0.0
 42
-0.035016086932325
 50
90.0
  0
VERTEX
  5
877
  8
0
 10
76.364102355764075
 20
72.996927621991958
 30
0.0
 42
-0.0350160869323387
 50
90.0
  0
SEQEND
  5
878
  8
0
  0
POLYLINE
  5
879
  8
0
 66
     1
 10
0.0
 20
0.0
 30
0.0
  0
VERTEX
  5
87A
  8
0
 10
76.364102355764089
 20
75.824473866226896
 30
0.0
 50
90.0
  0
VERTEX
  5
87B
  8
0
 10
76.347948655040071
 20
75.774648826496318
 30
0.0
 42
-0.1065107702596174
 50
90.0
  0
VERTEX
  5
87C
  8
0
 10
76.290879051060628
 20
75.723417413072255
 30
0.0
 42
-0.0718266842203901
 70
     2
 50
209.75494644685
  0
VERTEX
  5
87D
  8
0
 10
76.20551636882368
 20
75.689726181605522
 30
0.0
 42
-0.0718208819146952
 50
90.0
  0
VERTEX
  5
87E
  8
0
 10
76.114102355763777
 20
75.681558459613527
 30
0.0
 42
-0.0581924543484093
 50
90.0
  0
SEQEND
  5
87F
  8
0
  0
POLYLINE
  5
880
  8
0
 66
     1
 10
0.0
 20
0.0
 30
0.0
  0
VERTEX
  5
881
  8
0
 10
76.114102355763777
 20
76.389363200222093
 30
0.0
 42
-0.1903295519116534
 50
90.0
  0
VERTEX
  5
882
  8
0
 10
76.196475879278154
 20
76.356828383851791
 30
0.0
 42
-0.1007950070163301
 50
90.0
  0
VERTEX
  5
883
  8
0
 10
76.290879051060628
 20
76.223910944914849
 30
0.0
 42
-0.0589055386465863
 70
     2
 50
293.87248335263001
  0
VERTEX
  5
884
  8
0
 10
76.343233962540751
 20
76.054047241347519
 30
0.0
 42
-0.0453568750980548
 50
90.0
  0
VERTEX
  5
885
  8
0
 10
76.364102355764089
 20
75.824473866226896
 30
0.0
 42
-0.0453568750980339
 50
90.0
  0
SEQEND
  5
886
  8
0
  0
POLYLINE
  5
887
  8
0
 66
     1
 10
0.0
 20
0.0
 30
0.0
  0
VERTEX
  5
888
  8
0
 10
76.114102355763777
 20
77.103054382555257
 30
0.0
 50
90.0
  0
VERTEX
  5
889
  8
0
 10
76.217487916204604
 20
77.105739606370037
 30
0.0
 42
0.0182285675157924
 50
90.0
  0
VERTEX
  5
88A
  8
0
 10
76.290879051060614
 20
77.112243391638486
 30
0.0
 42
0.0423593239487818
 70
     2
 50
7.1528245286919203
  0
VERTEX
  5
88B
  8
0
 10
76.360021704633482
 20
77.126945092723119
 30
0.0
 50
7.1528245286919203
  0
VERTEX
  5
88C
  8
0
 10
76.364102355764118
 20
77.134427621991861
 30
0.0
 50
90.0
  0
SEQEND
  5
88D
  8
0
  0
POLYLINE
  5
88E
  8
0
 66
     1
 10
0.0
 20
0.0
 30
0.0
  0
VERTEX
  5
88F
  8
0
 10
76.114102355763777
 20
61.165800861428473
 30
0.0
 50
90.0
  0
VERTEX
  5
890
  8
0
 10
76.217487916204604
 20
61.163115637613693
 30
0.0
 42
-0.0182285675157924
 50
90.0
  0
VERTEX
  5
891
  8
0
 10
76.290879051060614
 20
61.156611852345243
 30
0.0
 42
-0.0423593239487818
 70
     2
 50
352.84717547130811
  0
VERTEX
  5
892
  8
0
 10
76.360021704633482
 20
61.14191015126061
 30
0.0
 50
90.0
  0
VERTEX
  5
893
  8
0
 10
76.364102355764118
 20
61.134427621991868
 30
0.0
 50
90.0
  0
SEQEND
  5
894
  8
0
  0
POLYLINE
  5
895
  8
0
 66
     1
 10
0.0
 20
0.0
 30
0.0
  0
VERTEX
  5
896
  8
0
 10
76.114102355763777
 20
61.87949204376163
 30
0.0
 42
0.1903295519116534
 50
90.0
  0
VERTEX
  5
897
  8
0
 10
76.196475879278154
 20
61.912026860131938
 30
0.0
 42
0.1007950070163301
 50
90.0
  0
VERTEX
  5
898
  8
0
 10
76.290879051060628
 20
62.044944299068881
 30
0.0
 42
0.0589055386465863
 70
     2
 50
66.127516647369944
  0
VERTEX
  5
899
  8
0
 10
76.343233962540751
 20
62.214808002636211
 30
0.0
 42
0.0453568750980548
 50
90.0
  0
VERTEX
  5
89A
  8
0
 10
76.364102355764089
 20
62.444381377756827
 30
0.0
 42
0.0453568750980339
 50
90.0
  0
SEQEND
  5
89B
  8
0
  0
POLYLINE
  5
89C
  8
0
 66
     1
 10
0.0
 20
0.0
 30
0.0
  0
VERTEX
  5
89D
  8
0
 10
76.364102355764089
 20
62.444381377756827
 30
0.0
 50
90.0
  0
VERTEX
  5
89E
  8
0
 10
76.347948655040071
 20
62.494206417487412
 30
0.0
 42
0.1065107702596174
 50
90.0
  0
VERTEX
  5
89F
  8
0
 10
76.290879051060628
 20
62.545437830911467
 30
0.0
 42
0.0718266842203901
 70
     2
 50
150.24505355314989
  0
VERTEX
  5
8A0
  8
0
 10
76.20551636882368
 20
62.5791290623782
 30
0.0
 42
0.0718208819146952
 50
90.0
  0
VERTEX
  5
8A1
  8
0
 10
76.114102355763777
 20
62.587296784370203
 30
0.0
 42
0.0581924543484093
 50
90.0
  0
SEQEND
  5
8A2
  8
0
  0
POLYLINE
  5
8A3
  8
0
 66
     1
 10
0.0
 20
0.0
 30
0.0
  0
VERTEX
  5
8A4
  8
0
 10
76.114102355763805
 20
64.537137355421265
 30
0.0
 42
0.2244450920054925
 50
90.0
  0
VERTEX
  5
8A5
  8
0
 10
76.191468511246754
 20
64.573708559516575
 30
0.0
 42
0.0901691907520375
 50
90.0
  0
VERTEX
  5
8A6
  8
0
 10
76.290879051060642
 20
64.752352441749906
 30
0.0
 42
0.0470196877347411
 70
     2
 50
71.209993832842272
  0
VERTEX
  5
8A7
  8
0
 10
76.343005944052379
 20
64.971058126118891
 30
0.0
 42
0.035016086932325
 50
90.0
  0
VERTEX
  5
8A8
  8
0
 10
76.364102355764075
 20
65.271927621991765
 30
0.0
 42
0.0350160869323387
 50
90.0
  0
SEQEND
  5
8A9
  8
0
  0
POLYLINE
  5
8AA
  8
0
 66
     1
 10
0.0
 20
0.0
 30
0.0
  0
VERTEX
  5
8AB
  8
0
 10
76.364102355764146
 20
65.271927621991765
 30
0.0
 42
0.0519942056325265
 50
90.0
  0
VERTEX
  5
8AC
  8
0
 10
76.343406520551611
 20
65.470410182633969
 30
0.0
 42
0.0658520295855318
 50
90.0
  0
VERTEX
  5
8AD
  8
0
 10
76.290879051060642
 20
65.619232667760969
 30
0.0
 42
0.1046008475216924
 70
     2
 50
116.9758878539098
  0
VERTEX
  5
8AE
  8
0
 10
76.193838823267754
 20
65.739415093934156
 30
0.0
 42
0.1998248705224882
 50
90.0
  0
VERTEX
  5
8AF
  8
0
 10
76.114102355763734
 20
65.763091127999175
 30
0.0
 42
0.1724524218163822
 50
90.0
  0
SEQEND
  5
8B0
  8
0
  0
POLYLINE
  5
8B1
  8
0
 66
     1
 10
0.0
 20
0.0
 30
0.0
  0
VERTEX
  5
8B2
  8
0
 10
70.164102355763831
 20
61.384427621992238
 30
0.0
 42
-0.087101949488593
 50
90.0
  0
VERTEX
  5
8B3
  8
0
 10
70.261251031792483
 20
61.367374566586221
 30
0.0
 42
-0.0930219345922933
 50
90.0
  0
VERTEX
  5
8B4
  8
0
 10
70.340879051060696
 20
61.320393326371963
 30
0.0
 42
-0.10283426098262
 70
     2
 50
318.83007557018971
  0
VERTEX
  5
8B5
  8
0
 10
70.399996452743494
 20
61.242190408281523
 30
0.0
 42
-0.1306095639862077
 50
90.0
  0
VERTEX
  5
8B6
  8
0
 10
70.414102355757123
 20
61.165800861428487
 30
0.0
 42
-0.0381262100094925
 50
90.0
  0
SEQEND
  5
8B7
  8
0
  0
LINE
  5
8B8
  8
0
 10
70.414102355764129
 20
61.87949204376163
 30
0.0
 11
70.414102355764157
 21
61.165800861428501
 31
0.0
  0
POLYLINE
  5
8B9
  8
0
 66
     1
 10
0.0
 20
0.0
 30
0.0
  0
VERTEX
  5
8BA
  8
0
 10
70.414102355764129
 20
61.87949204376163
 30
0.0
 42
-0.1903295519116534
 50
90.0
  0
VERTEX
  5
8BB
  8
0
 10
70.331728832249752
 20
61.912026860131938
 30
0.0
 42
-0.1007950070163301
 50
90.0
  0
VERTEX
  5
8BC
  8
0
 10
70.237325660467278
 20
62.044944299068881
 30
0.0
 42
-0.0589055386465863
 70
     2
 50
113.8724833526301
  0
VERTEX
  5
8BD
  8
0
 10
70.184970748987155
 20
62.214808002636211
 30
0.0
 42
-0.0453568750980548
 50
90.0
  0
VERTEX
  5
8BE
  8
0
 10
70.164102355763816
 20
62.444381377756827
 30
0.0
 42
-0.0453568750980339
 50
90.0
  0
SEQEND
  5
8BF
  8
0
  0
POLYLINE
  5
8C0
  8
0
 66
     1
 10
0.0
 20
0.0
 30
0.0
  0
VERTEX
  5
8C1
  8
0
 10
70.164102355763816
 20
62.444381377756827
 30
0.0
 50
90.0
  0
VERTEX
  5
8C2
  8
0
 10
70.180256056487835
 20
62.494206417487412
 30
0.0
 42
-0.1065107702596174
 50
90.0
  0
VERTEX
  5
8C3
  8
0
 10
70.237325660467278
 20
62.545437830911467
 30
0.0
 42
-0.0718266842203901
 70
     2
 50
29.75494644685006
  0
VERTEX
  5
8C4
  8
0
 10
70.322688342704225
 20
62.5791290623782
 30
0.0
 42
-0.0718208819146952
 50
90.0
  0
VERTEX
  5
8C5
  8
0
 10
70.414102355764129
 20
62.587296784370203
 30
0.0
 42
-0.0581924543484093
 50
90.0
  0
SEQEND
  5
8C6
  8
0
  0
LINE
  5
8C7
  8
0
 10
70.414102355764129
 20
64.537137355421265
 30
0.0
 11
70.414102355764129
 21
62.587296784373457
 31
0.0
  0
POLYLINE
  5
8C8
  8
0
 66
     1
 10
0.0
 20
0.0
 30
0.0
  0
VERTEX
  5
8C9
  8
0
 10
70.16410235576376
 20
65.271927621991765
 30
0.0
 42
-0.0519942056325265
 50
90.0
  0
VERTEX
  5
8CA
  8
0
 10
70.184798190976295
 20
65.470410182633969
 30
0.0
 42
-0.0658520295855318
 50
90.0
  0
VERTEX
  5
8CB
  8
0
 10
70.237325660467263
 20
65.619232667760969
 30
0.0
 42
-0.1046008475216924
 70
     2
 50
63.024112146090218
  0
VERTEX
  5
8CC
  8
0
 10
70.334365888260123
 20
65.739415093934156
 30
0.0
 42
-0.1998248705224882
 50
90.0
  0
VERTEX
  5
8CD
  8
0
 10
70.414102355764172
 20
65.763091127999175
 30
0.0
 42
-0.1724524218163822
 50
90.0
  0
SEQEND
  5
8CE
  8
0
  0
POLYLINE
  5
8CF
  8
0
 66
     1
 10
0.0
 20
0.0
 30
0.0
  0
VERTEX
  5
8D0
  8
0
 10
70.414102355764101
 20
64.537137355421265
 30
0.0
 42
-0.2244450920054925
 50
90.0
  0
VERTEX
  5
8D1
  8
0
 10
70.336736200281152
 20
64.573708559516575
 30
0.0
 42
-0.0901691907520375
 50
90.0
  0
VERTEX
  5
8D2
  8
0
 10
70.237325660467263
 20
64.752352441749906
 30
0.0
 42
-0.0470196877347411
 70
     2
 50
108.7900061671577
  0
VERTEX
  5
8D3
  8
0
 10
70.185198767475526
 20
64.971058126118891
 30
0.0
 42
-0.035016086932325
 50
90.0
  0
VERTEX
  5
8D4
  8
0
 10
70.164102355763831
 20
65.271927621991765
 30
0.0
 42
-0.0350160869323387
 50
90.0
  0
SEQEND
  5
8D5
  8
0
  0
LINE
  5
8D6
  8
0
 10
70.414102355764143
 20
68.426622881380041
 30
0.0
 11
70.414102355764129
 21
65.763091127999175
 31
0.0
  0
LINE
  5
8D7
  8
0
 10
70.414102355764157
 20
61.165800861428487
 30
0.0
 11
76.114102355763563
 21
61.165800861428473
 31
0.0
  0
LINE
  5
8D8
  8
0
 10
70.414102355764157
 20
61.879492043761608
 30
0.0
 11
76.114102355763777
 21
61.879492043761608
 31
0.0
  0
LINE
  5
8D9
  8
0
 10
70.414102355764157
 20
62.587296784373443
 30
0.0
 11
76.148947925734873
 21
62.587296784373457
 31
0.0
  0
LINE
  5
8DA
  8
0
 10
70.414102355764157
 20
64.537137355421265
 30
0.0
 11
76.114102355763805
 21
64.537137355421279
 31
0.0
  0
LINE
  5
8DB
  8
0
 10
70.414102355764157
 20
65.763091127999175
 30
0.0
 11
76.136962393263474
 21
65.763091127999175
 31
0.0
  0
LINE
  5
8DC
  8
0
 10
76.364102355764103
 20
61.134427621991897
 30
0.0
 11
76.914102355764157
 21
61.134427621991883
 31
0.0
  0
LINE
  5
8DD
  8
0
 10
69.664102355764143
 20
61.884427621991883
 30
0.0
 11
70.164102355771064
 21
61.38442762198499
 31
0.0
  0
LINE
  5
8DE
  8
0
 10
69.664102355764172
 20
96.884427621991875
 30
0.0
 11
70.164102355771078
 21
96.384427621984969
 31
0.0
  0
LINE
  5
8DF
  8
0
 10
76.364102355764118
 20
96.134427621991904
 30
0.0
 11
76.914102355764172
 21
96.134427621991875
 31
0.0
  0
LINE
  5
8E0
  8
0
 10
70.414102355764172
 20
100.7630911279992
 30
0.0
 11
76.136962393263474
 21
100.7630911279992
 31
0.0
  0
LINE
  5
8E1
  8
0
 10
70.414102355764172
 20
99.537137355421265
 30
0.0
 11
76.114102355763819
 21
99.537137355421294
 31
0.0
  0
LINE
  5
8E2
  8
0
 10
70.414102355764172
 20
97.587296784373464
 30
0.0
 11
76.148947925734888
 21
97.587296784373464
 31
0.0
  0
LINE
  5
8E3
  8
0
 10
70.414102355764172
 20
96.879492043761616
 30
0.0
 11
76.114102355763791
 21
96.879492043761616
 31
0.0
  0
LINE
  5
8E4
  8
0
 10
70.414102355764172
 20
96.165800861428465
 30
0.0
 11
76.114102355763563
 21
96.165800861428465
 31
0.0
  0
LINE
  5
8E5
  8
0
 10
70.414102355764157
 20
103.42662288138
 30
0.0
 11
70.414102355764143
 21
100.7630911279992
 31
0.0
  0
POLYLINE
  5
8E6
  8
0
 66
     1
 10
0.0
 20
0.0
 30
0.0
  0
VERTEX
  5
8E7
  8
0
 10
70.414102355764115
 20
99.537137355421265
 30
0.0
 42
-0.2244450920054925
 50
90.0
  0
VERTEX
  5
8E8
  8
0
 10
70.336736200281166
 20
99.573708559516604
 30
0.0
 42
-0.0901691907520375
 50
90.0
  0
VERTEX
  5
8E9
  8
0
 10
70.237325660467278
 20
99.752352441749906
 30
0.0
 42
-0.0470196877347411
 70
     2
 50
108.7900061671577
  0
VERTEX
  5
8EA
  8
0
 10
70.185198767475541
 20
99.971058126118905
 30
0.0
 42
-0.035016086932325
 50
90.0
  0
VERTEX
  5
8EB
  8
0
 10
70.164102355763845
 20
100.27192762199169
 30
0.0
 42
-0.0350160869323387
 50
90.0
  0
SEQEND
  5
8EC
  8
0
  0
POLYLINE
  5
8ED
  8
0
 66
     1
 10
0.0
 20
0.0
 30
0.0
  0
VERTEX
  5
8EE
  8
0
 10
70.164102355763774
 20
100.27192762199169
 30
0.0
 42
-0.0519942056325265
 50
90.0
  0
VERTEX
  5
8EF
  8
0
 10
70.184798190976309
 20
100.4704101826339
 30
0.0
 42
-0.0658520295855318
 50
90.0
  0
VERTEX
  5
8F0
  8
0
 10
70.237325660467278
 20
100.6192326677609
 30
0.0
 42
-0.1046008475216924
 70
     2
 50
63.024112146090218
  0
VERTEX
  5
8F1
  8
0
 10
70.334365888260152
 20
100.7394150939341
 30
0.0
 42
-0.1998248705224882
 50
90.0
  0
VERTEX
  5
8F2
  8
0
 10
70.414102355764186
 20
100.7630911279992
 30
0.0
 42
-0.1724524218163822
 50
90.0
  0
SEQEND
  5
8F3
  8
0
  0
LINE
  5
8F4
  8
0
 10
70.414102355764143
 20
99.537137355421265
 30
0.0
 11
70.414102355764143
 21
97.587296784373464
 31
0.0
  0
POLYLINE
  5
8F5
  8
0
 66
     1
 10
0.0
 20
0.0
 30
0.0
  0
VERTEX
  5
8F6
  8
0
 10
70.164102355763831
 20
97.444381377756827
 30
0.0
 50
90.0
  0
VERTEX
  5
8F7
  8
0
 10
70.180256056487849
 20
97.494206417487405
 30
0.0
 42
-0.1065107702596174
 50
90.0
  0
VERTEX
  5
8F8
  8
0
 10
70.237325660467292
 20
97.545437830911453
 30
0.0
 42
-0.0718266842203901
 70
     2
 50
29.75494644685006
  0
VERTEX
  5
8F9
  8
0
 10
70.32268834270424
 20
97.5791290623782
 30
0.0
 42
-0.0718208819146952
 50
90.0
  0
VERTEX
  5
8FA
  8
0
 10
70.414102355764143
 20
97.587296784370196
 30
0.0
 42
-0.0581924543484093
 50
90.0
  0
SEQEND
  5
8FB
  8
0
  0
POLYLINE
  5
8FC
  8
0
 66
     1
 10
0.0
 20
0.0
 30
0.0
  0
VERTEX
  5
8FD
  8
0
 10
70.414102355764143
 20
96.879492043761616
 30
0.0
 42
-0.1903295519116534
 50
90.0
  0
VERTEX
  5
8FE
  8
0
 10
70.331728832249766
 20
96.912026860131931
 30
0.0
 42
-0.1007950070163301
 50
90.0
  0
VERTEX
  5
8FF
  8
0
 10
70.237325660467292
 20
97.044944299068874
 30
0.0
 42
-0.0589055386465863
 70
     2
 50
113.8724833526301
  0
VERTEX
  5
900
  8
0
 10
70.184970748987169
 20
97.214808002636204
 30
0.0
 42
-0.0453568750980548
 50
90.0
  0
VERTEX
  5
901
  8
0
 10
70.164102355763831
 20
97.444381377756827
 30
0.0
 42
-0.0453568750980339
 50
90.0
  0
SEQEND
  5
902
  8
0
  0
LINE
  5
903
  8
0
 10
70.414102355764143
 20
96.879492043761616
 30
0.0
 11
70.414102355764172
 21
96.165800861428494
 31
0.0
  0
POLYLINE
  5
904
  8
0
 66
     1
 10
0.0
 20
0.0
 30
0.0
  0
VERTEX
  5
905
  8
0
 10
70.164102355763845
 20
96.384427621992245
 30
0.0
 42
-0.087101949488593
 50
90.0
  0
VERTEX
  5
906
  8
0
 10
70.261251031792497
 20
96.367374566586193
 30
0.0
 42
-0.0930219345922933
 50
90.0
  0
VERTEX
  5
907
  8
0
 10
70.34087905106071
 20
96.320393326371985
 30
0.0
 42
-0.10283426098262
 70
     2
 50
318.83007557018971
  0
VERTEX
  5
908
  8
0
 10
70.399996452743508
 20
96.242190408281516
 30
0.0
 42
-0.1306095639862077
 50
90.0
  0
VERTEX
  5
909
  8
0
 10
70.414102355757137
 20
96.165800861428465
 30
0.0
 42
-0.0381262100094925
 50
90.0
  0
SEQEND
  5
90A
  8
0
  0
POLYLINE
  5
90B
  8
0
 66
     1
 10
0.0
 20
0.0
 30
0.0
  0
VERTEX
  5
90C
  8
0
 10
76.36410235576416
 20
100.27192762199169
 30
0.0
 42
0.0519942056325265
 50
90.0
  0
VERTEX
  5
90D
  8
0
 10
76.343406520551625
 20
100.4704101826339
 30
0.0
 42
0.0658520295855318
 50
90.0
  0
VERTEX
  5
90E
  8
0
 10
76.290879051060656
 20
100.6192326677609
 30
0.0
 42
0.1046008475216924
 70
     2
 50
116.9758878539098
  0
VERTEX
  5
90F
  8
0
 10
76.193838823267782
 20
100.7394150939341
 30
0.0
 42
0.1998248705224882
 50
90.0
  0
VERTEX
  5
910
  8
0
 10
76.114102355763748
 20
100.7630911279992
 30
0.0
 42
0.1724524218163822
 50
90.0
  0
SEQEND
  5
911
  8
0
  0
POLYLINE
  5
912
  8
0
 66
     1
 10
0.0
 20
0.0
 30
0.0
  0
VERTEX
  5
913
  8
0
 10
76.114102355763819
 20
99.537137355421265
 30
0.0
 42
0.2244450920054925
 50
90.0
  0
VERTEX
  5
914
  8
0
 10
76.191468511246768
 20
99.573708559516604
 30
0.0
 42
0.0901691907520375
 50
90.0
  0
VERTEX
  5
915
  8
0
 10
76.290879051060656
 20
99.752352441749906
 30
0.0
 42
0.0470196877347411
 70
     2
 50
71.209993832842272
  0
VERTEX
  5
916
  8
0
 10
76.343005944052393
 20
99.971058126118905
 30
0.0
 42
0.035016086932325
 50
90.0
  0
VERTEX
  5
917
  8
0
 10
76.364102355764089
 20
100.27192762199169
 30
0.0
 42
0.0350160869323387
 50
90.0
  0
SEQEND
  5
918
  8
0
  0
POLYLINE
  5
919
  8
0
 66
     1
 10
0.0
 20
0.0
 30
0.0
  0
VERTEX
  5
91A
  8
0
 10
76.364102355764103
 20
97.444381377756827
 30
0.0
 50
90.0
  0
VERTEX
  5
91B
  8
0
 10
76.347948655040085
 20
97.494206417487405
 30
0.0
 42
0.1065107702596174
 50
90.0
  0
VERTEX
  5
91C
  8
0
 10
76.290879051060642
 20
97.545437830911453
 30
0.0
 42
0.0718266842203901
 70
     2
 50
150.24505355314989
  0
VERTEX
  5
91D
  8
0
 10
76.205516368823695
 20
97.5791290623782
 30
0.0
 42
0.0718208819146952
 50
90.0
  0
VERTEX
  5
91E
  8
0
 10
76.114102355763791
 20
97.587296784370196
 30
0.0
 42
0.0581924543484093
 50
90.0
  0
SEQEND
  5
91F
  8
0
  0
POLYLINE
  5
920
  8
0
 66
     1
 10
0.0
 20
0.0
 30
0.0
  0
VERTEX
  5
921
  8
0
 10
76.114102355763791
 20
96.879492043761616
 30
0.0
 42
0.1903295519116534
 50
90.0
  0
VERTEX
  5
922
  8
0
 10
76.196475879278168
 20
96.912026860131931
 30
0.0
 42
0.1007950070163301
 50
90.0
  0
VERTEX
  5
923
  8
0
 10
76.290879051060642
 20
97.044944299068874
 30
0.0
 42
0.0589055386465863
 70
     2
 50
66.127516647369944
  0
VERTEX
  5
924
  8
0
 10
76.343233962540765
 20
97.214808002636204
 30
0.0
 42
0.0453568750980548
 50
90.0
  0
VERTEX
  5
925
  8
0
 10
76.364102355764103
 20
97.444381377756827
 30
0.0
 42
0.0453568750980339
 50
90.0
  0
SEQEND
  5
926
  8
0
  0
POLYLINE
  5
927
  8
0
 66
     1
 10
0.0
 20
0.0
 30
0.0
  0
VERTEX
  5
928
  8
0
 10
76.114102355763791
 20
96.165800861428465
 30
0.0
 50
90.0
  0
VERTEX
  5
929
  8
0
 10
76.217487916204632
 20
96.163115637613686
 30
0.0
 42
-0.0182285675157924
 50
90.0
  0
VERTEX
  5
92A
  8
0
 10
76.290879051060628
 20
96.156611852345236
 30
0.0
 42
-0.0423593239487818
 70
     2
 50
352.84717547130811
  0
VERTEX
  5
92B
  8
0
 10
76.360021704633496
 20
96.141910151260618
 30
0.0
 50
90.0
  0
VERTEX
  5
92C
  8
0
 10
76.364102355764132
 20
96.134427621991847
 30
0.0
 50
90.0
  0
SEQEND
  5
92D
  8
0
  0
POLYLINE
  5
92E
  8
0
 66
     1
 10
0.0
 20
0.0
 30
0.0
  0
VERTEX
  5
92F
  8
0
 10
76.114102355763791
 20
112.1030543825552
 30
0.0
 50
90.0
  0
VERTEX
  5
930
  8
0
 10
76.217487916204632
 20
112.10573960636999
 30
0.0
 42
0.0182285675157924
 50
90.0
  0
VERTEX
  5
931
  8
0
 10
76.290879051060628
 20
112.1122433916385
 30
0.0
 42
0.0423593239487818
 70
     2
 50
7.1528245286919203
  0
VERTEX
  5
932
  8
0
 10
76.360021704633496
 20
112.1269450927231
 30
0.0
 50
7.1528245286919203
  0
VERTEX
  5
933
  8
0
 10
76.364102355764132
 20
112.1344276219918
 30
0.0
 50
90.0
  0
SEQEND
  5
934
  8
0
  0
POLYLINE
  5
935
  8
0
 66
     1
 10
0.0
 20
0.0
 30
0.0
  0
VERTEX
  5
936
  8
0
 10
76.114102355763791
 20
111.38936320022211
 30
0.0
 42
-0.1903295519116534
 50
90.0
  0
VERTEX
  5
937
  8
0
 10
76.196475879278168
 20
111.35682838385181
 30
0.0
 42
-0.1007950070163301
 50
90.0
  0
VERTEX
  5
938
  8
0
 10
76.290879051060642
 20
111.22391094491481
 30
0.0
 42
-0.0589055386465863
 70
     2
 50
293.87248335263001
  0
VERTEX
  5
939
  8
0
 10
76.343233962540765
 20
111.0540472413475
 30
0.0
 42
-0.0453568750980548
 50
90.0
  0
VERTEX
  5
93A
  8
0
 10
76.364102355764103
 20
110.8244738662269
 30
0.0
 42
-0.0453568750980339
 50
90.0
  0
SEQEND
  5
93B
  8
0
  0
POLYLINE
  5
93C
  8
0
 66
     1
 10
0.0
 20
0.0
 30
0.0
  0
VERTEX
  5
93D
  8
0
 10
76.364102355764103
 20
110.8244738662269
 30
0.0
 50
90.0
  0
VERTEX
  5
93E
  8
0
 10
76.347948655040085
 20
110.7746488264963
 30
0.0
 42
-0.1065107702596174
 50
90.0
  0
VERTEX
  5
93F
  8
0
 10
76.290879051060642
 20
110.7234174130722
 30
0.0
 42
-0.0718266842203901
 70
     2
 50
209.75494644685
  0
VERTEX
  5
940
  8
0
 10
76.205516368823695
 20
110.68972618160549
 30
0.0
 42
-0.0718208819146952
 50
90.0
  0
VERTEX
  5
941
  8
0
 10
76.114102355763791
 20
110.6815584596135
 30
0.0
 42
-0.0581924543484093
 50
90.0
  0
SEQEND
  5
942
  8
0
  0
POLYLINE
  5
943
  8
0
 66
     1
 10
0.0
 20
0.0
 30
0.0
  0
VERTEX
  5
944
  8
0
 10
76.114102355763819
 20
108.7317178885624
 30
0.0
 42
-0.2244450920054925
 50
90.0
  0
VERTEX
  5
945
  8
0
 10
76.191468511246768
 20
108.6951466844671
 30
0.0
 42
-0.0901691907520375
 50
90.0
  0
VERTEX
  5
946
  8
0
 10
76.290879051060656
 20
108.5165028022338
 30
0.0
 42
-0.0470196877347411
 70
     2
 50
288.79000616715769
  0
VERTEX
  5
947
  8
0
 10
76.343005944052393
 20
108.2977971178648
 30
0.0
 42
-0.035016086932325
 50
90.0
  0
VERTEX
  5
948
  8
0
 10
76.364102355764089
 20
107.996927621992
 30
0.0
 42
-0.0350160869323387
 50
90.0
  0
SEQEND
  5
949
  8
0
  0
POLYLINE
  5
94A
  8
0
 66
     1
 10
0.0
 20
0.0
 30
0.0
  0
VERTEX
  5
94B
  8
0
 10
76.36410235576416
 20
107.996927621992
 30
0.0
 42
-0.0519942056325265
 50
90.0
  0
VERTEX
  5
94C
  8
0
 10
76.343406520551625
 20
107.7984450613497
 30
0.0
 42
-0.0658520295855318
 50
90.0
  0
VERTEX
  5
94D
  8
0
 10
76.290879051060656
 20
107.6496225762227
 30
0.0
 42
-0.1046008475216924
 70
     2
 50
243.0241121460902
  0
VERTEX
  5
94E
  8
0
 10
76.193838823267782
 20
107.5294401500495
 30
0.0
 42
-0.1998248705224882
 50
90.0
  0
VERTEX
  5
94F
  8
0
 10
76.114102355763748
 20
107.5057641159845
 30
0.0
 42
-0.1724524218163822
 50
90.0
  0
SEQEND
  5
950
  8
0
  0
POLYLINE
  5
951
  8
0
 66
     1
 10
0.0
 20
0.0
 30
0.0
  0
VERTEX
  5
952
  8
0
 10
70.164102355763845
 20
111.88442762199151
 30
0.0
 42
0.087101949488593
 50
90.0
  0
VERTEX
  5
953
  8
0
 10
70.261251031792497
 20
111.9014806773975
 30
0.0
 42
0.0930219345922933
 50
90.0
  0
VERTEX
  5
954
  8
0
 10
70.34087905106071
 20
111.94846191761179
 30
0.0
 42
0.10283426098262
 70
     2
 50
41.169924429810322
  0
VERTEX
  5
955
  8
0
 10
70.399996452743508
 20
112.02666483570221
 30
0.0
 42
0.1306095639862077
 50
41.169924429810322
  0
VERTEX
  5
956
  8
0
 10
70.414102355757137
 20
112.1030543825552
 30
0.0
 42
0.0381262100094925
 50
90.0
  0
SEQEND
  5
957
  8
0
  0
LINE
  5
958
  8
0
 10
70.414102355764143
 20
111.38936320022211
 30
0.0
 11
70.414102355764172
 21
112.1030543825552
 31
0.0
  0
POLYLINE
  5
959
  8
0
 66
     1
 10
0.0
 20
0.0
 30
0.0
  0
VERTEX
  5
95A
  8
0
 10
70.414102355764143
 20
111.38936320022211
 30
0.0
 42
0.1903295519116534
 50
90.0
  0
VERTEX
  5
95B
  8
0
 10
70.331728832249766
 20
111.35682838385181
 30
0.0
 42
0.1007950070163301
 50
90.0
  0
VERTEX
  5
95C
  8
0
 10
70.237325660467292
 20
111.22391094491481
 30
0.0
 42
0.0589055386465863
 70
     2
 50
246.12751664736999
  0
VERTEX
  5
95D
  8
0
 10
70.184970748987169
 20
111.0540472413475
 30
0.0
 42
0.0453568750980548
 50
246.12751664736999
  0
VERTEX
  5
95E
  8
0
 10
70.164102355763831
 20
110.8244738662269
 30
0.0
 42
0.0453568750980339
 50
90.0
  0
SEQEND
  5
95F
  8
0
  0
POLYLINE
  5
960
  8
0
 66
     1
 10
0.0
 20
0.0
 30
0.0
  0
VERTEX
  5
961
  8
0
 10
70.164102355763831
 20
110.8244738662269
 30
0.0
 50
90.0
  0
VERTEX
  5
962
  8
0
 10
70.180256056487849
 20
110.7746488264963
 30
0.0
 42
0.1065107702596174
 50
90.0
  0
VERTEX
  5
963
  8
0
 10
70.237325660467292
 20
110.7234174130722
 30
0.0
 42
0.0718266842203901
 70
     2
 50
330.24505355315
  0
VERTEX
  5
964
  8
0
 10
70.32268834270424
 20
110.68972618160549
 30
0.0
 42
0.0718208819146952
 50
330.24505355315
  0
VERTEX
  5
965
  8
0
 10
70.414102355764143
 20
110.6815584596135
 30
0.0
 42
0.0581924543484093
 50
90.0
  0
SEQEND
  5
966
  8
0
  0
LINE
  5
967
  8
0
 10
70.414102355764143
 20
108.7317178885624
 30
0.0
 11
70.414102355764143
 21
110.6815584596102
 31
0.0
  0
POLYLINE
  5
968
  8
0
 66
     1
 10
0.0
 20
0.0
 30
0.0
  0
VERTEX
  5
969
  8
0
 10
70.164102355763774
 20
107.996927621992
 30
0.0
 42
0.0519942056325265
 50
90.0
  0
VERTEX
  5
96A
  8
0
 10
70.184798190976309
 20
107.7984450613497
 30
0.0
 42
0.0658520295855318
 50
90.0
  0
VERTEX
  5
96B
  8
0
 10
70.237325660467278
 20
107.6496225762227
 30
0.0
 42
0.1046008475216924
 70
     2
 50
296.9758878539098
  0
VERTEX
  5
96C
  8
0
 10
70.334365888260152
 20
107.5294401500495
 30
0.0
 42
0.1998248705224882
 50
296.9758878539098
  0
VERTEX
  5
96D
  8
0
 10
70.414102355764186
 20
107.5057641159845
 30
0.0
 42
0.1724524218163822
 50
90.0
  0
SEQEND
  5
96E
  8
0
  0
POLYLINE
  5
96F
  8
0
 66
     1
 10
0.0
 20
0.0
 30
0.0
  0
VERTEX
  5
970
  8
0
 10
70.414102355764115
 20
108.7317178885624
 30
0.0
 42
0.2244450920054925
 50
90.0
  0
VERTEX
  5
971
  8
0
 10
70.336736200281166
 20
108.6951466844671
 30
0.0
 42
0.0901691907520375
 50
90.0
  0
VERTEX
  5
972
  8
0
 10
70.237325660467278
 20
108.5165028022338
 30
0.0
 42
0.0470196877347411
 70
     2
 50
251.20999383284229
  0
VERTEX
  5
973
  8
0
 10
70.185198767475541
 20
108.2977971178648
 30
0.0
 42
0.035016086932325
 50
251.20999383284229
  0
VERTEX
  5
974
  8
0
 10
70.164102355763845
 20
107.996927621992
 30
0.0
 42
0.0350160869323387
 50
90.0
  0
SEQEND
  5
975
  8
0
  0
LINE
  5
976
  8
0
 10
70.414102355764157
 20
104.8422323626037
 30
0.0
 11
70.414102355764143
 21
107.5057641159845
 31
0.0
  0
POLYLINE
  5
977
  8
0
 66
     1
 10
0.0
 20
0.0
 30
0.0
  0
VERTEX
  5
978
  8
0
 10
76.364102355764089
 20
104.1344276219918
 30
0.0
 42
-0.0363338685802231
 50
90.0
  0
VERTEX
  5
979
  8
0
 10
76.343032099626015
 20
103.84485702214199
 30
0.0
 42
-0.0486020662739422
 50
90.0
  0
VERTEX
  5
97A
  8
0
 10
76.2908790510606
 20
103.6339340901492
 30
0.0
 42
-0.0918921657250572
 70
     2
 50
250.54653717521029
  0
VERTEX
  5
97B
  8
0
 10
76.187456196043527
 20
103.4544681405402
 30
0.0
 42
-0.2563706040809025
 50
90.0
  0
VERTEX
  5
97C
  8
0
 10
76.114102355763734
 20
103.4266228813799
 30
0.0
 42
-0.2196144455096618
 50
90.0
  0
SEQEND
  5
97D
  8
0
  0
POLYLINE
  5
97E
  8
0
 66
     1
 10
0.0
 20
0.0
 30
0.0
  0
VERTEX
  5
97F
  8
0
 10
76.114102355763819
 20
104.8422323626038
 30
0.0
 42
-0.2196144455096195
 50
90.0
  0
VERTEX
  5
980
  8
0
 10
76.192171743191324
 20
104.80620438457881
 30
0.0
 42
-0.0918921657250284
 50
90.0
  0
VERTEX
  5
981
  8
0
 10
76.290879051060656
 20
104.6349211538345
 30
0.0
 42
-0.0486020662739239
 70
     2
 50
289.453462824783
  0
VERTEX
  5
982
  8
0
 10
76.343032099626086
 20
104.4239982218416
 30
0.0
 42
-0.0363338685801739
 50
90.0
  0
VERTEX
  5
983
  8
0
 10
76.364102355764089
 20
104.1344276219918
 30
0.0
 42
-0.0363338685802231
 50
90.0
  0
SEQEND
  5
984
  8
0
  0
POLYLINE
  5
985
  8
0
 66
     1
 10
0.0
 20
0.0
 30
0.0
  0
VERTEX
  5
986
  8
0
 10
70.414102355764115
 20
104.8422323626038
 30
0.0
 42
0.2196144455096195
 50
90.0
  0
VERTEX
  5
987
  8
0
 10
70.33603296833661
 20
104.80620438457881
 30
0.0
 42
0.0918921657250284
 50
90.0
  0
VERTEX
  5
988
  8
0
 10
70.237325660467278
 20
104.6349211538345
 30
0.0
 42
0.0486020662739239
 70
     2
 50
250.54653717521691
  0
VERTEX
  5
989
  8
0
 10
70.185172611901848
 20
104.4239982218416
 30
0.0
 42
0.0363338685801739
 50
250.54653717521691
  0
VERTEX
  5
98A
  8
0
 10
70.164102355763845
 20
104.1344276219918
 30
0.0
 42
0.0363338685802231
 50
90.0
  0
SEQEND
  5
98B
  8
0
  0
POLYLINE
  5
98C
  8
0
 66
     1
 10
0.0
 20
0.0
 30
0.0
  0
VERTEX
  5
98D
  8
0
 10
70.164102355763845
 20
104.1344276219918
 30
0.0
 42
0.0363338685802231
 50
90.0
  0
VERTEX
  5
98E
  8
0
 10
70.185172611901905
 20
103.84485702214199
 30
0.0
 42
0.0486020662739422
 50
90.0
  0
VERTEX
  5
98F
  8
0
 10
70.237325660467334
 20
103.6339340901492
 30
0.0
 42
0.0918921657250572
 70
     2
 50
289.4534628247896
  0
VERTEX
  5
990
  8
0
 10
70.340748515484407
 20
103.4544681405402
 30
0.0
 42
0.2563706040809025
 50
289.4534628247896
  0
VERTEX
  5
991
  8
0
 10
70.4141023557642
 20
103.4266228813799
 30
0.0
 42
0.2196144455096618
 50
90.0
  0
SEQEND
  5
992
  8
0
  0
LINE
  5
993
  8
0
 10
70.414102355764172
 20
103.4266228813799
 30
0.0
 11
76.136718895403021
 21
103.4266228813799
 31
0.0
  0
LINE
  5
994
  8
0
 10
70.414102355764172
 20
112.1030543825552
 30
0.0
 11
76.114102355763563
 21
112.1030543825552
 31
0.0
  0
LINE
  5
995
  8
0
 10
70.414102355764172
 20
111.38936320022211
 30
0.0
 11
76.114102355763791
 21
111.38936320022211
 31
0.0
  0
LINE
  5
996
  8
0
 10
70.414102355764172
 20
110.6815584596103
 30
0.0
 11
76.148947925734888
 21
110.6815584596102
 31
0.0
  0
LINE
  5
997
  8
0
 10
70.414102355764172
 20
108.7317178885624
 30
0.0
 11
76.114102355763819
 21
108.7317178885624
 31
0.0
  0
LINE
  5
998
  8
0
 10
70.414102355764172
 20
107.5057641159845
 30
0.0
 11
76.136962393263474
 21
107.5057641159845
 31
0.0
  0
LINE
  5
999
  8
0
 10
70.414102355764172
 20
104.8422323626037
 30
0.0
 11
76.114103523771533
 21
104.8422323626037
 31
0.0
  0
LINE
  5
99A
  8
2
 10
72.164102355764172
 20
108.6344276219918
 30
0.0
 11
71.664102355764172
 21
108.6344276219918
 31
0.0
  0
LINE
  5
99B
  8
2
 10
69.664102355764172
 20
110.1344276219918
 30
0.0
 11
71.664102355764172
 21
108.6344276219918
 31
0.0
  0
LINE
  5
99C
  8
2
 10
69.664102355764172
 20
98.134427621991847
 30
0.0
 11
71.664102355764172
 21
99.634427621991861
 31
0.0
  0
LINE
  5
99D
  8
2
 10
71.664102355764172
 20
99.634427621991861
 30
0.0
 11
71.664102355764172
 21
108.6344276219918
 31
0.0
  0
LINE
  5
99E
  8
2
 10
72.164102355764172
 20
99.634427621991861
 30
0.0
 11
71.664102355764172
 21
99.634427621991861
 31
0.0
  0
LINE
  5
99F
  8
2
 10
72.164102355764172
 20
108.6344276219918
 30
0.0
 11
72.164102355764172
 21
99.634427621991861
 31
0.0
  0
LINE
  5
9A0
  8
0
 10
81.614102355764132
 20
109.6344276219918
 30
0.0
 11
81.614102355764146
 21
98.634427621991847
 31
0.0
  0
LINE
  5
9A1
  8
0
 10
76.914102355764143
 20
112.1344276219918
 30
0.0
 11
76.914102355764143
 21
96.13442762199179
 31
0.0
  0
LINE
  5
9A2
  8
0
 10
76.9141023557642
 20
96.134427621991847
 30
0.0
 11
77.6641023557642
 21
96.884427621991847
 31
0.0
  0
LINE
  5
9A3
  8
0
 10
81.614102355764174
 20
98.634427621991847
 30
0.0
 11
82.36410235576416
 21
99.384427621991847
 31
0.0
  0
LINE
  5
9A4
  8
0
 10
82.364102355764118
 20
108.8844276219918
 30
0.0
 11
81.614102355764132
 21
109.6344276219918
 31
0.0
  0
LINE
  5
9A5
  8
0
 10
77.664102355764172
 20
111.3844276219918
 30
0.0
 11
76.914102355764172
 21
112.1344276219918
 31
0.0
  0
LINE
  5
9A6
  8
0
 10
69.664102355764172
 20
111.3844276219918
 30
0.0
 11
70.164102355771078
 21
111.8844276219987
 31
0.0
  0
LINE
  5
9A7
  8
0
 10
77.664102355764172
 20
98.634427621991847
 30
0.0
 11
81.614102355764174
 21
98.634427621991847
 31
0.0
  0
LINE
  5
9A8
  8
0
 10
82.364102355764118
 20
108.8844276219918
 30
0.0
 11
82.364102355764189
 21
99.384427621991904
 31
0.0
  0
LINE
  5
9A9
  8
0
 10
77.664102355764172
 20
109.6344276219918
 30
0.0
 11
81.614102355764132
 21
109.6344276219918
 31
0.0
  0
LINE
  5
9AA
  8
0
 10
77.664102355764172
 20
111.3844276219918
 30
0.0
 11
77.664102355764172
 21
96.884427621991819
 31
0.0
  0
LINE
  5
9AB
  8
0
 10
76.364102355764118
 20
112.1344276219918
 30
0.0
 11
76.914102355764172
 21
112.1344276219918
 31
0.0
  0
LINE
  5
9AC
  8
0
 10
69.664102355764115
 20
96.884427621991847
 30
0.0
 11
69.664102355764172
 21
111.3844276219918
 31
0.0
  0
LINE
  5
9AD
  8
1
 10
85.164102355764214
 20
104.1344276219918
 30
0.0
 11
67.164102355764143
 21
104.1344276219918
 31
0.0
  0
LINE
  5
9AE
  8
0
 10
69.664102355764143
 20
26.884427621991868
 30
0.0
 11
70.164102355771064
 21
26.38442762198498
 31
0.0
  0
LINE
  5
9AF
  8
0
 10
76.364102355764103
 20
26.13442762199189
 30
0.0
 11
76.914102355764157
 21
26.134427621991879
 31
0.0
  0
LINE
  5
9B0
  8
0
 10
70.414102355764157
 20
30.763091127999179
 30
0.0
 11
76.136962393263474
 21
30.763091127999179
 31
0.0
  0
LINE
  5
9B1
  8
0
 10
70.414102355764157
 20
29.537137355421269
 30
0.0
 11
76.114102355763805
 21
29.537137355421279
 31
0.0
  0
LINE
  5
9B2
  8
0
 10
70.414102355764157
 20
27.587296784373439
 30
0.0
 11
76.148947925734873
 21
27.58729678437345
 31
0.0
  0
LINE
  5
9B3
  8
0
 10
70.414102355764157
 20
26.879492043761601
 30
0.0
 11
76.114102355763777
 21
26.879492043761601
 31
0.0
  0
LINE
  5
9B4
  8
0
 10
70.414102355764157
 20
26.16580086142848
 30
0.0
 11
76.114102355763563
 21
26.165800861428458
 31
0.0
  0
LINE
  5
9B5
  8
0
 10
70.414102355764143
 20
33.426622881380041
 30
0.0
 11
70.414102355764129
 21
30.763091127999179
 31
0.0
  0
POLYLINE
  5
9B6
  8
0
 66
     1
 10
0.0
 20
0.0
 30
0.0
  0
VERTEX
  5
9B7
  8
0
 10
70.414102355764101
 20
29.537137355421269
 30
0.0
 42
-0.2244450920054925
 50
90.0
  0
VERTEX
  5
9B8
  8
0
 10
70.336736200281152
 20
29.573708559516589
 30
0.0
 42
-0.0901691907520375
 50
90.0
  0
VERTEX
  5
9B9
  8
0
 10
70.237325660467263
 20
29.75235244174991
 30
0.0
 42
-0.0470196877347411
 70
     2
 50
108.7900061671577
  0
VERTEX
  5
9BA
  8
0
 10
70.185198767475526
 20
29.971058126118891
 30
0.0
 42
-0.035016086932325
 50
90.0
  0
VERTEX
  5
9BB
  8
0
 10
70.164102355763831
 20
30.271927621991761
 30
0.0
 42
-0.0350160869323387
 50
90.0
  0
SEQEND
  5
9BC
  8
0
  0
POLYLINE
  5
9BD
  8
0
 66
     1
 10
0.0
 20
0.0
 30
0.0
  0
VERTEX
  5
9BE
  8
0
 10
70.16410235576376
 20
30.271927621991761
 30
0.0
 42
-0.0519942056325265
 50
90.0
  0
VERTEX
  5
9BF
  8
0
 10
70.184798190976295
 20
30.470410182633969
 30
0.0
 42
-0.0658520295855318
 50
90.0
  0
VERTEX
  5
9C0
  8
0
 10
70.237325660467263
 20
30.619232667760969
 30
0.0
 42
-0.1046008475216924
 70
     2
 50
63.024112146090218
  0
VERTEX
  5
9C1
  8
0
 10
70.334365888260123
 20
30.739415093934159
 30
0.0
 42
-0.1998248705224882
 50
90.0
  0
VERTEX
  5
9C2
  8
0
 10
70.414102355764172
 20
30.763091127999179
 30
0.0
 42
-0.1724524218163822
 50
90.0
  0
SEQEND
  5
9C3
  8
0
  0
LINE
  5
9C4
  8
0
 10
70.414102355764129
 20
29.537137355421269
 30
0.0
 11
70.414102355764129
 21
27.58729678437345
 31
0.0
  0
POLYLINE
  5
9C5
  8
0
 66
     1
 10
0.0
 20
0.0
 30
0.0
  0
VERTEX
  5
9C6
  8
0
 10
70.164102355763816
 20
27.44438137775683
 30
0.0
 50
90.0
  0
VERTEX
  5
9C7
  8
0
 10
70.180256056487835
 20
27.494206417487408
 30
0.0
 42
-0.1065107702596174
 50
90.0
  0
VERTEX
  5
9C8
  8
0
 10
70.237325660467278
 20
27.545437830911471
 30
0.0
 42
-0.0718266842203901
 70
     2
 50
29.75494644685006
  0
VERTEX
  5
9C9
  8
0
 10
70.322688342704225
 20
27.5791290623782
 30
0.0
 42
-0.0718208819146952
 50
90.0
  0
VERTEX
  5
9CA
  8
0
 10
70.414102355764129
 20
27.587296784370199
 30
0.0
 42
-0.0581924543484093
 50
90.0
  0
SEQEND
  5
9CB
  8
0
  0
POLYLINE
  5
9CC
  8
0
 66
     1
 10
0.0
 20
0.0
 30
0.0
  0
VERTEX
  5
9CD
  8
0
 10
70.414102355764129
 20
26.87949204376163
 30
0.0
 42
-0.1903295519116534
 50
90.0
  0
VERTEX
  5
9CE
  8
0
 10
70.331728832249752
 20
26.912026860131931
 30
0.0
 42
-0.1007950070163301
 50
90.0
  0
VERTEX
  5
9CF
  8
0
 10
70.237325660467278
 20
27.04494429906887
 30
0.0
 42
-0.0589055386465863
 70
     2
 50
113.8724833526301
  0
VERTEX
  5
9D0
  8
0
 10
70.184970748987155
 20
27.2148080026362
 30
0.0
 42
-0.0453568750980548
 50
90.0
  0
VERTEX
  5
9D1
  8
0
 10
70.164102355763816
 20
27.44438137775683
 30
0.0
 42
-0.0453568750980339
 50
90.0
  0
SEQEND
  5
9D2
  8
0
  0
LINE
  5
9D3
  8
0
 10
70.414102355764129
 20
26.87949204376163
 30
0.0
 11
70.414102355764157
 21
26.165800861428501
 31
0.0
  0
POLYLINE
  5
9D4
  8
0
 66
     1
 10
0.0
 20
0.0
 30
0.0
  0
VERTEX
  5
9D5
  8
0
 10
70.164102355763831
 20
26.384427621992231
 30
0.0
 42
-0.087101949488593
 50
90.0
  0
VERTEX
  5
9D6
  8
0
 10
70.261251031792483
 20
26.367374566586211
 30
0.0
 42
-0.0930219345922933
 50
90.0
  0
VERTEX
  5
9D7
  8
0
 10
70.340879051060696
 20
26.32039332637196
 30
0.0
 42
-0.10283426098262
 70
     2
 50
318.83007557018971
  0
VERTEX
  5
9D8
  8
0
 10
70.399996452743494
 20
26.24219040828152
 30
0.0
 42
-0.1306095639862077
 50
90.0
  0
VERTEX
  5
9D9
  8
0
 10
70.414102355757123
 20
26.16580086142848
 30
0.0
 42
-0.0381262100094925
 50
90.0
  0
SEQEND
  5
9DA
  8
0
  0
POLYLINE
  5
9DB
  8
0
 66
     1
 10
0.0
 20
0.0
 30
0.0
  0
VERTEX
  5
9DC
  8
0
 10
76.364102355764146
 20
30.271927621991761
 30
0.0
 42
0.0519942056325265
 50
90.0
  0
VERTEX
  5
9DD
  8
0
 10
76.343406520551611
 20
30.470410182633969
 30
0.0
 42
0.0658520295855318
 50
90.0
  0
VERTEX
  5
9DE
  8
0
 10
76.290879051060642
 20
30.619232667760969
 30
0.0
 42
0.1046008475216924
 70
     2
 50
116.9758878539098
  0
VERTEX
  5
9DF
  8
0
 10
76.193838823267754
 20
30.739415093934159
 30
0.0
 42
0.1998248705224882
 50
90.0
  0
VERTEX
  5
9E0
  8
0
 10
76.114102355763734
 20
30.763091127999179
 30
0.0
 42
0.1724524218163822
 50
90.0
  0
SEQEND
  5
9E1
  8
0
  0
POLYLINE
  5
9E2
  8
0
 66
     1
 10
0.0
 20
0.0
 30
0.0
  0
VERTEX
  5
9E3
  8
0
 10
76.114102355763805
 20
29.537137355421269
 30
0.0
 42
0.2244450920054925
 50
90.0
  0
VERTEX
  5
9E4
  8
0
 10
76.191468511246754
 20
29.573708559516589
 30
0.0
 42
0.0901691907520375
 50
90.0
  0
VERTEX
  5
9E5
  8
0
 10
76.290879051060642
 20
29.75235244174991
 30
0.0
 42
0.0470196877347411
 70
     2
 50
71.209993832842272
  0
VERTEX
  5
9E6
  8
0
 10
76.343005944052379
 20
29.971058126118891
 30
0.0
 42
0.035016086932325
 50
90.0
  0
VERTEX
  5
9E7
  8
0
 10
76.364102355764075
 20
30.271927621991761
 30
0.0
 42
0.0350160869323387
 50
90.0
  0
SEQEND
  5
9E8
  8
0
  0
POLYLINE
  5
9E9
  8
0
 66
     1
 10
0.0
 20
0.0
 30
0.0
  0
VERTEX
  5
9EA
  8
0
 10
76.364102355764089
 20
27.44438137775683
 30
0.0
 50
90.0
  0
VERTEX
  5
9EB
  8
0
 10
76.347948655040071
 20
27.494206417487408
 30
0.0
 42
0.1065107702596174
 50
90.0
  0
VERTEX
  5
9EC
  8
0
 10
76.290879051060628
 20
27.545437830911471
 30
0.0
 42
0.0718266842203901
 70
     2
 50
150.24505355314989
  0
VERTEX
  5
9ED
  8
0
 10
76.20551636882368
 20
27.5791290623782
 30
0.0
 42
0.0718208819146952
 50
90.0
  0
VERTEX
  5
9EE
  8
0
 10
76.114102355763777
 20
27.587296784370199
 30
0.0
 42
0.0581924543484093
 50
90.0
  0
SEQEND
  5
9EF
  8
0
  0
POLYLINE
  5
9F0
  8
0
 66
     1
 10
0.0
 20
0.0
 30
0.0
  0
VERTEX
  5
9F1
  8
0
 10
76.114102355763777
 20
26.87949204376163
 30
0.0
 42
0.1903295519116534
 50
90.0
  0
VERTEX
  5
9F2
  8
0
 10
76.196475879278154
 20
26.912026860131931
 30
0.0
 42
0.1007950070163301
 50
90.0
  0
VERTEX
  5
9F3
  8
0
 10
76.290879051060628
 20
27.04494429906887
 30
0.0
 42
0.0589055386465863
 70
     2
 50
66.127516647369944
  0
VERTEX
  5
9F4
  8
0
 10
76.343233962540751
 20
27.2148080026362
 30
0.0
 42
0.0453568750980548
 50
90.0
  0
VERTEX
  5
9F5
  8
0
 10
76.364102355764089
 20
27.44438137775683
 30
0.0
 42
0.0453568750980339
 50
90.0
  0
SEQEND
  5
9F6
  8
0
  0
POLYLINE
  5
9F7
  8
0
 66
     1
 10
0.0
 20
0.0
 30
0.0
  0
VERTEX
  5
9F8
  8
0
 10
76.114102355763777
 20
26.165800861428458
 30
0.0
 50
90.0
  0
VERTEX
  5
9F9
  8
0
 10
76.217487916204604
 20
26.163115637613689
 30
0.0
 42
-0.0182285675157924
 50
90.0
  0
VERTEX
  5
9FA
  8
0
 10
76.290879051060614
 20
26.15661185234524
 30
0.0
 42
-0.0423593239487818
 70
     2
 50
352.84717547130811
  0
VERTEX
  5
9FB
  8
0
 10
76.360021704633482
 20
26.1419101512606
 30
0.0
 50
90.0
  0
VERTEX
  5
9FC
  8
0
 10
76.364102355764118
 20
26.134427621991861
 30
0.0
 50
90.0
  0
SEQEND
  5
9FD
  8
0
  0
POLYLINE
  5
9FE
  8
0
 66
     1
 10
0.0
 20
0.0
 30
0.0
  0
VERTEX
  5
9FF
  8
0
 10
76.114102355763777
 20
42.103054382555257
 30
0.0
 50
90.0
  0
VERTEX
  5
A00
  8
0
 10
76.217487916204604
 20
42.10573960637003
 30
0.0
 42
0.0182285675157924
 50
90.0
  0
VERTEX
  5
A01
  8
0
 10
76.290879051060614
 20
42.112243391638479
 30
0.0
 42
0.0423593239487818
 70
     2
 50
7.1528245286919203
  0
VERTEX
  5
A02
  8
0
 10
76.360021704633482
 20
42.126945092723133
 30
0.0
 50
7.1528245286919203
  0
VERTEX
  5
A03
  8
0
 10
76.364102355764118
 20
42.134427621991868
 30
0.0
 50
90.0
  0
SEQEND
  5
A04
  8
0
  0
POLYLINE
  5
A05
  8
0
 66
     1
 10
0.0
 20
0.0
 30
0.0
  0
VERTEX
  5
A06
  8
0
 10
76.114102355763777
 20
41.3893632002221
 30
0.0
 42
-0.1903295519116534
 50
90.0
  0
VERTEX
  5
A07
  8
0
 10
76.196475879278154
 20
41.356828383851791
 30
0.0
 42
-0.1007950070163301
 50
90.0
  0
VERTEX
  5
A08
  8
0
 10
76.290879051060628
 20
41.223910944914849
 30
0.0
 42
-0.0589055386465863
 70
     2
 50
293.87248335263001
  0
VERTEX
  5
A09
  8
0
 10
76.343233962540751
 20
41.054047241347519
 30
0.0
 42
-0.0453568750980548
 50
90.0
  0
VERTEX
  5
A0A
  8
0
 10
76.364102355764089
 20
40.824473866226889
 30
0.0
 42
-0.0453568750980339
 50
90.0
  0
SEQEND
  5
A0B
  8
0
  0
POLYLINE
  5
A0C
  8
0
 66
     1
 10
0.0
 20
0.0
 30
0.0
  0
VERTEX
  5
A0D
  8
0
 10
76.364102355764089
 20
40.824473866226889
 30
0.0
 50
90.0
  0
VERTEX
  5
A0E
  8
0
 10
76.347948655040071
 20
40.774648826496332
 30
0.0
 42
-0.1065107702596174
 50
90.0
  0
VERTEX
  5
A0F
  8
0
 10
76.290879051060628
 20
40.723417413072262
 30
0.0
 42
-0.0718266842203901
 70
     2
 50
209.75494644685
  0
VERTEX
  5
A10
  8
0
 10
76.20551636882368
 20
40.689726181605522
 30
0.0
 42
-0.0718208819146952
 50
90.0
  0
VERTEX
  5
A11
  8
0
 10
76.114102355763777
 20
40.681558459613541
 30
0.0
 42
-0.0581924543484093
 50
90.0
  0
SEQEND
  5
A12
  8
0
  0
POLYLINE
  5
A13
  8
0
 66
     1
 10
0.0
 20
0.0
 30
0.0
  0
VERTEX
  5
A14
  8
0
 10
76.114102355763805
 20
38.731717888562457
 30
0.0
 42
-0.2244450920054925
 50
90.0
  0
VERTEX
  5
A15
  8
0
 10
76.191468511246754
 20
38.695146684467147
 30
0.0
 42
-0.0901691907520375
 50
90.0
  0
VERTEX
  5
A16
  8
0
 10
76.290879051060642
 20
38.516502802233809
 30
0.0
 42
-0.0470196877347411
 70
     2
 50
288.79000616715769
  0
VERTEX
  5
A17
  8
0
 10
76.343005944052379
 20
38.297797117864832
 30
0.0
 42
-0.035016086932325
 50
90.0
  0
VERTEX
  5
A18
  8
0
 10
76.364102355764075
 20
37.996927621991972
 30
0.0
 42
-0.0350160869323387
 50
90.0
  0
SEQEND
  5
A19
  8
0
  0
POLYLINE
  5
A1A
  8
0
 66
     1
 10
0.0
 20
0.0
 30
0.0
  0
VERTEX
  5
A1B
  8
0
 10
76.364102355764146
 20
37.996927621991972
 30
0.0
 42
-0.0519942056325265
 50
90.0
  0
VERTEX
  5
A1C
  8
0
 10
76.343406520551611
 20
37.798445061349753
 30
0.0
 42
-0.0658520295855318
 50
90.0
  0
VERTEX
  5
A1D
  8
0
 10
76.290879051060642
 20
37.649622576222761
 30
0.0
 42
-0.1046008475216924
 70
     2
 50
243.0241121460902
  0
VERTEX
  5
A1E
  8
0
 10
76.193838823267754
 20
37.529440150049567
 30
0.0
 42
-0.1998248705224882
 50
90.0
  0
VERTEX
  5
A1F
  8
0
 10
76.114102355763734
 20
37.505764115984562
 30
0.0
 42
-0.1724524218163822
 50
90.0
  0
SEQEND
  5
A20
  8
0
  0
POLYLINE
  5
A21
  8
0
 66
     1
 10
0.0
 20
0.0
 30
0.0
  0
VERTEX
  5
A22
  8
0
 10
70.164102355763831
 20
41.884427621991513
 30
0.0
 42
0.087101949488593
 50
90.0
  0
VERTEX
  5
A23
  8
0
 10
70.261251031792483
 20
41.901480677397529
 30
0.0
 42
0.0930219345922933
 50
90.0
  0
VERTEX
  5
A24
  8
0
 10
70.340879051060696
 20
41.94846191761178
 30
0.0
 42
0.10283426098262
 70
     2
 50
41.169924429810322
  0
VERTEX
  5
A25
  8
0
 10
70.399996452743494
 20
42.026664835702199
 30
0.0
 42
0.1306095639862077
 50
41.169924429810322
  0
VERTEX
  5
A26
  8
0
 10
70.414102355757123
 20
42.103054382555257
 30
0.0
 42
0.0381262100094925
 50
90.0
  0
SEQEND
  5
A27
  8
0
  0
LINE
  5
A28
  8
0
 10
70.414102355764129
 20
41.3893632002221
 30
0.0
 11
70.414102355764157
 21
42.103054382555229
 31
0.0
  0
POLYLINE
  5
A29
  8
0
 66
     1
 10
0.0
 20
0.0
 30
0.0
  0
VERTEX
  5
A2A
  8
0
 10
70.414102355764129
 20
41.3893632002221
 30
0.0
 42
0.1903295519116534
 50
90.0
  0
VERTEX
  5
A2B
  8
0
 10
70.331728832249752
 20
41.356828383851791
 30
0.0
 42
0.1007950070163301
 50
90.0
  0
VERTEX
  5
A2C
  8
0
 10
70.237325660467278
 20
41.223910944914849
 30
0.0
 42
0.0589055386465863
 70
     2
 50
246.12751664736999
  0
VERTEX
  5
A2D
  8
0
 10
70.184970748987155
 20
41.054047241347519
 30
0.0
 42
0.0453568750980548
 50
246.12751664736999
  0
VERTEX
  5
A2E
  8
0
 10
70.164102355763816
 20
40.824473866226889
 30
0.0
 42
0.0453568750980339
 50
90.0
  0
SEQEND
  5
A2F
  8
0
  0
POLYLINE
  5
A30
  8
0
 66
     1
 10
0.0
 20
0.0
 30
0.0
  0
VERTEX
  5
A31
  8
0
 10
70.164102355763816
 20
40.824473866226889
 30
0.0
 50
90.0
  0
VERTEX
  5
A32
  8
0
 10
70.180256056487835
 20
40.774648826496332
 30
0.0
 42
0.1065107702596174
 50
90.0
  0
VERTEX
  5
A33
  8
0
 10
70.237325660467278
 20
40.723417413072262
 30
0.0
 42
0.0718266842203901
 70
     2
 50
330.24505355315
  0
VERTEX
  5
A34
  8
0
 10
70.322688342704225
 20
40.689726181605522
 30
0.0
 42
0.0718208819146952
 50
330.24505355315
  0
VERTEX
  5
A35
  8
0
 10
70.414102355764129
 20
40.681558459613541
 30
0.0
 42
0.0581924543484093
 50
90.0
  0
SEQEND
  5
A36
  8
0
  0
LINE
  5
A37
  8
0
 10
70.414102355764129
 20
38.731717888562457
 30
0.0
 11
70.414102355764129
 21
40.681558459610272
 31
0.0
  0
POLYLINE
  5
A38
  8
0
 66
     1
 10
0.0
 20
0.0
 30
0.0
  0
VERTEX
  5
A39
  8
0
 10
70.16410235576376
 20
37.996927621991972
 30
0.0
 42
0.0519942056325265
 50
90.0
  0
VERTEX
  5
A3A
  8
0
 10
70.184798190976295
 20
37.798445061349753
 30
0.0
 42
0.0658520295855318
 50
90.0
  0
VERTEX
  5
A3B
  8
0
 10
70.237325660467263
 20
37.649622576222761
 30
0.0
 42
0.1046008475216924
 70
     2
 50
296.9758878539098
  0
VERTEX
  5
A3C
  8
0
 10
70.334365888260123
 20
37.529440150049567
 30
0.0
 42
0.1998248705224882
 50
296.9758878539098
  0
VERTEX
  5
A3D
  8
0
 10
70.414102355764172
 20
37.505764115984562
 30
0.0
 42
0.1724524218163822
 50
90.0
  0
SEQEND
  5
A3E
  8
0
  0
POLYLINE
  5
A3F
  8
0
 66
     1
 10
0.0
 20
0.0
 30
0.0
  0
VERTEX
  5
A40
  8
0
 10
70.414102355764101
 20
38.731717888562457
 30
0.0
 42
0.2244450920054925
 50
90.0
  0
VERTEX
  5
A41
  8
0
 10
70.336736200281152
 20
38.695146684467147
 30
0.0
 42
0.0901691907520375
 50
90.0
  0
VERTEX
  5
A42
  8
0
 10
70.237325660467263
 20
38.516502802233809
 30
0.0
 42
0.0470196877347411
 70
     2
 50
251.20999383284229
  0
VERTEX
  5
A43
  8
0
 10
70.185198767475526
 20
38.297797117864832
 30
0.0
 42
0.035016086932325
 50
251.20999383284229
  0
VERTEX
  5
A44
  8
0
 10
70.164102355763831
 20
37.996927621991972
 30
0.0
 42
0.0350160869323387
 50
90.0
  0
SEQEND
  5
A45
  8
0
  0
LINE
  5
A46
  8
0
 10
70.414102355764143
 20
34.842232362603681
 30
0.0
 11
70.414102355764129
 21
37.505764115984562
 31
0.0
  0
POLYLINE
  5
A47
  8
0
 66
     1
 10
0.0
 20
0.0
 30
0.0
  0
VERTEX
  5
A48
  8
0
 10
76.364102355764075
 20
34.134427621991847
 30
0.0
 42
-0.0363338685802231
 50
90.0
  0
VERTEX
  5
A49
  8
0
 10
76.343032099626015
 20
33.84485702214198
 30
0.0
 42
-0.0486020662739422
 50
90.0
  0
VERTEX
  5
A4A
  8
0
 10
76.290879051060585
 20
33.633934090149182
 30
0.0
 42
-0.0918921657250572
 70
     2
 50
250.54653717521029
  0
VERTEX
  5
A4B
  8
0
 10
76.187456196043513
 20
33.454468140540229
 30
0.0
 42
-0.2563706040809025
 50
90.0
  0
VERTEX
  5
A4C
  8
0
 10
76.114102355763706
 20
33.426622881379963
 30
0.0
 42
-0.2196144455096618
 50
90.0
  0
SEQEND
  5
A4D
  8
0
  0
POLYLINE
  5
A4E
  8
0
 66
     1
 10
0.0
 20
0.0
 30
0.0
  0
VERTEX
  5
A4F
  8
0
 10
76.114102355763805
 20
34.842232362603802
 30
0.0
 42
-0.2196144455096195
 50
90.0
  0
VERTEX
  5
A50
  8
0
 10
76.192171743191309
 20
34.80620438457882
 30
0.0
 42
-0.0918921657250284
 50
90.0
  0
VERTEX
  5
A51
  8
0
 10
76.290879051060642
 20
34.63492115383454
 30
0.0
 42
-0.0486020662739239
 70
     2
 50
289.453462824783
  0
VERTEX
  5
A52
  8
0
 10
76.343032099626072
 20
34.4239982218416
 30
0.0
 42
-0.0363338685801739
 50
90.0
  0
VERTEX
  5
A53
  8
0
 10
76.364102355764075
 20
34.134427621991847
 30
0.0
 42
-0.0363338685802231
 50
90.0
  0
SEQEND
  5
A54
  8
0
  0
POLYLINE
  5
A55
  8
0
 66
     1
 10
0.0
 20
0.0
 30
0.0
  0
VERTEX
  5
A56
  8
0
 10
70.414102355764101
 20
34.842232362603802
 30
0.0
 42
0.2196144455096195
 50
90.0
  0
VERTEX
  5
A57
  8
0
 10
70.336032968336596
 20
34.80620438457882
 30
0.0
 42
0.0918921657250284
 50
90.0
  0
VERTEX
  5
A58
  8
0
 10
70.237325660467263
 20
34.63492115383454
 30
0.0
 42
0.0486020662739239
 70
     2
 50
250.54653717521691
  0
VERTEX
  5
A59
  8
0
 10
70.185172611901834
 20
34.4239982218416
 30
0.0
 42
0.0363338685801739
 50
250.54653717521691
  0
VERTEX
  5
A5A
  8
0
 10
70.164102355763831
 20
34.134427621991847
 30
0.0
 42
0.0363338685802231
 50
90.0
  0
SEQEND
  5
A5B
  8
0
  0
POLYLINE
  5
A5C
  8
0
 66
     1
 10
0.0
 20
0.0
 30
0.0
  0
VERTEX
  5
A5D
  8
0
 10
70.164102355763831
 20
34.134427621991847
 30
0.0
 42
0.0363338685802231
 50
90.0
  0
VERTEX
  5
A5E
  8
0
 10
70.185172611901891
 20
33.84485702214198
 30
0.0
 42
0.0486020662739422
 50
90.0
  0
VERTEX
  5
A5F
  8
0
 10
70.23732566046732
 20
33.633934090149182
 30
0.0
 42
0.0918921657250572
 70
     2
 50
289.4534628247896
  0
VERTEX
  5
A60
  8
0
 10
70.340748515484393
 20
33.454468140540229
 30
0.0
 42
0.2563706040809025
 50
289.4534628247896
  0
VERTEX
  5
A61
  8
0
 10
70.414102355764186
 20
33.426622881379963
 30
0.0
 42
0.2196144455096618
 50
90.0
  0
SEQEND
  5
A62
  8
0
  0
LINE
  5
A63
  8
0
 10
70.414102355764157
 20
33.426622881379927
 30
0.0
 11
76.136718895403007
 21
33.426622881379963
 31
0.0
  0
LINE
  5
A64
  8
0
 10
70.414102355764157
 20
42.103054382555257
 30
0.0
 11
76.114102355763563
 21
42.103054382555257
 31
0.0
  0
LINE
  5
A65
  8
0
 10
70.414102355764157
 20
41.389363200222128
 30
0.0
 11
76.114102355763777
 21
41.389363200222128
 31
0.0
  0
LINE
  5
A66
  8
0
 10
70.414102355764157
 20
40.681558459610301
 30
0.0
 11
76.148947925734873
 21
40.681558459610272
 31
0.0
  0
LINE
  5
A67
  8
0
 10
70.414102355764157
 20
38.731717888562457
 30
0.0
 11
76.114102355763805
 21
38.731717888562457
 31
0.0
  0
LINE
  5
A68
  8
0
 10
70.414102355764157
 20
37.505764115984562
 30
0.0
 11
76.136962393263474
 21
37.505764115984562
 31
0.0
  0
LINE
  5
A69
  8
0
 10
70.414102355764157
 20
34.842232362603681
 30
0.0
 11
76.114103523771519
 21
34.84223236260371
 31
0.0
  0
LINE
  5
A6A
  8
0
 10
81.614102355764132
 20
39.634427621991847
 30
0.0
 11
81.614102355764132
 21
28.634427621991851
 31
0.0
  0
LINE
  5
A6B
  8
0
 10
76.914102355764115
 20
42.134427621991847
 30
0.0
 11
76.914102355764115
 21
26.13442762199179
 31
0.0
  0
LINE
  5
A6C
  8
0
 10
76.914102355764186
 20
26.134427621991851
 30
0.0
 11
77.664102355764186
 21
26.884427621991851
 31
0.0
  0
LINE
  5
A6D
  8
0
 10
81.614102355764174
 20
28.634427621991851
 30
0.0
 11
82.36410235576416
 21
29.384427621991851
 31
0.0
  0
LINE
  5
A6E
  8
0
 10
82.364102355764118
 20
38.884427621991847
 30
0.0
 11
81.614102355764132
 21
39.634427621991847
 31
0.0
  0
LINE
  5
A6F
  8
0
 10
77.664102355764143
 20
41.384427621991847
 30
0.0
 11
76.914102355764157
 21
42.134427621991847
 31
0.0
  0
LINE
  5
A70
  8
0
 10
69.664102355764143
 20
41.384427621991847
 30
0.0
 11
70.164102355771064
 21
41.884427621998753
 31
0.0
  0
LINE
  5
A71
  8
0
 10
77.664102355764143
 20
28.634427621991851
 30
0.0
 11
81.614102355764174
 21
28.634427621991851
 31
0.0
  0
LINE
  5
A72
  8
0
 10
82.364102355764118
 20
38.884427621991847
 30
0.0
 11
82.364102355764189
 21
29.38442762199189
 31
0.0
  0
LINE
  5
A73
  8
0
 10
77.664102355764143
 20
39.634427621991847
 30
0.0
 11
81.614102355764132
 21
39.634427621991847
 31
0.0
  0
LINE
  5
A74
  8
0
 10
77.664102355764143
 20
41.384427621991847
 30
0.0
 11
77.664102355764143
 21
26.884427621991819
 31
0.0
  0
LINE
  5
A75
  8
0
 10
76.364102355764103
 20
42.134427621991847
 30
0.0
 11
76.914102355764157
 21
42.134427621991847
 31
0.0
  0
LINE
  5
A76
  8
0
 10
69.664102355764101
 20
26.884427621991851
 30
0.0
 11
69.664102355764143
 21
41.384427621991847
 31
0.0
  0
LINE
  5
A77
  8
1
 10
85.164102355764186
 20
34.134427621991883
 30
0.0
 11
67.164102355764143
 21
34.134427621991883
 31
0.0
  0
LINE
  5
A78
  8
1
 10
119.8213287694939
 20
58.634427621991819
 30
0.0
 11
119.8213287694939
 21
79.634427621991819
 31
0.0
  0
LINE
  5
A79
  8
1
 10
109.3213287694938
 20
69.134427621991804
 30
0.0
 11
130.3213287694939
 21
69.134427621991804
 31
0.0
  0
CIRCLE
  5
A7A
  8
0
 10
119.8213287694939
 20
69.134427621991804
 30
0.0
 40
8.0
  0
CIRCLE
  5
A7B
  8
0
 10
119.8213287694939
 20
69.134427621991804
 30
0.0
 40
7.2500000000000142
  0
CIRCLE
  5
A7C
  8
0
 10
119.8213287694939
 20
69.134427621991804
 30
0.0
 40
5.4999999999999849
  0
CIRCLE
  5
A7D
  8
0
 10
119.8213287694939
 20
69.134427621991804
 30
0.0
 40
4.7499999999999281
  0
LINE
  5
A7E
  8
2
 10
72.164102355764172
 20
73.634427621991861
 30
0.0
 11
72.164102355764172
 21
64.634427621991861
 31
0.0
  0
LINE
  5
A7F
  8
2
 10
71.664102355764172
 20
64.634427621991861
 30
0.0
 11
71.664102355764172
 21
73.634427621991861
 31
0.0
  0
LINE
  5
A80
  8
2
 10
69.664102355764172
 20
75.134427621991861
 30
0.0
 11
71.664102355764172
 21
73.634427621991861
 31
0.0
  0
LINE
  5
A81
  8
2
 10
72.164102355764172
 20
73.634427621991861
 30
0.0
 11
71.664102355764172
 21
73.634427621991861
 31
0.0
  0
LINE
  5
A82
  8
2
 10
72.164102355764172
 20
64.634427621991861
 30
0.0
 11
71.664102355764172
 21
64.634427621991861
 31
0.0
  0
LINE
  5
A83
  8
2
 10
69.664102355764172
 20
63.134427621991861
 30
0.0
 11
71.664102355764172
 21
64.634427621991861
 31
0.0
  0
LINE
  5
A84
  8
2
 10
72.164102355764172
 20
38.634427621991883
 30
0.0
 11
71.664102355764172
 21
38.634427621991883
 31
0.0
  0
LINE
  5
A85
  8
2
 10
69.664102355764172
 20
40.134427621991868
 30
0.0
 11
71.664102355764172
 21
38.634427621991883
 31
0.0
  0
LINE
  5
A86
  8
2
 10
71.664102355764172
 20
29.634427621991879
 30
0.0
 11
71.664102355764172
 21
38.634427621991883
 31
0.0
  0
LINE
  5
A87
  8
2
 10
72.164102355764172
 20
38.634427621991883
 30
0.0
 11
72.164102355764172
 21
29.634427621991879
 31
0.0
  0
LINE
  5
A88
  8
2
 10
69.664102355764172
 20
28.134427621991868
 30
0.0
 11
71.664102355764172
 21
29.634427621991879
 31
0.0
  0
LINE
  5
A89
  8
2
 10
72.164102355764172
 20
29.634427621991879
 30
0.0
 11
71.664102355764172
 21
29.634427621991879
 31
0.0
  0
CIRCLE
  5
A8A
  8
0
 10
29.821328769493881
 20
69.134427621991804
 30
0.0
 40
4.5
  0
CIRCLE
  5
A8B
  8
0
 10
119.8213287694939
 20
69.134427621991804
 30
0.0
 40
3.000000000000028
  0
LINE
  5
A8C
  8
0
 10
82.364102355764146
 20
101.134427621992
 30
0.0
 11
82.664102355764214
 21
101.134427621992
 31
0.0
  0
LINE
  5
A8D
  8
0
 10
82.664102355764172
 20
107.1344276219918
 30
0.0
 11
82.664102355764214
 21
101.134427621992
 31
0.0
  0
LINE
  5
A8E
  8
0
 10
82.36410235576416
 20
107.1344276219918
 30
0.0
 11
82.664102355764172
 21
107.1344276219918
 31
0.0
  0
LINE
  5
A8F
  8
0
 10
82.364102355764146
 20
31.134427621991978
 30
0.0
 11
82.664102355764214
 21
31.13442762199201
 31
0.0
  0
LINE
  5
A90
  8
0
 10
82.664102355764172
 20
37.134427621991861
 30
0.0
 11
82.664102355764214
 21
31.13442762199201
 31
0.0
  0
LINE
  5
A91
  8
0
 10
82.36410235576416
 20
37.134427621991861
 30
0.0
 11
82.664102355764172
 21
37.134427621991861
 31
0.0
  0
TEXT
  5
B47
  8
0
 62
     3
 10
0.0
 20
0.0
 30
0.0
 40
10.0
  1
FTK16T
  7
STANDARD1
  0
ENDSEC
  0
EOF
