  0
SECTION
  2
HEADER
  9
$ACADVER
  1
AC1009
  9
$INSBASE
 10
0.0
 20
0.0
 30
0.0
  9
$EXTMIN
 10
0.0
 20
-2.960436562073669
 30
0.0
  9
$EXTMAX
 10
285.5
 20
158.49999999999989
 30
0.0
  9
$LIMMIN
 10
0.0
 20
0.0
  9
$LIMMAX
 10
187.5
 20
135.0
  9
$ORTHOMODE
 70
     1
  9
$REGENMODE
 70
     1
  9
$FILLMODE
 70
     1
  9
$QTEXTMODE
 70
     0
  9
$MIRRTEXT
 70
     0
  9
$DRAGMODE
 70
     2
  9
$LTSCALE
 40
5.0
  9
$OSMODE
 70
    37
  9
$ATTMODE
 70
     1
  9
$TEXTSIZE
 40
0.2
  9
$TRACEWID
 40
0.05
  9
$TEXTSTYLE
  7
STANDARD
  9
$CLAYER
  8
0
  9
$CELTYPE
  6
BYLAYER
  9
$CECOLOR
 62
   256
  9
$DIMSCALE
 40
0.5
  9
$DIMASZ
 40
3.0
  9
$DIMEXO
 40
2.0
  9
$DIMDLI
 40
0.38
  9
$DIMRND
 40
0.0
  9
$DIMDLE
 40
0.0
  9
$DIMEXE
 40
2.0
  9
$DIMTP
 40
0.0
  9
$DIMTM
 40
0.0
  9
$DIMTXT
 40
3.2000000000000002
  9
$DIMCEN
 40
0.0
  9
$DIMTSZ
 40
0.0
  9
$DIMTOL
 70
     0
  9
$DIMLIM
 70
     0
  9
$DIMTIH
 70
     0
  9
$DIMTOH
 70
     0
  9
$DIMSE1
 70
     0
  9
$DIMSE2
 70
     0
  9
$DIMTAD
 70
     1
  9
$DIMZIN
 70
     0
  9
$DIMBLK
  1

  9
$DIMASO
 70
     1
  9
$DIMSHO
 70
     0
  9
$DIMPOST
  1

  9
$DIMAPOST
  1

  9
$DIMALT
 70
     0
  9
$DIMALTD
 70
     2
  9
$DIMALTF
 40
25.399999999999999
  9
$DIMLFAC
 40
1.0
  9
$DIMTOFL
 70
     1
  9
$DIMTVP
 40
1.6000000000000001
  9
$DIMTIX
 70
     1
  9
$DIMSOXD
 70
     0
  9
$DIMSAH
 70
     0
  9
$DIMBLK1
  1

  9
$DIMBLK2
  1

  9
$DIMSTYLE
  2
STANDARD
  9
$DIMCLRD
 70
     0
  9
$DIMCLRE
 70
     0
  9
$DIMCLRT
 70
     0
  9
$DIMTFAC
 40
1.0
  9
$DIMGAP
 40
0.09
  9
$LUNITS
 70
     2
  9
$LUPREC
 70
     4
  9
$SKETCHINC
 40
0.1
  9
$FILLETRAD
 40
0.0
  9
$AUNITS
 70
     0
  9
$AUPREC
 70
     4
  9
$MENU
  1
E:\r13\win\SUPPORT\ACAD
  9
$ELEVATION
 40
0.0
  9
$PELEVATION
 40
0.0
  9
$THICKNESS
 40
0.0
  9
$LIMCHECK
 70
     0
  9
$BLIPMODE
 70
     0
  9
$CHAMFERA
 40
0.0
  9
$CHAMFERB
 40
0.0
  9
$SKPOLY
 70
     0
  9
$TDCREATE
 40
2449839.7979282411
  9
$TDUPDATE
 40
2456840.5448681139
  9
$TDINDWG
 40
0.0252016551
  9
$TDUSRTIMER
 40
2456598.451837129
  9
$USRTIMER
 70
     1
  9
$ANGBASE
 50
0.0
  9
$ANGDIR
 70
     0
  9
$PDMODE
 70
     0
  9
$PDSIZE
 40
0.0
  9
$PLINEWID
 40
0.0
  9
$COORDS
 70
     1
  9
$SPLFRAME
 70
     0
  9
$SPLINETYPE
 70
     6
  9
$SPLINESEGS
 70
     8
  9
$ATTDIA
 70
     0
  9
$ATTREQ
 70
     1
  9
$HANDLING
 70
     1
  9
$HANDSEED
  5
802
  9
$SURFTAB1
 70
     6
  9
$SURFTAB2
 70
     6
  9
$SURFTYPE
 70
     6
  9
$SURFU
 70
     6
  9
$SURFV
 70
     6
  9
$UCSNAME
  2

  9
$UCSORG
 10
0.0
 20
0.0
 30
0.0
  9
$UCSXDIR
 10
1.0
 20
0.0
 30
0.0
  9
$UCSYDIR
 10
0.0
 20
1.0
 30
0.0
  9
$PUCSNAME
  2

  9
$PUCSORG
 10
0.0
 20
0.0
 30
0.0
  9
$PUCSXDIR
 10
1.0
 20
0.0
 30
0.0
  9
$PUCSYDIR
 10
0.0
 20
1.0
 30
0.0
  9
$USERI1
 70
     0
  9
$USERI2
 70
     1
  9
$USERI3
 70
     1
  9
$USERI4
 70
     0
  9
$USERI5
 70
     0
  9
$USERR1
 40
0.0
  9
$USERR2
 40
0.0
  9
$USERR3
 40
0.0
  9
$USERR4
 40
0.0
  9
$USERR5
 40
0.0
  9
$WORLDVIEW
 70
     1
  9
$SHADEDGE
 70
     3
  9
$SHADEDIF
 70
    70
  9
$TILEMODE
 70
     1
  9
$MAXACTVP
 70
    16
  9
$PLIMCHECK
 70
     0
  9
$PEXTMIN
 10
1.0000000000000000E+020
 20
1.0000000000000000E+020
 30
1.0000000000000000E+020
  9
$PEXTMAX
 10
-1.0000000000000000E+020
 20
-1.0000000000000000E+020
 30
-1.0000000000000000E+020
  9
$PLIMMIN
 10
0.0
 20
0.0
  9
$PLIMMAX
 10
12.0
 20
9.0
  9
$UNITMODE
 70
     0
  9
$VISRETAIN
 70
     0
  9
$PLINEGEN
 70
     0
  9
$PSLTSCALE
 70
     0
  0
ENDSEC
  0
SECTION
  2
TABLES
  0
TABLE
  2
VPORT
 70
     1
  0
VPORT
  2
*ACTIVE
 70
     0
 10
0.0
 20
0.0
 11
1.0
 21
1.0
 12
174.547983310153
 22
100.0
 13
0.0
 23
0.0
 14
5.0
 24
5.0
 15
5.0
 25
5.0
 16
0.0
 26
0.0
 36
1.0
 17
0.0
 27
0.0
 37
0.0
 40
200.0
 41
1.7454798331015291
 42
50.0
 43
0.0
 44
0.0
 50
0.0
 51
0.0
 71
     0
 72
   500
 73
     1
 74
     0
 75
     0
 76
     0
 77
     0
 78
     2
  0
ENDTAB
  0
TABLE
  2
LTYPE
 70
     4
  0
LTYPE
  2
CONTINUOUS
 70
     0
  3
Solid Line
 72
    65
 73
     0
 40
0.0
  0
LTYPE
  2
CENTER
 70
     0
  3
____ _ ____ _ ____ _ ____ _ ____ _ ____ _ ____
 72
    65
 73
     4
 40
2.0
 49
1.25
 49
-0.25
 49
0.25
 49
-0.25
  0
LTYPE
  2
HIDDEN
 70
     0
  3
_ _ _ _ _ _ _ _ _ _ _ _ _ _ _ _ _ _ _ _ _ _ _
 72
    65
 73
     2
 40
0.375
 49
0.25
 49
-0.125
  0
LTYPE
  2
PHANTOM2
 70
     0
  3
___ _ _ ___ _ _ ___ _ _ ___ _ _
 72
    65
 73
     6
 40
1.25
 49
0.625
 49
-0.125
 49
0.125
 49
-0.125
 49
0.125
 49
-0.125
  0
ENDTAB
  0
TABLE
  2
LAYER
 70
     4
  0
LAYER
  2
0
 70
     0
 62
     7
  6
CONTINUOUS
  0
LAYER
  2
1
 70
     0
 62
     1
  6
CENTER
  0
LAYER
  2
2
 70
     0
 62
     2
  6
HIDDEN
  0
LAYER
  2
3
 70
     0
 62
     3
  6
CONTINUOUS
  0
ENDTAB
  0
TABLE
  2
STYLE
 70
     2
  0
STYLE
  2
STANDARD
 70
     0
 40
0.0
 41
1.0
 50
0.0
 71
     0
 42
0.2
  3
TXT
  4
BIGFONT
  0
STYLE
  2
STANDARD1
 70
     0
 40
0.0
 41
1.0
 50
0.0
 71
     0
 42
3.0
  3
txt
  4

  0
ENDTAB
  0
TABLE
  2
VIEW
 70
     1
  0
VIEW
  2
ALL
 70
     0
 40
135.0
 10
110.4957983193277
 20
67.5
 41
0.0
 11
0.0
 21
0.0
 31
1.0
 12
0.0
 22
0.0
 32
0.0
 42
50.0
 43
0.0
 44
0.0
 50
0.0
 71
     0
  0
ENDTAB
  0
TABLE
  2
UCS
 70
     0
  0
ENDTAB
  0
TABLE
  2
APPID
 70
     4
  0
APPID
  2
ACAD
 70
     0
  0
APPID
  2
ACAD_MLEADERVER
 70
     0
  0
APPID
  2
ACAD_NAV_VCDISPLAY
 70
     0
  0
APPID
  2
ACAD_EXEMPT_FROM_CAD_STANDARDS
 70
     0
  0
ENDTAB
  0
TABLE
  2
DIMSTYLE
 70
     1
  0
DIMSTYLE
  2
STANDARD
 70
     0
  3

  4

  5

  6

  7

 40
1.0
 41
0.18
 42
0.0625
 43
0.38
 44
0.18
 45
0.0
 46
0.0
 47
0.0
 48
0.0
140
0.18
141
0.09
142
0.0
143
25.399999999999999
144
1.0
145
0.0
146
1.0
147
0.09
 71
     0
 72
     0
 73
     1
 74
     1
 75
     0
 76
     0
 77
     0
 78
     0
170
     0
171
     2
172
     0
173
     0
174
     0
175
     0
176
     0
177
     0
178
     0
  0
ENDTAB
  0
ENDSEC
  0
SECTION
  2
BLOCKS
  0
BLOCK
  8
0
  2
$MODEL_SPACE
 70
     0
 10
0.0
 20
0.0
 30
0.0
  3
$MODEL_SPACE
  1

  0
ENDBLK
  5
16E
  8
0
  0
BLOCK
 67
     1
  8
0
  2
$PAPER_SPACE
 70
     0
 10
0.0
 20
0.0
 30
0.0
  3
$PAPER_SPACE
  1

  0
ENDBLK
  5
16C
 67
     1
  8
0
  0
ENDSEC
  0
SECTION
  2
ENTITIES
  0
TEXT
  5
262
  8
0
 62
     3
 10
0.0
 20
0.0
 30
0.0
 40
10.0
  1
FTH7650T
  7
STANDARD1
  0
LINE
  5
409
  8
0
 10
50.0
 20
103.4999999999999
 30
0.0
 11
50.0
 21
153.49999999999989
 31
0.0
  0
LINE
  5
40A
  8
0
 10
126.0
 20
103.4999999999999
 30
0.0
 11
93.999999999999986
 21
103.4999999999999
 31
0.0
  0
LINE
  5
40B
  8
0
 10
126.0
 20
153.49999999999989
 30
0.0
 11
126.0
 21
103.4999999999999
 31
0.0
  0
LINE
  5
40C
  8
0
 10
126.0
 20
153.49999999999989
 30
0.0
 11
82.999999999999986
 21
153.49999999999989
 31
0.0
  0
LINE
  5
40D
  8
0
 10
82.999999999999986
 20
103.4999999999999
 30
0.0
 11
82.999999999999986
 21
153.49999999999989
 31
0.0
  0
LINE
  5
40E
  8
0
 10
92.999999999999986
 20
103.4999999999999
 30
0.0
 11
92.999999999999986
 21
153.49999999999989
 31
0.0
  0
LINE
  5
40F
  8
0
 10
84.999999999999986
 20
103.4999999999999
 30
0.0
 11
84.999999999999986
 21
153.49999999999989
 31
0.0
  0
LINE
  5
410
  8
0
 10
90.999999999999986
 20
103.4999999999999
 30
0.0
 11
90.999999999999986
 21
153.49999999999989
 31
0.0
  0
LINE
  5
411
  8
0
 10
81.999999999999986
 20
153.49999999999989
 30
0.0
 11
81.999999999999986
 21
140.99999999999989
 31
0.0
  0
LINE
  5
412
  8
0
 10
81.999999999999986
 20
140.99999999999989
 30
0.0
 11
93.999999999999986
 21
140.99999999999989
 31
0.0
  0
LINE
  5
413
  8
0
 10
93.999999999999986
 20
140.99999999999989
 30
0.0
 11
93.999999999999986
 21
128.49999999999989
 31
0.0
  0
LINE
  5
414
  8
0
 10
93.999999999999986
 20
128.49999999999989
 30
0.0
 11
81.999999999999986
 21
128.49999999999989
 31
0.0
  0
LINE
  5
415
  8
0
 10
81.999999999999986
 20
128.49999999999989
 30
0.0
 11
81.999999999999986
 21
115.9999999999999
 31
0.0
  0
LINE
  5
416
  8
0
 10
81.999999999999986
 20
115.9999999999999
 30
0.0
 11
93.999999999999986
 21
115.9999999999999
 31
0.0
  0
LINE
  5
417
  8
0
 10
93.999999999999986
 20
115.9999999999999
 30
0.0
 11
93.999999999999986
 21
103.4999999999999
 31
0.0
  0
LINE
  5
418
  8
1
 10
87.999999999999986
 20
98.499999999999943
 30
0.0
 11
87.999999999999986
 21
158.49999999999989
 31
0.0
  0
LINE
  5
419
  8
0
 10
161.5
 20
103.4999999999999
 30
0.0
 11
161.5
 21
153.49999999999989
 31
0.0
  0
LINE
  5
41A
  8
0
 10
167.5
 20
153.49999999999989
 30
0.0
 11
167.5
 21
103.4999999999999
 31
0.0
  0
LINE
  5
41B
  8
0
 10
156.0
 20
153.49999999999989
 30
0.0
 11
167.5
 21
153.49999999999989
 31
0.0
  0
LINE
  5
41C
  8
0
 10
164.5
 20
153.49999999999989
 30
0.0
 11
164.5
 21
103.4999999999999
 31
0.0
  0
LINE
  5
41D
  8
0
 10
156.0
 20
103.4999999999999
 30
0.0
 11
167.5
 21
103.4999999999999
 31
0.0
  0
LINE
  5
41E
  8
0
 10
156.0
 20
153.49999999999989
 30
0.0
 11
156.0
 21
103.4999999999999
 31
0.0
  0
LINE
  5
41F
  8
0
 10
158.0
 20
153.49999999999989
 30
0.0
 11
158.0
 21
103.4999999999999
 31
0.0
  0
LINE
  5
420
  8
0
 10
156.0
 20
128.5
 30
0.0
 11
161.5
 21
128.5
 31
0.0
  0
LINE
  5
421
  8
0
 10
156.0
 20
140.99999999999989
 30
0.0
 11
161.5
 21
140.99999999999989
 31
0.0
  0
LINE
  5
422
  8
0
 10
156.0
 20
116.0
 30
0.0
 11
161.5
 21
116.0
 31
0.0
  0
LINE
  5
423
  8
0
 10
81.999999999999986
 20
153.49999999999989
 30
0.0
 11
50.0
 21
153.49999999999989
 31
0.0
  0
LINE
  5
424
  8
0
 10
92.999999999999986
 20
103.4999999999999
 30
0.0
 11
50.0
 21
103.4999999999999
 31
0.0
  0
LINE
  5
425
  8
0
 10
123.0
 20
68.0
 30
0.0
 11
92.999999999999986
 21
68.0
 31
0.0
  0
LINE
  5
428
  8
0
 10
93.999999999999986
 20
62.0
 30
0.0
 11
126.0
 21
62.0
 31
0.0
  0
LINE
  5
429
  8
0
 10
82.999999999999986
 20
68.0
 30
0.0
 11
53.0
 21
68.0
 31
0.0
  0
LINE
  5
42B
  8
0
 10
50.0
 20
62.0
 30
0.0
 11
81.999999999999986
 21
62.0
 31
0.0
  0
LINE
  5
42C
  8
0
 10
53.0
 20
68.0
 30
0.0
 11
50.0
 21
65.0
 31
0.0
  0
LINE
  5
430
  8
0
 10
50.0
 20
65.0
 30
0.0
 11
50.0
 21
62.0
 31
0.0
  0
LINE
  5
435
  8
0
 10
82.999999999999986
 20
65.0
 30
0.0
 11
82.999999999999986
 21
71.499999999999972
 31
0.0
  0
LINE
  5
436
  8
0
 10
81.999999999999986
 20
62.0
 30
0.0
 11
82.000000000000085
 21
68.0
 31
0.0
  0
CIRCLE
  5
439
  8
0
 10
87.999999999999986
 20
68.5
 30
0.0
 40
3.0
  0
LINE
  5
43A
  8
1
 10
87.999999999999986
 20
78.499999999999972
 30
0.0
 11
87.999999999999986
 21
58.0
 31
0.0
  0
LINE
  5
43B
  8
0
 10
84.999999999999986
 20
73.499999999999972
 30
0.0
 11
90.999999999999986
 21
73.499999999999972
 31
0.0
  0
CIRCLE
  5
43C
  8
0
 10
87.999999999999986
 20
68.5
 30
0.0
 40
2.0
  0
LINE
  5
43D
  8
1
 10
81.999999999999986
 20
68.5
 30
0.0
 11
93.999999999999986
 21
68.5
 31
0.0
  0
LINE
  5
43E
  8
0
 10
84.999999999999986
 20
73.499999999999972
 30
0.0
 11
82.999999999999986
 21
71.499999999999972
 31
0.0
  0
LINE
  5
43F
  8
0
 10
92.999999999999986
 20
68.0
 30
0.0
 11
92.999999999999986
 21
71.499999999999972
 31
0.0
  0
LINE
  5
440
  8
0
 10
90.999999999999986
 20
73.499999999999972
 30
0.0
 11
92.999999999999986
 21
71.499999999999972
 31
0.0
  0
LINE
  5
441
  8
0
 10
81.999999999999986
 20
63.0
 30
0.0
 11
93.999999999999986
 21
63.0
 31
0.0
  0
LINE
  5
443
  8
0
 10
84.999999999999986
 20
63.0
 30
0.0
 11
82.999999999999986
 21
65.0
 31
0.0
  0
LINE
  5
444
  8
0
 10
93.999999999999986
 20
63.0
 30
0.0
 11
93.999999999999986
 21
62.0
 31
0.0
  0
LINE
  5
449
  8
0
 10
126.0
 20
65.0
 30
0.0
 11
123.0
 21
68.0
 31
0.0
  0
LINE
  5
44B
  8
0
 10
126.0
 20
62.0
 30
0.0
 11
126.0
 21
65.0
 31
0.0
  0
LINE
  5
44C
  8
0
 10
219.5
 20
136.5
 30
0.0
 11
214.5
 21
136.5
 31
0.0
  0
LINE
  5
44E
  8
0
 10
219.5
 20
120.5
 30
0.0
 11
214.5
 21
120.5
 31
0.0
  0
LINE
  5
450
  8
0
 10
209.5
 20
153.49999999999989
 30
0.0
 11
252.5
 21
153.49999999999989
 31
0.0
  0
LINE
  5
451
  8
0
 10
209.5
 20
103.4999999999999
 30
0.0
 11
241.5
 21
103.4999999999999
 31
0.0
  0
LINE
  5
452
  8
0
 10
226.5
 20
113.5
 30
0.0
 11
226.5
 21
108.4999999999999
 31
0.0
  0
LINE
  5
455
  8
0
 10
241.5
 20
116.0
 30
0.0
 11
241.5
 21
103.4999999999999
 31
0.0
  0
LINE
  5
456
  8
0
 10
268.5
 20
113.5
 30
0.0
 11
268.5
 21
108.4999999999999
 31
0.0
  0
LINE
  5
459
  8
0
 10
237.5
 20
148.5
 30
0.0
 11
237.5
 21
108.4999999999999
 31
0.0
  0
LINE
  5
45A
  8
0
 10
257.5
 20
148.5
 30
0.0
 11
257.5
 21
108.4999999999999
 31
0.0
  0
LINE
  5
45B
  8
1
 10
247.5
 20
98.500000000000043
 30
0.0
 11
247.5
 21
158.49999999999989
 31
0.0
  0
LINE
  5
45C
  8
0
 10
244.5
 20
103.4999999999999
 30
0.0
 11
244.5
 21
153.49999999999989
 31
0.0
  0
LINE
  5
45D
  8
0
 10
250.5
 20
103.4999999999999
 30
0.0
 11
250.5
 21
153.49999999999989
 31
0.0
  0
LINE
  5
45E
  8
0
 10
242.5
 20
103.4999999999999
 30
0.0
 11
242.5
 21
153.49999999999989
 31
0.0
  0
LINE
  5
45F
  8
0
 10
252.5
 20
103.4999999999999
 30
0.0
 11
252.5
 21
153.49999999999989
 31
0.0
  0
LINE
  5
460
  8
0
 10
285.5
 20
103.4999999999999
 30
0.0
 11
285.5
 21
153.49999999999989
 31
0.0
  0
LINE
  5
461
  8
0
 10
242.5
 20
103.4999999999999
 30
0.0
 11
285.5
 21
103.4999999999999
 31
0.0
  0
LINE
  5
462
  8
0
 10
257.5
 20
108.4999999999999
 30
0.0
 11
268.5
 21
108.4999999999999
 31
0.0
  0
LINE
  5
463
  8
0
 10
237.5
 20
108.4999999999999
 30
0.0
 11
226.5
 21
108.4999999999999
 31
0.0
  0
LINE
  5
464
  8
0
 10
253.5
 20
153.49999999999989
 30
0.0
 11
285.5
 21
153.49999999999989
 31
0.0
  0
LINE
  5
465
  8
0
 10
257.5
 20
148.5
 30
0.0
 11
268.5
 21
148.5
 31
0.0
  0
LINE
  5
466
  8
0
 10
280.5
 20
136.5
 30
0.0
 11
280.5
 21
120.5
 31
0.0
  0
ARC
  5
468
  8
0
 10
275.5
 20
113.5
 30
0.0
 40
7.0
 50
90.0
 51
180.0
  0
LINE
  5
469
  8
0
 10
275.5
 20
120.5
 30
0.0
 11
280.5
 21
120.5
 31
0.0
  0
ARC
  5
46B
  8
0
 10
275.5
 20
143.49999999999989
 30
0.0
 40
7.0
 50
180.0
 51
270.0
  0
LINE
  5
46E
  8
0
 10
275.5
 20
136.5
 30
0.0
 11
280.5
 21
136.5
 31
0.0
  0
LINE
  5
46F
  8
0
 10
268.5
 20
143.49999999999989
 30
0.0
 11
268.5
 21
148.5
 31
0.0
  0
LINE
  5
470
  8
0
 10
241.5
 20
140.99999999999989
 30
0.0
 11
241.5
 21
128.49999999999989
 31
0.0
  0
LINE
  5
471
  8
0
 10
253.5
 20
128.49999999999989
 30
0.0
 11
253.5
 21
116.0
 31
0.0
  0
LINE
  5
472
  8
0
 10
253.5
 20
116.0
 30
0.0
 11
241.5
 21
116.0
 31
0.0
  0
LINE
  5
473
  8
0
 10
241.5
 20
128.49999999999989
 30
0.0
 11
253.5
 21
128.49999999999989
 31
0.0
  0
ARC
  5
474
  8
0
 10
219.5
 20
113.5
 30
0.0
 40
7.0
 50
0.0
 51
90.0
  0
LINE
  5
475
  8
0
 10
237.5
 20
148.5
 30
0.0
 11
226.5
 21
148.5
 31
0.0
  0
LINE
  5
476
  8
0
 10
253.5
 20
153.49999999999989
 30
0.0
 11
253.5
 21
140.99999999999989
 31
0.0
  0
LINE
  5
477
  8
0
 10
253.5
 20
140.99999999999989
 30
0.0
 11
241.5
 21
140.99999999999989
 31
0.0
  0
ARC
  5
479
  8
0
 10
219.5
 20
143.49999999999989
 30
0.0
 40
7.0
 50
270.0
 51
0.0
  0
LINE
  5
47B
  8
0
 10
226.5
 20
143.49999999999989
 30
0.0
 11
226.5
 21
148.5
 31
0.0
  0
LINE
  5
47C
  8
0
 10
209.5
 20
153.49999999999989
 30
0.0
 11
209.5
 21
103.4999999999999
 31
0.0
  0
LINE
  5
47D
  8
0
 10
214.5
 20
136.5
 30
0.0
 11
214.5
 21
120.5
 31
0.0
  0
LINE
  5
47F
  8
0
 10
53.0
 20
103.4999999999999
 30
0.0
 11
53.0
 21
153.49999999999989
 31
0.0
  0
LINE
  5
480
  8
0
 10
123.0
 20
103.4999999999999
 30
0.0
 11
123.0
 21
153.49999999999989
 31
0.0
  0
LINE
  5
48A
  8
1
 10
163.0
 20
113.4999999999999
 30
0.0
 11
182.5
 21
113.4999999999999
 31
0.0
  0
LINE
  5
48B
  8
0
 10
179.5
 20
115.49999999999871
 30
0.0
 11
178.5
 21
116.49999999999871
 31
0.0
  0
LINE
  5
48C
  8
0
 10
178.5
 20
110.50000000000109
 30
0.0
 11
179.5
 21
111.50000000000109
 31
0.0
  0
LINE
  5
48D
  8
0
 10
178.5
 20
110.50000000000109
 30
0.0
 11
178.5
 21
116.49999999999871
 31
0.0
  0
LINE
  5
48E
  8
0
 10
179.5
 20
111.50000000000109
 30
0.0
 11
179.5
 21
115.49999999999871
 31
0.0
  0
LINE
  5
48F
  8
0
 10
167.5
 20
110.50000000000109
 30
0.0
 11
178.5
 21
110.50000000000109
 31
0.0
  0
LINE
  5
490
  8
3
 10
167.5
 20
111.04150000000151
 30
0.0
 11
179.0415000000005
 21
111.04150000000151
 31
0.0
  0
LINE
  5
491
  8
3
 10
167.5
 20
115.958499999998
 30
0.0
 11
179.04150000000061
 21
115.958499999998
 31
0.0
  0
LINE
  5
492
  8
0
 10
167.5
 20
116.49999999999871
 30
0.0
 11
178.5
 21
116.49999999999871
 31
0.0
  0
LINE
  5
498
  8
0
 10
167.5
 20
140.50000000000119
 30
0.0
 11
178.5
 21
140.50000000000119
 31
0.0
  0
LINE
  5
499
  8
3
 10
167.5
 20
141.0415000000018
 30
0.0
 11
179.04150000000061
 21
141.0415000000018
 31
0.0
  0
LINE
  5
49A
  8
3
 10
167.5
 20
145.95849999999831
 30
0.0
 11
179.0415000000005
 21
145.95849999999831
 31
0.0
  0
LINE
  5
49B
  8
0
 10
167.5
 20
146.49999999999881
 30
0.0
 11
178.5
 21
146.49999999999881
 31
0.0
  0
LINE
  5
49C
  8
0
 10
179.5
 20
145.49999999999881
 30
0.0
 11
179.5
 21
141.50000000000119
 31
0.0
  0
LINE
  5
49D
  8
0
 10
178.5
 20
146.49999999999881
 30
0.0
 11
178.5
 21
140.50000000000111
 31
0.0
  0
LINE
  5
49E
  8
0
 10
178.5
 20
146.49999999999881
 30
0.0
 11
179.5
 21
145.49999999999881
 31
0.0
  0
LINE
  5
49F
  8
0
 10
179.5
 20
141.50000000000119
 30
0.0
 11
178.5
 21
140.50000000000119
 31
0.0
  0
LINE
  5
4A0
  8
1
 10
163.0
 20
143.49999999999989
 30
0.0
 11
182.5
 21
143.49999999999989
 31
0.0
  0
CIRCLE
  5
4A1
  8
0
 10
275.5
 20
113.5
 30
0.0
 40
3.0
  0
CIRCLE
  5
4A2
  8
3
 10
275.5
 20
113.5
 30
0.0
 40
2.458499999999999
  0
CIRCLE
  5
4A3
  8
0
 10
275.5
 20
113.5
 30
0.0
 40
6.0
  0
CIRCLE
  5
4AE
  8
0
 10
275.5
 20
143.5
 30
0.0
 40
6.0
  0
CIRCLE
  5
4AF
  8
3
 10
275.5
 20
143.5
 30
0.0
 40
2.458499999999999
  0
CIRCLE
  5
4B0
  8
0
 10
275.5
 20
143.5
 30
0.0
 40
3.0
  0
LINE
  5
4B1
  8
1
 10
270.0
 20
113.5
 30
0.0
 11
281.0
 21
113.5
 31
0.0
  0
LINE
  5
4B2
  8
1
 10
275.5
 20
118.9999999999999
 30
0.0
 11
275.5
 21
108.0000000000001
 31
0.0
  0
LINE
  5
4B3
  8
1
 10
275.5
 20
137.99999999999969
 30
0.0
 11
275.5
 21
149.00000000000011
 31
0.0
  0
LINE
  5
4B4
  8
1
 10
269.99999999999977
 20
143.5
 30
0.0
 11
281.00000000000011
 21
143.5
 31
0.0
  0
LINE
  5
4B5
  8
1
 10
225.00000000000011
 20
143.5
 30
0.0
 11
213.9999999999998
 21
143.5
 31
0.0
  0
LINE
  5
4B6
  8
1
 10
219.5
 20
137.99999999999989
 30
0.0
 11
219.5
 21
149.00000000000011
 31
0.0
  0
LINE
  5
4B7
  8
1
 10
219.5
 20
118.9999999999999
 30
0.0
 11
219.5
 21
108.0
 31
0.0
  0
LINE
  5
4B8
  8
1
 10
225.0
 20
113.5
 30
0.0
 11
214.0
 21
113.5
 31
0.0
  0
CIRCLE
  5
4B9
  8
0
 10
219.5
 20
143.5
 30
0.0
 40
3.0
  0
CIRCLE
  5
4BA
  8
3
 10
219.5
 20
143.5
 30
0.0
 40
2.458499999999999
  0
CIRCLE
  5
4BB
  8
0
 10
219.5
 20
143.5
 30
0.0
 40
6.0
  0
CIRCLE
  5
4C6
  8
0
 10
219.5
 20
113.5
 30
0.0
 40
6.0
  0
CIRCLE
  5
4C7
  8
3
 10
219.5
 20
113.5
 30
0.0
 40
2.458499999999999
  0
CIRCLE
  5
4C8
  8
0
 10
219.5
 20
113.5
 30
0.0
 40
3.0
  0
LINE
  5
4D9
  8
1
 10
116.0
 20
66.5
 30
0.0
 11
116.0
 21
47.0
 31
0.0
  0
LINE
  5
4DA
  8
0
 10
114.00000000000119
 20
50.0
 30
0.0
 11
113.00000000000119
 21
51.0
 31
0.0
  0
LINE
  5
4DB
  8
0
 10
118.99999999999881
 20
51.0
 30
0.0
 11
117.99999999999881
 21
50.0
 31
0.0
  0
LINE
  5
4DC
  8
0
 10
118.99999999999881
 20
51.0
 30
0.0
 11
113.00000000000119
 21
51.0
 31
0.0
  0
LINE
  5
4DD
  8
0
 10
117.99999999999881
 20
50.0
 30
0.0
 11
114.00000000000119
 21
50.0
 31
0.0
  0
LINE
  5
4DE
  8
0
 10
118.99999999999881
 20
62.0
 30
0.0
 11
118.99999999999881
 21
51.0
 31
0.0
  0
LINE
  5
4DF
  8
3
 10
118.4584999999983
 20
62.0
 30
0.0
 11
118.4584999999983
 21
50.458499999999439
 31
0.0
  0
LINE
  5
4E0
  8
3
 10
113.5415000000018
 20
62.0
 30
0.0
 11
113.5415000000018
 21
50.458499999999333
 31
0.0
  0
LINE
  5
4E1
  8
0
 10
113.00000000000119
 20
62.0
 30
0.0
 11
113.00000000000119
 21
51.0
 31
0.0
  0
LINE
  5
4E2
  8
2
 10
113.00000000000119
 20
62.0
 30
0.0
 11
113.00000000000119
 21
63.5
 31
0.0
  0
LINE
  5
4E5
  8
2
 10
118.99999999999881
 20
62.0
 30
0.0
 11
118.99999999999881
 21
63.5
 31
0.0
  0
LINE
  5
4E6
  8
2
 10
110.0
 20
62.0
 30
0.0
 11
110.0
 21
63.5
 31
0.0
  0
LINE
  5
4E7
  8
2
 10
122.0
 20
62.0
 30
0.0
 11
122.0
 21
63.5
 31
0.0
  0
LINE
  5
4E8
  8
2
 10
110.0
 20
63.5
 30
0.0
 11
122.0
 21
63.5
 31
0.0
  0
LINE
  5
4E9
  8
2
 10
97.999999999999986
 20
65.0
 30
0.0
 11
97.999999999999986
 21
62.0
 31
0.0
  0
LINE
  5
4EA
  8
2
 10
97.999999999999986
 20
65.0
 30
0.0
 11
121.0
 21
65.0
 31
0.0
  0
LINE
  5
4EB
  8
2
 10
121.0
 20
65.0
 30
0.0
 11
121.0
 21
62.0
 31
0.0
  0
LINE
  5
4EC
  8
2
 10
55.0
 20
65.0
 30
0.0
 11
55.0
 21
62.0
 31
0.0
  0
LINE
  5
4ED
  8
2
 10
77.999999999999986
 20
65.0
 30
0.0
 11
55.0
 21
65.0
 31
0.0
  0
LINE
  5
4EE
  8
2
 10
77.999999999999986
 20
65.0
 30
0.0
 11
77.999999999999986
 21
62.0
 31
0.0
  0
LINE
  5
4F1
  8
1
 10
60.0
 20
66.5
 30
0.0
 11
60.0
 21
47.0
 31
0.0
  0
LINE
  5
4F2
  8
2
 10
66.0
 20
63.5
 30
0.0
 11
54.0
 21
63.5
 31
0.0
  0
LINE
  5
4F3
  8
2
 10
54.0
 20
62.0
 30
0.0
 11
54.0
 21
63.5
 31
0.0
  0
LINE
  5
4F4
  8
2
 10
66.0
 20
62.0
 30
0.0
 11
66.0
 21
63.5
 31
0.0
  0
LINE
  5
4F6
  8
2
 10
57.00000000000113
 20
62.0
 30
0.0
 11
57.00000000000113
 21
63.5
 31
0.0
  0
LINE
  5
4F9
  8
2
 10
62.999999999998728
 20
62.0
 30
0.0
 11
62.999999999998728
 21
63.5
 31
0.0
  0
LINE
  5
4FA
  8
0
 10
62.999999999998728
 20
62.0
 30
0.0
 11
62.999999999998728
 21
51.0
 31
0.0
  0
LINE
  5
4FB
  8
3
 10
62.458499999998139
 20
62.0
 30
0.0
 11
62.458499999998139
 21
50.458499999999333
 31
0.0
  0
LINE
  5
4FC
  8
3
 10
57.541500000001648
 20
62.0
 30
0.0
 11
57.541500000001648
 21
50.458499999999439
 31
0.0
  0
LINE
  5
4FD
  8
0
 10
57.00000000000113
 20
62.0
 30
0.0
 11
57.00000000000113
 21
51.0
 31
0.0
  0
LINE
  5
4FE
  8
0
 10
58.000000000001137
 20
50.0
 30
0.0
 11
61.999999999998742
 21
50.0
 31
0.0
  0
LINE
  5
4FF
  8
0
 10
57.00000000000113
 20
51.0
 30
0.0
 11
62.999999999998792
 21
51.0
 31
0.0
  0
LINE
  5
500
  8
0
 10
57.00000000000113
 20
51.0
 30
0.0
 11
58.000000000001137
 21
50.0
 31
0.0
  0
LINE
  5
501
  8
0
 10
61.999999999998742
 20
50.0
 30
0.0
 11
62.999999999998728
 21
51.0
 31
0.0
  0
LINE
  5
5FA
  8
2
 10
164.5
 20
148.5
 30
0.0
 11
167.5
 21
148.5
 31
0.0
  0
LINE
  5
5FB
  8
2
 10
164.5
 20
136.5
 30
0.0
 11
167.5
 21
136.5
 31
0.0
  0
LINE
  5
5FC
  8
2
 10
164.5
 20
120.5
 30
0.0
 11
167.5
 21
120.5
 31
0.0
  0
LINE
  5
5FD
  8
2
 10
164.5
 20
108.4999999999999
 30
0.0
 11
167.5
 21
108.4999999999999
 31
0.0
  0
LINE
  5
715
  8
2
 10
164.5
 20
148.5
 30
0.0
 11
164.5
 21
108.4999999999999
 31
0.0
  0
LINE
  5
716
  8
2
 10
167.5
 20
149.5
 30
0.0
 11
166.0
 21
149.5
 31
0.0
  0
LINE
  5
717
  8
2
 10
167.5
 20
137.5
 30
0.0
 11
166.0
 21
137.5
 31
0.0
  0
LINE
  5
718
  8
2
 10
167.5
 20
119.5
 30
0.0
 11
166.0
 21
119.5
 31
0.0
  0
LINE
  5
719
  8
2
 10
167.5
 20
107.5
 30
0.0
 11
166.0
 21
107.5
 31
0.0
  0
LINE
  5
71A
  8
2
 10
166.0
 20
149.5
 30
0.0
 11
166.0
 21
137.5
 31
0.0
  0
LINE
  5
71B
  8
2
 10
166.0
 20
119.5
 30
0.0
 11
166.0
 21
107.5
 31
0.0
  0
LINE
  5
71C
  8
2
 10
166.0
 20
110.50000000000109
 30
0.0
 11
167.5
 21
110.50000000000109
 31
0.0
  0
LINE
  5
71F
  8
2
 10
166.0
 20
116.49999999999871
 30
0.0
 11
167.5
 21
116.49999999999871
 31
0.0
  0
LINE
  5
720
  8
2
 10
166.0
 20
140.50000000000119
 30
0.0
 11
167.5
 21
140.50000000000119
 31
0.0
  0
LINE
  5
723
  8
2
 10
166.0
 20
146.49999999999881
 30
0.0
 11
167.5
 21
146.49999999999881
 31
0.0
  0
LINE
  5
724
  8
1
 10
110.5
 20
113.4999999999999
 30
0.0
 11
121.5
 21
113.4999999999999
 31
0.0
  0
LINE
  5
725
  8
1
 10
116.0
 20
118.9999999999999
 30
0.0
 11
116.0
 21
108.0
 31
0.0
  0
LINE
  5
726
  8
1
 10
116.0
 20
137.9999999999996
 30
0.0
 11
116.0
 21
149.0
 31
0.0
  0
LINE
  5
727
  8
1
 10
110.4999999999997
 20
143.49999999999989
 30
0.0
 11
121.5000000000001
 21
143.49999999999989
 31
0.0
  0
LINE
  5
728
  8
1
 10
65.500000000000085
 20
143.49999999999989
 30
0.0
 11
54.499999999999737
 21
143.49999999999989
 31
0.0
  0
LINE
  5
729
  8
1
 10
60.0
 20
137.99999999999989
 30
0.0
 11
60.0
 21
149.0
 31
0.0
  0
LINE
  5
72A
  8
1
 10
60.0
 20
118.9999999999999
 30
0.0
 11
60.0
 21
108.0
 31
0.0
  0
LINE
  5
72B
  8
1
 10
65.499999999999943
 20
113.4999999999999
 30
0.0
 11
54.5
 21
113.4999999999999
 31
0.0
  0
ENDSEC
  0
EOF
