  0
SECTION
  2
HEADER
  9
$ACADVER
  1
AC1009
  9
$INSBASE
 10
0.0
 20
0.0
 30
0.0
  9
$EXTMIN
 10
0.0
 20
-2.960436562073669
 30
0.0
  9
$EXTMAX
 10
247.4999983236192
 20
146.5000007674098
 30
0.0
  9
$LIMMIN
 10
0.0
 20
0.0
  9
$LIMMAX
 10
375.0
 20
270.0
  9
$ORTHOMODE
 70
     1
  9
$REGENMODE
 70
     1
  9
$FILLMODE
 70
     1
  9
$QTEXTMODE
 70
     0
  9
$MIRRTEXT
 70
     0
  9
$DRAGMODE
 70
     2
  9
$LTSCALE
 40
10.0
  9
$OSMODE
 70
    37
  9
$ATTMODE
 70
     1
  9
$TEXTSIZE
 40
0.2
  9
$TRACEWID
 40
0.05
  9
$TEXTSTYLE
  7
STANDARD
  9
$CLAYER
  8
0
  9
$CELTYPE
  6
BYLAYER
  9
$CECOLOR
 62
   256
  9
$DIMSCALE
 40
1.0
  9
$DIMASZ
 40
3.0
  9
$DIMEXO
 40
2.0
  9
$DIMDLI
 40
0.38
  9
$DIMRND
 40
0.0
  9
$DIMDLE
 40
0.0
  9
$DIMEXE
 40
2.0
  9
$DIMTP
 40
0.0
  9
$DIMTM
 40
0.0
  9
$DIMTXT
 40
3.2000000000000002
  9
$DIMCEN
 40
0.0
  9
$DIMTSZ
 40
0.0
  9
$DIMTOL
 70
     0
  9
$DIMLIM
 70
     0
  9
$DIMTIH
 70
     0
  9
$DIMTOH
 70
     0
  9
$DIMSE1
 70
     0
  9
$DIMSE2
 70
     0
  9
$DIMTAD
 70
     1
  9
$DIMZIN
 70
     0
  9
$DIMBLK
  1

  9
$DIMASO
 70
     1
  9
$DIMSHO
 70
     0
  9
$DIMPOST
  1

  9
$DIMAPOST
  1

  9
$DIMALT
 70
     0
  9
$DIMALTD
 70
     2
  9
$DIMALTF
 40
25.399999999999999
  9
$DIMLFAC
 40
1.0
  9
$DIMTOFL
 70
     1
  9
$DIMTVP
 40
1.6000000000000001
  9
$DIMTIX
 70
     1
  9
$DIMSOXD
 70
     0
  9
$DIMSAH
 70
     0
  9
$DIMBLK1
  1

  9
$DIMBLK2
  1

  9
$DIMSTYLE
  2
STANDARD
  9
$DIMCLRD
 70
     0
  9
$DIMCLRE
 70
     0
  9
$DIMCLRT
 70
     0
  9
$DIMTFAC
 40
1.0
  9
$DIMGAP
 40
0.09
  9
$LUNITS
 70
     2
  9
$LUPREC
 70
     4
  9
$SKETCHINC
 40
0.1
  9
$FILLETRAD
 40
0.0
  9
$AUNITS
 70
     0
  9
$AUPREC
 70
     4
  9
$MENU
  1
E:\r13\win\SUPPORT\ACAD
  9
$ELEVATION
 40
0.0
  9
$PELEVATION
 40
0.0
  9
$THICKNESS
 40
0.0
  9
$LIMCHECK
 70
     0
  9
$BLIPMODE
 70
     0
  9
$CHAMFERA
 40
0.0
  9
$CHAMFERB
 40
0.0
  9
$SKPOLY
 70
     0
  9
$TDCREATE
 40
2448436.4570483798
  9
$TDUPDATE
 40
2456840.544835798
  9
$TDINDWG
 40
0.1686679861
  9
$TDUSRTIMER
 40
0.1686679861
  9
$USRTIMER
 70
     1
  9
$ANGBASE
 50
0.0
  9
$ANGDIR
 70
     0
  9
$PDMODE
 70
     0
  9
$PDSIZE
 40
0.0
  9
$PLINEWID
 40
0.0
  9
$COORDS
 70
     1
  9
$SPLFRAME
 70
     0
  9
$SPLINETYPE
 70
     6
  9
$SPLINESEGS
 70
     8
  9
$ATTDIA
 70
     0
  9
$ATTREQ
 70
     1
  9
$HANDLING
 70
     1
  9
$HANDSEED
  5
202C
  9
$SURFTAB1
 70
     6
  9
$SURFTAB2
 70
     6
  9
$SURFTYPE
 70
     6
  9
$SURFU
 70
     6
  9
$SURFV
 70
     6
  9
$UCSNAME
  2

  9
$UCSORG
 10
0.0
 20
0.0
 30
0.0
  9
$UCSXDIR
 10
1.0
 20
0.0
 30
0.0
  9
$UCSYDIR
 10
0.0
 20
1.0
 30
0.0
  9
$PUCSNAME
  2

  9
$PUCSORG
 10
0.0
 20
0.0
 30
0.0
  9
$PUCSXDIR
 10
1.0
 20
0.0
 30
0.0
  9
$PUCSYDIR
 10
0.0
 20
1.0
 30
0.0
  9
$USERI1
 70
     0
  9
$USERI2
 70
     1
  9
$USERI3
 70
     1
  9
$USERI4
 70
     0
  9
$USERI5
 70
     0
  9
$USERR1
 40
0.0
  9
$USERR2
 40
0.0
  9
$USERR3
 40
0.0
  9
$USERR4
 40
0.0
  9
$USERR5
 40
0.0
  9
$WORLDVIEW
 70
     1
  9
$SHADEDGE
 70
     3
  9
$SHADEDIF
 70
    70
  9
$TILEMODE
 70
     1
  9
$MAXACTVP
 70
    16
  9
$PLIMCHECK
 70
     0
  9
$PEXTMIN
 10
1.0000000000000000E+020
 20
1.0000000000000000E+020
 30
1.0000000000000000E+020
  9
$PEXTMAX
 10
-1.0000000000000000E+020
 20
-1.0000000000000000E+020
 30
-1.0000000000000000E+020
  9
$PLIMMIN
 10
0.0
 20
0.0
  9
$PLIMMAX
 10
12.0
 20
9.0
  9
$UNITMODE
 70
     0
  9
$VISRETAIN
 70
     0
  9
$PLINEGEN
 70
     1
  9
$PSLTSCALE
 70
     0
  0
ENDSEC
  0
SECTION
  2
TABLES
  0
TABLE
  2
VPORT
 70
     1
  0
VPORT
  2
*ACTIVE
 70
     0
 10
0.0
 20
0.0
 11
1.0
 21
1.0
 12
174.547983310153
 22
100.0
 13
0.0
 23
0.0
 14
10.0
 24
10.0
 15
10.0
 25
10.0
 16
0.0
 26
0.0
 36
1.0
 17
0.0
 27
0.0
 37
0.0
 40
200.0
 41
1.7454798331015291
 42
50.0
 43
0.0
 44
0.0
 50
0.0
 51
0.0
 71
     0
 72
   500
 73
     1
 74
     0
 75
     0
 76
     0
 77
     0
 78
     2
  0
ENDTAB
  0
TABLE
  2
LTYPE
 70
     4
  0
LTYPE
  2
CONTINUOUS
 70
     0
  3
Solid Line
 72
    65
 73
     0
 40
0.0
  0
LTYPE
  2
CENTER
 70
     0
  3
____ _ ____ _ ____ _ ____ _ ____ _ ____ _ ____
 72
    65
 73
     4
 40
2.0
 49
1.25
 49
-0.25
 49
0.25
 49
-0.25
  0
LTYPE
  2
HIDDEN
 70
     0
  3
_ _ _ _ _ _ _ _ _ _ _ _ _ _ _ _ _ _ _ _ _ _ _
 72
    65
 73
     2
 40
0.375
 49
0.25
 49
-0.125
  0
LTYPE
  2
PHANTOM2
 70
     0
  3
___ _ _ ___ _ _ ___ _ _ ___ _ _
 72
    65
 73
     6
 40
1.25
 49
0.625
 49
-0.125
 49
0.125
 49
-0.125
 49
0.125
 49
-0.125
  0
ENDTAB
  0
TABLE
  2
LAYER
 70
     4
  0
LAYER
  2
0
 70
     0
 62
     7
  6
CONTINUOUS
  0
LAYER
  2
1
 70
     0
 62
     1
  6
CENTER
  0
LAYER
  2
2
 70
     0
 62
     2
  6
HIDDEN
  0
LAYER
  2
DEFPOINTS
 70
     0
 62
     7
  6
CONTINUOUS
  0
ENDTAB
  0
TABLE
  2
STYLE
 70
     2
  0
STYLE
  2
STANDARD
 70
     0
 40
0.0
 41
1.0
 50
0.0
 71
     0
 42
0.2
  3
TXT
  4
BIGFONT
  0
STYLE
  2
STANDARD1
 70
     0
 40
0.0
 41
1.0
 50
0.0
 71
     0
 42
3.0
  3
txt
  4

  0
ENDTAB
  0
TABLE
  2
VIEW
 70
     2
  0
VIEW
  2
ALL
 70
     0
 40
270.0
 10
220.99159663865549
 20
135.0
 41
0.0
 11
0.0
 21
0.0
 31
1.0
 12
0.0
 22
0.0
 32
0.0
 42
0.0
 43
0.0
 44
0.0
 50
0.0
 71
     0
  0
VIEW
  2
OLE1
 70
     0
 40
196.16289770010229
 10
145.44610252911309
 20
133.38296577640421
 41
303.52875554324089
 11
0.0
 21
0.0
 31
1.0
 12
0.0
 22
0.0
 32
0.0
 42
50.0
 43
0.0
 44
0.0
 50
0.0
 71
     0
  0
ENDTAB
  0
TABLE
  2
UCS
 70
     0
  0
ENDTAB
  0
TABLE
  2
APPID
 70
     4
  0
APPID
  2
ACAD
 70
     0
  0
APPID
  2
ACAD_MLEADERVER
 70
     0
  0
APPID
  2
ACAD_NAV_VCDISPLAY
 70
     0
  0
APPID
  2
ACAD_EXEMPT_FROM_CAD_STANDARDS
 70
     0
  0
ENDTAB
  0
TABLE
  2
DIMSTYLE
 70
     1
  0
DIMSTYLE
  2
STANDARD
 70
     0
  3

  4

  5

  6

  7

 40
1.0
 41
0.18
 42
0.0625
 43
0.38
 44
0.18
 45
0.0
 46
0.0
 47
0.0
 48
0.0
140
0.18
141
0.09
142
0.0
143
25.399999999999999
144
1.0
145
0.0
146
1.0
147
0.09
 71
     0
 72
     0
 73
     1
 74
     1
 75
     0
 76
     0
 77
     0
 78
     0
170
     0
171
     2
172
     0
173
     0
174
     0
175
     0
176
     0
177
     0
178
     0
  0
ENDTAB
  0
ENDSEC
  0
SECTION
  2
BLOCKS
  0
BLOCK
  8
0
  2
$MODEL_SPACE
 70
     0
 10
0.0
 20
0.0
 30
0.0
  3
$MODEL_SPACE
  1

  0
ENDBLK
  5
1C1
  8
0
  0
BLOCK
 67
     1
  8
0
  2
$PAPER_SPACE
 70
     0
 10
0.0
 20
0.0
 30
0.0
  3
$PAPER_SPACE
  1

  0
ENDBLK
  5
1BF
 67
     1
  8
0
  0
ENDSEC
  0
SECTION
  2
ENTITIES
  0
LINE
  5
A08
  8
0
 10
78.000000398606062
 20
141.5000007674098
 30
0.0
 11
78.000000398606062
 21
91.500000022351713
 31
0.0
  0
LINE
  5
A0A
  8
0
 10
81.000000424683094
 20
141.5000007674098
 30
0.0
 11
81.000000424683094
 21
129.3000000715256
 31
0.0
  0
LINE
  5
A0E
  8
0
 10
72.000000346451984
 20
91.500000022351713
 30
0.0
 11
72.000000346451984
 21
141.5000007674098
 31
0.0
  0
LINE
  5
A0F
  8
0
 10
81.000000424683094
 20
116.400000397407
 30
0.0
 11
81.000000424683094
 21
104.100000038743
 31
0.0
  0
LINE
  5
A16
  8
0
 10
69.000000320374966
 20
104.100000038743
 30
0.0
 11
69.000000320374966
 21
116.400000397407
 31
0.0
  0
LINE
  5
A19
  8
0
 10
69.000000320374966
 20
129.3000000715256
 30
0.0
 11
69.000000320374966
 21
141.5000007674098
 31
0.0
  0
LINE
  5
A1B
  8
0
 10
112.9999991506337
 20
141.5000007674098
 30
0.0
 11
69.000000320374966
 21
141.5000007674098
 31
0.0
  0
LINE
  5
A1C
  8
0
 10
112.9999991506338
 20
91.500000022351742
 30
0.0
 11
112.9999991506338
 21
141.5000007674098
 31
0.0
  0
LINE
  5
A1E
  8
0
 10
110.0000005215406
 20
91.500000022351742
 30
0.0
 11
110.0000005215406
 21
141.5000007674098
 31
0.0
  0
CIRCLE
  5
A20
  8
0
 10
103.000000372529
 20
101.5000003948807
 30
0.0
 40
6.8499999999425958
  0
CIRCLE
  5
A21
  8
0
 10
103.000000372529
 20
131.50000039488069
 30
0.0
 40
6.8500000000289978
  0
LINE
  5
A22
  8
0
 10
81.700000166893005
 20
91.500000022351742
 30
0.0
 11
112.9999991506337
 21
91.500000022351742
 31
0.0
  0
LINE
  5
A23
  8
0
 10
81.700000166893005
 20
104.100000038743
 30
0.0
 11
81.700000166893005
 21
91.500000022351742
 31
0.0
  0
LINE
  5
A24
  8
0
 10
81.700000166893005
 20
129.3000000715256
 30
0.0
 11
81.700000166893005
 21
116.400000397407
 31
0.0
  0
LINE
  5
A25
  8
0
 10
69.000000320374966
 20
129.3000000715256
 30
0.0
 11
81.700000166893005
 21
129.3000000715256
 31
0.0
  0
LINE
  5
A26
  8
0
 10
81.700000166893005
 20
116.400000397407
 30
0.0
 11
69.000000320374966
 21
116.400000397407
 31
0.0
  0
LINE
  5
A27
  8
0
 10
81.700000166893005
 20
104.100000038743
 30
0.0
 11
69.000000320374966
 21
104.100000038743
 31
0.0
  0
CIRCLE
  5
A29
  8
0
 10
103.000000372529
 20
101.5000003948807
 30
0.0
 40
3.1500000000000048
  0
CIRCLE
  5
A2A
  8
0
 10
103.000000372529
 20
131.50000039488069
 30
0.0
 40
3.1500000000000048
  0
LINE
  5
A2C
  8
0
 10
68.300000578165054
 20
128.9000007510185
 30
0.0
 11
81.000000424683094
 21
128.9000007510185
 31
0.0
  0
LINE
  5
A2D
  8
0
 10
81.000000424683094
 20
128.9000007510185
 30
0.0
 11
81.000000424683094
 21
116.6000003923545
 31
0.0
  0
LINE
  5
A32
  8
0
 10
81.000000424683094
 20
103.8000005483627
 30
0.0
 11
81.000000424683094
 21
91.500000022351742
 31
0.0
  0
LINE
  5
A33
  8
0
 10
50.0
 20
91.500000022351713
 30
0.0
 11
81.000000424683094
 21
91.500000022351742
 31
0.0
  0
LINE
  5
A35
  8
0
 10
81.000000424683094
 20
103.8000005483627
 30
0.0
 11
68.300000578165054
 21
103.8000005483627
 31
0.0
  0
LINE
  5
A39
  8
0
 10
69.000000320374966
 20
103.8000005483627
 30
0.0
 11
69.000000320374966
 21
91.500000022351742
 31
0.0
  0
LINE
  5
A3C
  8
0
 10
69.000000320374966
 20
116.6000003923545
 30
0.0
 11
69.000000320374966
 21
128.9000007510185
 31
0.0
  0
LINE
  5
A3F
  8
0
 10
53.000000491738312
 20
91.500000022351742
 30
0.0
 11
53.000000491738312
 21
141.5000007674098
 31
0.0
  0
LINE
  5
A40
  8
0
 10
50.0
 20
141.5000007674098
 30
0.0
 11
68.300000578165054
 21
141.5000007674098
 31
0.0
  0
CIRCLE
  5
A41
  8
0
 10
60.000000372529023
 20
131.50000039488069
 30
0.0
 40
6.849999999999425
  0
CIRCLE
  5
A42
  8
0
 10
60.000000372529023
 20
101.5000003948807
 30
0.0
 40
6.8499999999721686
  0
LINE
  5
A43
  8
0
 10
68.300000578165054
 20
141.5000007674098
 30
0.0
 11
68.300000578165054
 21
128.9000007510185
 31
0.0
  0
LINE
  5
A44
  8
0
 10
68.300000578165054
 20
116.6000003923545
 30
0.0
 11
68.300000578165054
 21
103.8000005483627
 31
0.0
  0
LINE
  5
A45
  8
0
 10
68.300000578165054
 20
116.6000003923545
 30
0.0
 11
81.000000424683208
 21
116.6000003923545
 31
0.0
  0
LINE
  5
A49
  8
0
 10
50.0
 20
91.500000022351742
 30
0.0
 11
50.0
 21
141.5000007674098
 31
0.0
  0
CIRCLE
  5
A4C
  8
0
 10
60.000000372529023
 20
101.5000003948807
 30
0.0
 40
3.1500000000000048
  0
CIRCLE
  5
A4D
  8
0
 10
60.000000372529023
 20
131.50000039488069
 30
0.0
 40
3.1500000000000048
  0
CIRCLE
  5
D2F
  8
0
 10
75.000000372529016
 20
56.500000134110451
 30
0.0
 40
1.9999999999527061
  0
CIRCLE
  5
D30
  8
0
 10
75.000000372529016
 20
56.500000134110451
 30
0.0
 40
3.0
  0
LINE
  5
DC1
  8
0
 10
110.0000005215406
 20
56.000000110361732
 30
0.0
 11
112.9999991506338
 21
53.000000026077039
 31
0.0
  0
LINE
  5
DC2
  8
0
 10
81.700000166893005
 20
50.0
 30
0.0
 11
112.9999991506338
 21
50.0
 31
0.0
  0
LINE
  5
DC3
  8
0
 10
81.700000166893005
 20
50.0
 30
0.0
 11
81.700000166893005
 21
56.000000110361732
 31
0.0
  0
LINE
  5
DC4
  8
0
 10
80.97913074209373
 20
56.000000110361732
 30
0.0
 11
110.0000005215406
 21
56.000000110361732
 31
0.0
  0
LINE
  5
DC5
  8
0
 10
112.9999991506338
 20
50.0
 30
0.0
 11
112.9999991506338
 21
53.000000026077039
 31
0.0
  0
LINE
  5
DC6
  8
0
 10
81.700000166893005
 20
50.500000081956351
 30
0.0
 11
68.300000578165154
 21
50.500000081956351
 31
0.0
  0
LINE
  5
DC8
  8
0
 10
50.0
 20
53.000000026077039
 30
0.0
 11
53.000000491738312
 21
56.000000110361732
 31
0.0
  0
LINE
  5
DC9
  8
0
 10
53.000000491738312
 20
56.000000110361732
 30
0.0
 11
69.000000320374966
 21
56.000000110361732
 31
0.0
  0
LINE
  5
DCA
  8
0
 10
69.000000320374966
 20
56.000000110361732
 30
0.0
 11
69.000000320374966
 21
58.50000022910536
 31
0.0
  0
LINE
  5
DCB
  8
0
 10
69.000000320374966
 20
58.50000022910536
 30
0.0
 11
72.000000346451984
 21
61.500000022351749
 31
0.0
  0
LINE
  5
DCC
  8
0
 10
72.000000346451984
 20
61.500000022351749
 30
0.0
 11
78.000000398606062
 21
61.500000022351749
 31
0.0
  0
LINE
  5
DCD
  8
0
 10
78.000000398606062
 20
61.500000022351749
 30
0.0
 11
81.000000424683094
 21
58.50000022910536
 31
0.0
  0
LINE
  5
DCE
  8
0
 10
81.000000424683094
 20
58.50000022910536
 30
0.0
 11
81.000000424683094
 21
56.500000134110451
 31
0.0
  0
ARC
  5
DCF
  8
0
 10
75.000000372529016
 20
56.500000134110451
 30
0.0
 40
6.0000000000000071
 50
270.0
 51
0.0
  0
LINE
  5
DD1
  8
0
 10
68.300000578165054
 20
50.500000081956387
 30
0.0
 11
68.300000578165054
 21
50.0
 31
0.0
  0
LINE
  5
DD2
  8
0
 10
68.300000578165054
 20
50.0
 30
0.0
 11
50.0
 21
50.0
 31
0.0
  0
LINE
  5
DD3
  8
0
 10
50.0
 20
50.0
 30
0.0
 11
50.0
 21
53.000000026077039
 31
0.0
  0
LINE
  5
EB6
  8
2
 10
63.150000013411038
 20
52.300000283867078
 30
0.0
 11
56.850000470876687
 21
52.300000283867078
 31
0.0
  0
LINE
  5
EC2
  8
2
 10
53.15000116825103
 20
56.000000110361682
 30
0.0
 11
56.850000470876687
 21
52.300000283867078
 31
0.0
  0
LINE
  5
EC3
  8
2
 10
63.150000013411038
 20
52.300000283867078
 30
0.0
 11
66.850000247359276
 21
56.000000110361682
 31
0.0
  0
LINE
  5
EC4
  8
2
 10
63.150000013411038
 20
49.999999999999957
 30
0.0
 11
63.150000013411038
 21
52.300000283867078
 31
0.0
  0
LINE
  5
EC5
  8
2
 10
56.850000470876687
 20
52.300000283867078
 30
0.0
 11
56.850000470876687
 21
49.999999999999957
 31
0.0
  0
LINE
  5
EC6
  8
0
 10
144.99999901279801
 20
129.3000000715256
 30
0.0
 11
144.99999901279801
 21
128.9000007510185
 31
0.0
  0
LINE
  5
EC7
  8
0
 10
144.99999901279801
 20
116.6000003923545
 30
0.0
 11
144.99999901279801
 21
116.400000397407
 31
0.0
  0
LINE
  5
EC8
  8
0
 10
144.99999901279801
 20
104.100000038743
 30
0.0
 11
144.99999901279801
 21
103.8000005483627
 31
0.0
  0
LINE
  5
EC9
  8
0
 10
154.49999917298541
 20
91.500000022351742
 30
0.0
 11
142.99999915063381
 21
91.500000022351713
 31
0.0
  0
LINE
  5
ECA
  8
0
 10
151.49999914690841
 20
91.500000022351742
 30
0.0
 11
151.49999914690841
 21
141.5000007674098
 31
0.0
  0
LINE
  5
ECB
  8
0
 10
154.49999917298541
 20
141.5000007674098
 30
0.0
 11
142.99999915063381
 21
141.5000007674098
 31
0.0
  0
LINE
  5
ECC
  8
0
 10
154.49999917298541
 20
141.5000007674098
 30
0.0
 11
154.49999917298541
 21
91.500000022351742
 31
0.0
  0
LINE
  5
ECD
  8
0
 10
148.49999906262369
 20
91.500000022351742
 30
0.0
 11
148.49999906262369
 21
141.5000007674098
 31
0.0
  0
LINE
  5
ED0
  8
0
 10
145.9999989438802
 20
116.400000397407
 30
0.0
 11
145.9999989438802
 21
104.100000038743
 31
0.0
  0
LINE
  5
ED1
  8
0
 10
142.99999915063381
 20
104.100000038743
 30
0.0
 11
148.4999990626238
 21
104.100000038743
 31
0.0
  0
LINE
  5
ED2
  8
0
 10
148.4999990626238
 20
116.400000397407
 30
0.0
 11
142.99999915063381
 21
116.400000397407
 31
0.0
  0
LINE
  5
ED3
  8
0
 10
142.99999915063381
 20
116.400000397407
 30
0.0
 11
142.99999915063381
 21
104.100000038743
 31
0.0
  0
LINE
  5
ED6
  8
0
 10
145.9999989438802
 20
141.5000007674098
 30
0.0
 11
145.9999989438802
 21
129.3000000715256
 31
0.0
  0
LINE
  5
ED7
  8
0
 10
142.99999915063381
 20
129.3000000715256
 30
0.0
 11
148.4999990626238
 21
129.3000000715256
 31
0.0
  0
LINE
  5
ED9
  8
0
 10
142.99999915063381
 20
141.5000007674098
 30
0.0
 11
142.99999915063381
 21
129.3000000715256
 31
0.0
  0
LINE
  5
EDC
  8
0
 10
145.9999989438802
 20
103.8000005483627
 30
0.0
 11
145.9999989438802
 21
91.500000022351742
 31
0.0
  0
LINE
  5
EDD
  8
0
 10
147.9999990388751
 20
103.8000005483627
 30
0.0
 11
147.9999990388751
 21
91.500000022351742
 31
0.0
  0
LINE
  5
EE0
  8
0
 10
147.9999990388751
 20
128.9000007510185
 30
0.0
 11
147.9999990388751
 21
116.6000003923545
 31
0.0
  0
LINE
  5
EE1
  8
0
 10
145.9999989438802
 20
128.9000007510185
 30
0.0
 11
145.9999989438802
 21
116.6000003923545
 31
0.0
  0
LINE
  5
EE4
  8
0
 10
142.99999915063381
 20
103.8000005483627
 30
0.0
 11
142.99999915063381
 21
91.500000022351742
 31
0.0
  0
LINE
  5
EE7
  8
0
 10
142.99999915063381
 20
128.9000007510185
 30
0.0
 11
142.99999915063381
 21
116.6000003923545
 31
0.0
  0
LINE
  5
EEB
  8
0
 10
148.4999990626238
 20
103.8000005483627
 30
0.0
 11
142.9999991506339
 21
103.8000005483627
 31
0.0
  0
LINE
  5
EEC
  8
0
 10
142.9999991506337
 20
116.6000003923545
 30
0.0
 11
148.4999990626238
 21
116.6000003923545
 31
0.0
  0
LINE
  5
EED
  8
0
 10
142.9999991506337
 20
128.9000007510185
 30
0.0
 11
148.4999990626238
 21
128.9000007510185
 31
0.0
  0
LINE
  5
1013
  8
2
 10
151.49999914690829
 20
106.39898005872961
 30
0.0
 11
154.4999991729853
 21
106.39898005872961
 31
0.0
  0
LINE
  5
1015
  8
2
 10
154.4999991729853
 20
126.60102073103189
 30
0.0
 11
151.49999914690829
 21
126.60102073103189
 31
0.0
  0
LINE
  5
1016
  8
2
 10
151.49999914690829
 20
96.681999899446964
 30
0.0
 11
154.4999991729853
 21
96.681999899446964
 31
0.0
  0
LINE
  5
1017
  8
2
 10
151.49999914690829
 20
136.68200086802241
 30
0.0
 11
154.4999991729853
 21
136.68200086802241
 31
0.0
  0
LINE
  5
1056
  8
0
 10
219.4999979250133
 20
129.3000000715256
 30
0.0
 11
219.4999979250133
 21
128.9000007510185
 31
0.0
  0
LINE
  5
1057
  8
0
 10
219.4999979250133
 20
116.6000003923545
 30
0.0
 11
219.4999979250133
 21
116.400000397407
 31
0.0
  0
LINE
  5
1058
  8
0
 10
219.4999979250133
 20
104.100000038743
 30
0.0
 11
219.4999979250133
 21
103.8000005483627
 31
0.0
  0
LINE
  5
1059
  8
0
 10
225.4999979771674
 20
103.8000005483627
 30
0.0
 11
225.4999979771674
 21
104.100000038743
 31
0.0
  0
LINE
  5
105A
  8
0
 10
225.4999979771674
 20
116.400000397407
 30
0.0
 11
225.4999979771674
 21
116.6000003923545
 31
0.0
  0
LINE
  5
105B
  8
0
 10
225.4999979771674
 20
128.9000007510185
 30
0.0
 11
225.4999979771674
 21
129.3000000715256
 31
0.0
  0
LINE
  5
105C
  8
0
 10
215.79999815672619
 20
91.500000022351742
 30
0.0
 11
184.49999917298541
 21
91.500000022351742
 31
0.0
  0
LINE
  5
105D
  8
0
 10
184.49999917298541
 20
141.5000007674098
 30
0.0
 11
184.49999917298541
 21
91.500000022351742
 31
0.0
  0
LINE
  5
105F
  8
0
 10
215.79999815672619
 20
141.5000007674098
 30
0.0
 11
215.79999815672619
 21
91.500000022351742
 31
0.0
  0
ARC
  5
1060
  8
0
 10
194.49999795109019
 20
131.50000039488069
 30
0.0
 40
7.0
 50
224.41530859720521
 51
0.0000000000004071
  0
LINE
  5
1061
  8
0
 10
189.4999981299041
 20
106.39898005872961
 30
0.0
 11
189.4999981299041
 21
126.60102073103189
 31
0.0
  0
ARC
  5
1062
  8
0
 10
194.49999795109019
 20
101.5000003948807
 30
0.0
 40
7.0000000000012728
 50
0.0000000000004071
 51
135.58469140279499
  0
LINE
  5
1063
  8
0
 10
201.49999823421231
 20
96.681999899446964
 30
0.0
 11
201.49999823421231
 21
101.5000007301569
 31
0.0
  0
LINE
  5
1064
  8
0
 10
212.49999817460761
 20
96.681999899446964
 30
0.0
 11
201.49999823421231
 21
96.681999899446964
 31
0.0
  0
LINE
  5
1065
  8
0
 10
212.49999817460761
 20
136.68200086802241
 30
0.0
 11
212.49999817460761
 21
96.681999899446964
 31
0.0
  0
LINE
  5
1066
  8
0
 10
201.49999823421231
 20
136.68200086802241
 30
0.0
 11
212.49999817460761
 21
136.68200086802241
 31
0.0
  0
LINE
  5
1067
  8
0
 10
201.49999823421231
 20
131.50000005960459
 30
0.0
 11
201.49999823421231
 21
136.68200086802241
 31
0.0
  0
CIRCLE
  5
1068
  8
0
 10
194.49999795109019
 20
131.50000039488069
 30
0.0
 40
3.1500000000000048
  0
CIRCLE
  5
1069
  8
0
 10
194.49999795109019
 20
101.5000003948807
 30
0.0
 40
3.1500000000000048
  0
LINE
  5
106B
  8
0
 10
228.4999980032444
 20
116.400000397407
 30
0.0
 11
215.79999815672619
 21
116.400000397407
 31
0.0
  0
LINE
  5
106C
  8
0
 10
215.79999815672619
 20
104.100000038743
 30
0.0
 11
228.49999800324451
 21
104.100000038743
 31
0.0
  0
LINE
  5
106E
  8
0
 10
215.79999815672619
 20
129.3000000715256
 30
0.0
 11
228.4999980032444
 21
129.30000007152549
 31
0.0
  0
LINE
  5
1070
  8
0
 10
228.4999980032444
 20
104.100000038743
 30
0.0
 11
228.4999980032444
 21
116.400000397407
 31
0.0
  0
LINE
  5
1073
  8
0
 10
228.4999980032444
 20
129.3000000715256
 30
0.0
 11
228.4999980032444
 21
141.5000007674098
 31
0.0
  0
LINE
  5
1075
  8
0
 10
228.4999980032444
 20
141.5000007674098
 30
0.0
 11
184.4999991729853
 21
141.5000007674098
 31
0.0
  0
LINE
  5
1076
  8
0
 10
247.4999983236192
 20
141.5000007674098
 30
0.0
 11
229.1999977454542
 21
141.5000007674098
 31
0.0
  0
LINE
  5
1077
  8
0
 10
247.4999983236192
 20
91.500000022351742
 30
0.0
 11
247.4999983236192
 21
141.5000007674098
 31
0.0
  0
LINE
  5
1079
  8
0
 10
229.1999977454542
 20
141.5000007674098
 30
0.0
 11
229.1999977454542
 21
91.500000022351742
 31
0.0
  0
ARC
  5
107A
  8
0
 10
237.49999795109019
 20
131.50000039488069
 30
0.0
 40
6.0000000000001483
 50
213.55730976193991
 51
330.00000000000068
  0
LINE
  5
107B
  8
0
 10
232.4999977275728
 20
104.81662482023241
 30
0.0
 11
232.4999977275728
 21
128.1833759695291
 31
0.0
  0
ARC
  5
107C
  8
0
 10
237.49999795109019
 20
101.5000003948807
 30
0.0
 40
6.0000000000012674
 50
29.999999999999751
 51
146.44269023806061
  0
LINE
  5
107D
  8
0
 10
244.99999884515989
 20
104.5000002905726
 30
0.0
 11
242.69615080207569
 21
104.5000002905726
 31
0.0
  0
LINE
  5
107E
  8
0
 10
244.99999884515989
 20
128.5000004991889
 30
0.0
 11
244.99999884515989
 21
104.5000002905726
 31
0.0
  0
LINE
  5
107F
  8
0
 10
242.69615080207569
 20
128.5000004991889
 30
0.0
 11
244.99999884515989
 21
128.5000004991889
 31
0.0
  0
CIRCLE
  5
1080
  8
0
 10
237.49999795109019
 20
101.5000003948807
 30
0.0
 40
3.1500000000000048
  0
CIRCLE
  5
1081
  8
0
 10
237.49999795109019
 20
131.50000039488069
 30
0.0
 40
3.1500000000000048
  0
LINE
  5
1088
  8
0
 10
216.4999978989363
 20
128.9000007510185
 30
0.0
 11
216.4999978989363
 21
116.6000003923545
 31
0.0
  0
LINE
  5
1089
  8
0
 10
216.4999978989363
 20
128.9000007510185
 30
0.0
 11
229.1999977454542
 21
128.9000007510185
 31
0.0
  0
LINE
  5
108A
  8
0
 10
216.4999978989363
 20
116.6000003923545
 30
0.0
 11
229.1999977454542
 21
116.6000003923545
 31
0.0
  0
LINE
  5
108B
  8
0
 10
216.4999978989363
 20
103.8000005483627
 30
0.0
 11
216.4999978989363
 21
91.500000022351742
 31
0.0
  0
LINE
  5
108C
  8
0
 10
229.1999977454542
 20
103.8000005483627
 30
0.0
 11
216.4999978989363
 21
103.8000005483627
 31
0.0
  0
LINE
  5
108D
  8
0
 10
216.4999978989363
 20
91.500000022351742
 30
0.0
 11
247.49999832361911
 21
91.500000022351713
 31
0.0
  0
LINE
  5
1405
  8
1
 10
60.000000242143862
 20
59.000000110361732
 30
0.0
 11
60.000000242143862
 21
47.0
 31
0.0
  0
LINE
  5
1407
  8
1
 10
81.000000372529016
 20
56.500000134110458
 30
0.0
 11
69.00000037252903
 21
56.500000134110451
 31
0.0
  0
LINE
  5
1408
  8
1
 10
103.00000123679639
 20
47.0
 30
0.0
 11
103.00000123679639
 21
59.000000110361732
 31
0.0
  0
LINE
  5
1418
  8
1
 10
75.000000372529016
 20
66.500000022351742
 30
0.0
 11
75.000000372529016
 21
45.0
 31
0.0
  0
LINE
  5
1437
  8
1
 10
69.850000372528456
 20
131.50000039488069
 30
0.0
 11
50.150000372529597
 21
131.50000039488069
 31
0.0
  0
LINE
  5
1438
  8
1
 10
60.000000372529023
 20
141.3500003948802
 30
0.0
 11
60.000000372529023
 21
121.6500003948813
 31
0.0
  0
LINE
  5
143B
  8
1
 10
103.000000372529
 20
141.35000039490981
 30
0.0
 11
103.000000372529
 21
121.6500003948517
 31
0.0
  0
LINE
  5
143C
  8
1
 10
112.850000372558
 20
131.50000039488069
 30
0.0
 11
93.150000372500031
 21
131.50000039488069
 31
0.0
  0
LINE
  5
143D
  8
1
 10
103.000000372529
 20
111.3500003948233
 30
0.0
 11
103.000000372529
 21
91.650000394938175
 31
0.0
  0
LINE
  5
143E
  8
1
 10
112.8500003724716
 20
101.5000003948807
 30
0.0
 11
93.150000372586433
 21
101.5000003948807
 31
0.0
  0
LINE
  5
143F
  8
1
 10
60.000000372529023
 20
111.3500003948529
 30
0.0
 11
60.000000372529023
 21
91.650000394908616
 31
0.0
  0
LINE
  5
1440
  8
1
 10
69.850000372501199
 20
101.5000003948807
 30
0.0
 11
50.15000037255686
 21
101.5000003948807
 31
0.0
  0
LINE
  5
1441
  8
1
 10
75.000000372528916
 20
146.5000007674098
 30
0.0
 11
75.000000372528916
 21
86.500000022351742
 31
0.0
  0
LINE
  5
1938
  8
2
 10
65.000000596046434
 20
52.000000327825511
 30
0.0
 11
65.000000596046434
 21
49.999999999999957
 31
0.0
  0
LINE
  5
193A
  8
2
 10
54.803847521543503
 20
49.999999999999957
 30
0.0
 11
54.803847521543503
 21
53.000000026076989
 31
0.0
  0
LINE
  5
193B
  8
2
 10
52.499999478459351
 20
53.000000026076982
 30
0.0
 11
64.000000432133675
 21
53.000000026076982
 31
0.0
  0
LINE
  5
193D
  8
2
 10
52.499999478459351
 20
49.999999999999957
 30
0.0
 11
52.499999478459351
 21
53.000000026076989
 31
0.0
  0
LINE
  5
1944
  8
2
 10
108.0000001937151
 20
53.000000026076982
 30
0.0
 11
108.0000001937151
 21
49.99999999999995
 31
0.0
  0
LINE
  5
1945
  8
2
 10
108.0000001937151
 20
53.000000026077032
 30
0.0
 11
85.000000149011612
 21
53.000000026077018
 31
0.0
  0
LINE
  5
1946
  8
2
 10
85.000000149011612
 20
53.000000026077018
 30
0.0
 11
85.000000149011612
 21
49.999999999999993
 31
0.0
  0
LINE
  5
1947
  8
2
 10
96.000000089406953
 20
53.000000026077018
 30
0.0
 11
96.000000089406953
 21
49.999999999999993
 31
0.0
  0
LINE
  5
1AFD
  8
1
 10
222.49999795109019
 20
146.5000007674098
 30
0.0
 11
222.49999795109019
 21
86.500000022351742
 31
0.0
  0
LINE
  5
1B00
  8
1
 10
188.34999795109019
 20
131.50000039488069
 30
0.0
 11
200.6499979510902
 21
131.50000039488069
 31
0.0
  0
LINE
  5
1B01
  8
1
 10
194.49999795109019
 20
137.65000039488081
 30
0.0
 11
194.49999795109019
 21
125.35000039488079
 31
0.0
  0
LINE
  5
1B03
  8
1
 10
237.49999795109019
 20
137.65000039488081
 30
0.0
 11
237.49999795109019
 21
125.35000039488079
 31
0.0
  0
LINE
  5
1B04
  8
1
 10
231.34999795109019
 20
131.50000039488069
 30
0.0
 11
243.6499979510902
 21
131.50000039488069
 31
0.0
  0
LINE
  5
1B05
  8
1
 10
237.49999795109019
 20
107.65000039488071
 30
0.0
 11
237.49999795109019
 21
95.350000394880766
 31
0.0
  0
LINE
  5
1B06
  8
1
 10
231.34999795109019
 20
101.5000003948807
 30
0.0
 11
243.6499979510902
 21
101.5000003948807
 31
0.0
  0
LINE
  5
1B07
  8
1
 10
194.49999795109019
 20
107.65000039488071
 30
0.0
 11
194.49999795109019
 21
95.350000394880766
 31
0.0
  0
LINE
  5
1B08
  8
1
 10
188.34999795109019
 20
101.5000003948807
 30
0.0
 11
200.6499979510902
 21
101.5000003948807
 31
0.0
  0
ARC
  5
1B11
  8
2
 10
64.000515375817486
 20
52.000514806087573
 30
0.0
 40
0.9994853526411862
 50
359.9705073629392
 51
90.029519292859604
  0
LINE
  5
1B57
  8
1
 10
145.49999906262369
 20
131.50000039488069
 30
0.0
 11
157.49999917298541
 21
131.50000039488069
 31
0.0
  0
LINE
  5
1B58
  8
2
 10
152.19999888911829
 20
128.35000062361351
 30
0.0
 11
154.49999917298541
 21
128.35000062361351
 31
0.0
  0
LINE
  5
1B59
  8
2
 10
154.49999917298541
 20
134.65000016614781
 30
0.0
 11
152.19999888911829
 21
134.65000016614781
 31
0.0
  0
LINE
  5
1B5A
  8
2
 10
152.19999888911829
 20
134.65000016614781
 30
0.0
 11
152.19999888911829
 21
128.35000062361351
 31
0.0
  0
LINE
  5
1B5B
  8
2
 10
152.19999888911829
 20
134.65000016614781
 30
0.0
 11
148.49999906262369
 21
138.34999946877349
 31
0.0
  0
LINE
  5
1B5C
  8
2
 10
148.49999906262369
 20
124.65000038966519
 30
0.0
 11
152.19999888911829
 21
128.35000062361351
 31
0.0
  0
LINE
  5
1B5D
  8
1
 10
145.49999906262369
 20
101.5000003948807
 30
0.0
 11
157.49999917298541
 21
101.5000003948808
 31
0.0
  0
LINE
  5
1B5E
  8
2
 10
152.19999888911829
 20
98.350000623613482
 30
0.0
 11
154.49999917298541
 21
98.350000623613482
 31
0.0
  0
LINE
  5
1B5F
  8
2
 10
154.49999917298541
 20
104.65000016614781
 30
0.0
 11
152.19999888911829
 21
104.65000016614781
 31
0.0
  0
LINE
  5
1B60
  8
2
 10
152.19999888911829
 20
104.65000016614781
 30
0.0
 11
152.19999888911829
 21
98.350000623613482
 31
0.0
  0
LINE
  5
1B61
  8
2
 10
152.19999888911829
 20
104.65000016614781
 30
0.0
 11
148.49999906262369
 21
108.3499994687735
 31
0.0
  0
LINE
  5
1B62
  8
2
 10
148.49999906262369
 20
94.650000389665252
 30
0.0
 11
152.19999888911829
 21
98.350000623613482
 31
0.0
  0
TEXT
  5
1CC1
  8
0
 62
     3
 10
0.0
 20
0.0
 30
0.0
 40
10.0
  1
FTH6350HC-SUS
  7
STANDARD1
  0
LINE
  5
1E53
  8
2
 10
106.150000013411
 20
52.300000283867092
 30
0.0
 11
99.850000470876694
 21
52.300000283867092
 31
0.0
  0
LINE
  5
1E54
  8
2
 10
96.150001168251038
 20
56.00000011036169
 30
0.0
 11
99.850000470876694
 21
52.300000283867092
 31
0.0
  0
LINE
  5
1E55
  8
2
 10
106.150000013411
 20
52.300000283867092
 30
0.0
 11
109.8500002473592
 21
56.00000011036169
 31
0.0
  0
LINE
  5
1E56
  8
2
 10
106.150000013411
 20
49.999999999999972
 30
0.0
 11
106.150000013411
 21
52.300000283867092
 31
0.0
  0
LINE
  5
1E57
  8
2
 10
99.850000470876694
 20
52.300000283867092
 30
0.0
 11
99.850000470876694
 21
49.999999999999972
 31
0.0
  0
LINE
  5
1ED6
  8
2
 10
151.49999917298541
 20
136.68200086802241
 30
0.0
 11
151.49999917298541
 21
96.681999899446964
 31
0.0
  0
ENDSEC
  0
EOF
