  0
SECTION
  2
HEADER
  9
$ACADVER
  1
AC1009
  9
$INSBASE
 10
0.0
 20
0.0
 30
0.0
  9
$EXTMIN
 10
0.0
 20
-2.960436562073669
 30
0.0
  9
$EXTMAX
 10
245.0
 20
160.0
 30
0.0
  9
$LIMMIN
 10
0.0
 20
0.0
  9
$LIMMAX
 10
375.0
 20
270.0
  9
$ORTHOMODE
 70
     0
  9
$REGENMODE
 70
     1
  9
$FILLMODE
 70
     1
  9
$QTEXTMODE
 70
     0
  9
$MIRRTEXT
 70
     0
  9
$DRAGMODE
 70
     2
  9
$LTSCALE
 40
10.0
  9
$OSMODE
 70
    37
  9
$ATTMODE
 70
     1
  9
$TEXTSIZE
 40
0.2
  9
$TRACEWID
 40
0.05
  9
$TEXTSTYLE
  7
STANDARD
  9
$CLAYER
  8
0
  9
$CELTYPE
  6
BYLAYER
  9
$CECOLOR
 62
   256
  9
$DIMSCALE
 40
1.0
  9
$DIMASZ
 40
3.0
  9
$DIMEXO
 40
2.0
  9
$DIMDLI
 40
0.38
  9
$DIMRND
 40
0.0
  9
$DIMDLE
 40
0.0
  9
$DIMEXE
 40
2.0
  9
$DIMTP
 40
0.0
  9
$DIMTM
 40
0.0
  9
$DIMTXT
 40
3.2000000000000002
  9
$DIMCEN
 40
0.0
  9
$DIMTSZ
 40
0.0
  9
$DIMTOL
 70
     0
  9
$DIMLIM
 70
     0
  9
$DIMTIH
 70
     0
  9
$DIMTOH
 70
     0
  9
$DIMSE1
 70
     0
  9
$DIMSE2
 70
     0
  9
$DIMTAD
 70
     1
  9
$DIMZIN
 70
     0
  9
$DIMBLK
  1

  9
$DIMASO
 70
     1
  9
$DIMSHO
 70
     0
  9
$DIMPOST
  1

  9
$DIMAPOST
  1

  9
$DIMALT
 70
     0
  9
$DIMALTD
 70
     2
  9
$DIMALTF
 40
25.399999999999999
  9
$DIMLFAC
 40
1.0
  9
$DIMTOFL
 70
     1
  9
$DIMTVP
 40
1.6000000000000001
  9
$DIMTIX
 70
     1
  9
$DIMSOXD
 70
     0
  9
$DIMSAH
 70
     0
  9
$DIMBLK1
  1

  9
$DIMBLK2
  1

  9
$DIMSTYLE
  2
STANDARD
  9
$DIMCLRD
 70
     0
  9
$DIMCLRE
 70
     0
  9
$DIMCLRT
 70
     0
  9
$DIMTFAC
 40
1.0
  9
$DIMGAP
 40
0.09
  9
$LUNITS
 70
     2
  9
$LUPREC
 70
     4
  9
$SKETCHINC
 40
0.1
  9
$FILLETRAD
 40
0.0
  9
$AUNITS
 70
     0
  9
$AUPREC
 70
     4
  9
$MENU
  1
E:\r13\win\SUPPORT\ACAD
  9
$ELEVATION
 40
0.0
  9
$PELEVATION
 40
0.0
  9
$THICKNESS
 40
0.0
  9
$LIMCHECK
 70
     0
  9
$BLIPMODE
 70
     0
  9
$CHAMFERA
 40
0.0
  9
$CHAMFERB
 40
0.0
  9
$SKPOLY
 70
     0
  9
$TDCREATE
 40
2448436.5588758108
  9
$TDUPDATE
 40
2456840.5448016669
  9
$TDINDWG
 40
0.028673912
  9
$TDUSRTIMER
 40
0.028673912
  9
$USRTIMER
 70
     1
  9
$ANGBASE
 50
0.0
  9
$ANGDIR
 70
     0
  9
$PDMODE
 70
     0
  9
$PDSIZE
 40
0.0
  9
$PLINEWID
 40
0.0
  9
$COORDS
 70
     1
  9
$SPLFRAME
 70
     0
  9
$SPLINETYPE
 70
     6
  9
$SPLINESEGS
 70
     8
  9
$ATTDIA
 70
     0
  9
$ATTREQ
 70
     1
  9
$HANDLING
 70
     1
  9
$HANDSEED
  5
5A7
  9
$SURFTAB1
 70
     6
  9
$SURFTAB2
 70
     6
  9
$SURFTYPE
 70
     6
  9
$SURFU
 70
     6
  9
$SURFV
 70
     6
  9
$UCSNAME
  2

  9
$UCSORG
 10
0.0
 20
0.0
 30
0.0
  9
$UCSXDIR
 10
1.0
 20
0.0
 30
0.0
  9
$UCSYDIR
 10
0.0
 20
1.0
 30
0.0
  9
$PUCSNAME
  2

  9
$PUCSORG
 10
0.0
 20
0.0
 30
0.0
  9
$PUCSXDIR
 10
1.0
 20
0.0
 30
0.0
  9
$PUCSYDIR
 10
0.0
 20
1.0
 30
0.0
  9
$USERI1
 70
     0
  9
$USERI2
 70
     1
  9
$USERI3
 70
     1
  9
$USERI4
 70
     0
  9
$USERI5
 70
     0
  9
$USERR1
 40
0.0
  9
$USERR2
 40
0.0
  9
$USERR3
 40
0.0
  9
$USERR4
 40
0.0
  9
$USERR5
 40
0.0
  9
$WORLDVIEW
 70
     1
  9
$SHADEDGE
 70
     3
  9
$SHADEDIF
 70
    70
  9
$TILEMODE
 70
     1
  9
$MAXACTVP
 70
    16
  9
$PLIMCHECK
 70
     0
  9
$PEXTMIN
 10
1.0000000000000000E+020
 20
1.0000000000000000E+020
 30
1.0000000000000000E+020
  9
$PEXTMAX
 10
-1.0000000000000000E+020
 20
-1.0000000000000000E+020
 30
-1.0000000000000000E+020
  9
$PLIMMIN
 10
0.0
 20
0.0
  9
$PLIMMAX
 10
12.0
 20
9.0
  9
$UNITMODE
 70
     0
  9
$VISRETAIN
 70
     0
  9
$PLINEGEN
 70
     1
  9
$PSLTSCALE
 70
     0
  0
ENDSEC
  0
SECTION
  2
TABLES
  0
TABLE
  2
VPORT
 70
     1
  0
VPORT
  2
*ACTIVE
 70
     0
 10
0.0
 20
0.0
 11
1.0
 21
1.0
 12
174.549105471535
 22
100.0
 13
0.0
 23
0.0
 14
10.0
 24
10.0
 15
10.0
 25
10.0
 16
0.0
 26
0.0
 36
1.0
 17
0.0
 27
0.0
 37
0.0
 40
200.0113263979508
 41
1.7454798331015291
 42
50.0
 43
0.0
 44
0.0
 50
0.0
 51
0.0
 71
     0
 72
   500
 73
     1
 74
     0
 75
     0
 76
     0
 77
     0
 78
     2
  0
ENDTAB
  0
TABLE
  2
LTYPE
 70
     4
  0
LTYPE
  2
CONTINUOUS
 70
     0
  3
Solid Line
 72
    65
 73
     0
 40
0.0
  0
LTYPE
  2
CENTER
 70
     0
  3
____ _ ____ _ ____ _ ____ _ ____ _ ____ _ ____
 72
    65
 73
     4
 40
2.0
 49
1.25
 49
-0.25
 49
0.25
 49
-0.25
  0
LTYPE
  2
HIDDEN
 70
     0
  3
_ _ _ _ _ _ _ _ _ _ _ _ _ _ _ _ _ _ _ _ _ _ _
 72
    65
 73
     2
 40
0.375
 49
0.25
 49
-0.125
  0
LTYPE
  2
PHANTOM2
 70
     0
  3
___ _ _ ___ _ _ ___ _ _ ___ _ _
 72
    65
 73
     6
 40
1.25
 49
0.625
 49
-0.125
 49
0.125
 49
-0.125
 49
0.125
 49
-0.125
  0
ENDTAB
  0
TABLE
  2
LAYER
 70
     3
  0
LAYER
  2
0
 70
     0
 62
     7
  6
CONTINUOUS
  0
LAYER
  2
1
 70
     0
 62
     1
  6
CENTER
  0
LAYER
  2
2
 70
     0
 62
     2
  6
HIDDEN
  0
ENDTAB
  0
TABLE
  2
STYLE
 70
     2
  0
STYLE
  2
STANDARD
 70
     0
 40
0.0
 41
1.0
 50
0.0
 71
     0
 42
0.2
  3
TXT
  4
BIGFONT
  0
STYLE
  2
STANDARD1
 70
     0
 40
0.0
 41
1.0
 50
0.0
 71
     0
 42
3.0
  3
txt
  4

  0
ENDTAB
  0
TABLE
  2
VIEW
 70
     1
  0
VIEW
  2
ALL
 70
     0
 40
270.0
 10
220.99159663865549
 20
135.0
 41
0.0
 11
0.0
 21
0.0
 31
1.0
 12
0.0
 22
0.0
 32
0.0
 42
0.0
 43
0.0
 44
0.0
 50
0.0
 71
     0
  0
ENDTAB
  0
TABLE
  2
UCS
 70
     0
  0
ENDTAB
  0
TABLE
  2
APPID
 70
     4
  0
APPID
  2
ACAD
 70
     0
  0
APPID
  2
ACAD_MLEADERVER
 70
     0
  0
APPID
  2
ACAD_NAV_VCDISPLAY
 70
     0
  0
APPID
  2
ACAD_EXEMPT_FROM_CAD_STANDARDS
 70
     0
  0
ENDTAB
  0
TABLE
  2
DIMSTYLE
 70
     1
  0
DIMSTYLE
  2
STANDARD
 70
     0
  3

  4

  5

  6

  7

 40
1.0
 41
0.18
 42
0.0625
 43
0.38
 44
0.18
 45
0.0
 46
0.0
 47
0.0
 48
0.0
140
0.18
141
0.09
142
0.0
143
25.399999999999999
144
1.0
145
0.0
146
1.0
147
0.09
 71
     0
 72
     0
 73
     1
 74
     1
 75
     0
 76
     0
 77
     0
 78
     0
170
     0
171
     2
172
     0
173
     0
174
     0
175
     0
176
     0
177
     0
178
     0
  0
ENDTAB
  0
ENDSEC
  0
SECTION
  2
BLOCKS
  0
BLOCK
  8
0
  2
$MODEL_SPACE
 70
     0
 10
0.0
 20
0.0
 30
0.0
  3
$MODEL_SPACE
  1

  0
ENDBLK
  5
179
  8
0
  0
BLOCK
 67
     1
  8
0
  2
$PAPER_SPACE
 70
     0
 10
0.0
 20
0.0
 30
0.0
  3
$PAPER_SPACE
  1

  0
ENDBLK
  5
177
 67
     1
  8
0
  0
ENDSEC
  0
SECTION
  2
ENTITIES
  0
LINE
  5
37
  8
2
 10
54.099999999999909
 20
57.999999999999993
 30
0.0
 11
57.799999999999947
 21
54.299999999999947
 31
0.0
  0
LINE
  5
38
  8
2
 10
57.799999999999947
 20
54.299999999999947
 30
0.0
 11
57.799999999999947
 21
50.0
 31
0.0
  0
LINE
  5
39
  8
2
 10
69.900000000000091
 20
57.999999999999993
 30
0.0
 11
66.200000000000045
 21
54.299999999999947
 31
0.0
  0
LINE
  5
3A
  8
2
 10
66.200000000000045
 20
54.299999999999947
 30
0.0
 11
66.200000000000045
 21
50.0
 31
0.0
  0
LINE
  5
3B
  8
2
 10
66.200000000000045
 20
54.299999999999947
 30
0.0
 11
57.799999999999947
 21
54.299999999999919
 31
0.0
  0
LINE
  5
3C
  8
2
 10
93.799999999999955
 20
54.299999999999947
 30
0.0
 11
102.2
 21
54.299999999999919
 31
0.0
  0
LINE
  5
3D
  8
2
 10
93.799999999999955
 20
54.299999999999947
 30
0.0
 11
93.799999999999955
 21
50.0
 31
0.0
  0
LINE
  5
3E
  8
2
 10
90.099999999999895
 20
57.999999999999993
 30
0.0
 11
93.799999999999955
 21
54.299999999999947
 31
0.0
  0
LINE
  5
3F
  8
2
 10
102.2
 20
54.299999999999947
 30
0.0
 11
102.2
 21
50.0
 31
0.0
  0
LINE
  5
40
  8
2
 10
105.90000000000011
 20
57.999999999999993
 30
0.0
 11
102.2
 21
54.299999999999947
 31
0.0
  0
CIRCLE
  5
41
  8
0
 10
98.0
 20
106.9999999999999
 30
0.0
 40
7.9000000000000004
  0
CIRCLE
  5
42
  8
0
 10
98.0
 20
106.9999999999999
 30
0.0
 40
4.2000000000000002
  0
CIRCLE
  5
43
  8
0
 10
62.000000000000007
 20
106.9999999999999
 30
0.0
 40
7.9000000000000004
  0
CIRCLE
  5
44
  8
0
 10
62.000000000000007
 20
106.9999999999999
 30
0.0
 40
4.2000000000000002
  0
CIRCLE
  5
45
  8
0
 10
62.000000000000021
 20
143.0
 30
0.0
 40
7.9000000000000004
  0
CIRCLE
  5
46
  8
0
 10
62.000000000000021
 20
143.0
 30
0.0
 40
4.2000000000000002
  0
CIRCLE
  5
47
  8
0
 10
98.000000000000043
 20
143.0
 30
0.0
 40
4.2000000000000002
  0
CIRCLE
  5
48
  8
0
 10
98.000000000000043
 20
143.0
 30
0.0
 40
7.9000000000000004
  0
LINE
  5
49
  8
0
 10
72.500000000000014
 20
95.000000000000014
 30
0.0
 11
72.500000000000028
 21
155.0
 31
0.0
  0
LINE
  5
4A
  8
0
 10
76.5
 20
95.000000000000014
 30
0.0
 11
76.500000000000028
 21
155.0
 31
0.0
  0
LINE
  5
4B
  8
0
 10
71.500000000000014
 20
110.0
 30
0.0
 11
71.500000000000014
 21
125.0
 31
0.0
  0
LINE
  5
4C
  8
0
 10
71.500000000000014
 20
140.0
 30
0.0
 11
71.500000000000028
 21
155.0
 31
0.0
  0
LINE
  5
4D
  8
0
 10
88.499999999999986
 20
109.9999999999999
 30
0.0
 11
88.499999999999986
 21
95.000000000000014
 31
0.0
  0
LINE
  5
4E
  8
0
 10
88.499999999999986
 20
139.99999999999989
 30
0.0
 11
88.499999999999986
 21
125.0
 31
0.0
  0
LINE
  5
4F
  8
0
 10
88.499999999999986
 20
139.99999999999989
 30
0.0
 11
71.500000000000014
 21
139.99999999999989
 31
0.0
  0
LINE
  5
50
  8
0
 10
88.499999999999986
 20
124.9999999999999
 30
0.0
 11
71.500000000000014
 21
124.9999999999999
 31
0.0
  0
LINE
  5
51
  8
0
 10
88.499999999999986
 20
109.9999999999999
 30
0.0
 11
71.500000000000014
 21
109.9999999999999
 31
0.0
  0
LINE
  5
52
  8
0
 10
83.500000000000028
 20
155.0
 30
0.0
 11
83.499999999999986
 21
95.000000000000014
 31
0.0
  0
LINE
  5
53
  8
0
 10
88.499999999999986
 20
50.999999999999993
 30
0.0
 11
71.5
 21
51.000000000000021
 31
0.0
  0
LINE
  5
54
  8
0
 10
71.500000000000014
 20
50.999999999999993
 30
0.0
 11
71.500000000000014
 21
50.0
 31
0.0
  0
LINE
  5
55
  8
0
 10
71.5
 20
50.000000000000021
 30
0.0
 11
50.0
 21
50.0
 31
0.0
  0
LINE
  5
56
  8
0
 10
50.0
 20
50.0
 30
0.0
 11
50.0
 21
53.999999999999993
 31
0.0
  0
LINE
  5
57
  8
0
 10
54.0
 20
57.999999999999993
 30
0.0
 11
50.0
 21
53.999999999999993
 31
0.0
  0
LINE
  5
58
  8
0
 10
54.0
 20
57.999999999999993
 30
0.0
 11
72.5
 21
57.999999999999993
 31
0.0
  0
LINE
  5
59
  8
0
 10
72.5
 20
57.999999999999993
 30
0.0
 11
72.5
 21
60.999999999999993
 31
0.0
  0
LINE
  5
5A
  8
0
 10
76.5
 20
65.0
 30
0.0
 11
72.5
 21
60.999999999999993
 31
0.0
  0
LINE
  5
5B
  8
0
 10
88.499999999999986
 20
50.0
 30
0.0
 11
110.0
 21
50.0
 31
0.0
  0
ARC
  5
5C
  8
0
 10
80.0
 20
58.499999999999993
 30
0.0
 40
7.4999999999999849
 50
270.0
 51
0.0
  0
LINE
  5
5D
  8
0
 10
106.0
 20
57.999999999999993
 30
0.0
 11
110.0
 21
53.999999999999993
 31
0.0
  0
LINE
  5
5E
  8
0
 10
83.499999999999986
 20
65.0
 30
0.0
 11
87.5
 21
60.999999999999993
 31
0.0
  0
CIRCLE
  5
5F
  8
0
 10
80.0
 20
58.499999999999993
 30
0.0
 40
4.0
  0
LINE
  5
60
  8
0
 10
83.499999999999986
 20
65.0
 30
0.0
 11
76.5
 21
65.0
 31
0.0
  0
LINE
  5
61
  8
0
 10
87.5
 20
57.999999999999993
 30
0.0
 11
87.5
 21
60.999999999999993
 31
0.0
  0
LINE
  5
62
  8
0
 10
106.0
 20
57.999999999999993
 30
0.0
 11
87.5
 21
57.999999999999993
 31
0.0
  0
LINE
  5
63
  8
0
 10
110.0
 20
50.0
 30
0.0
 11
110.0
 21
53.999999999999993
 31
0.0
  0
LINE
  5
64
  8
0
 10
87.500000000000028
 20
155.0
 30
0.0
 11
87.5
 21
95.000000000000014
 31
0.0
  0
LINE
  5
65
  8
0
 10
106.0
 20
155.0
 30
0.0
 11
106.0
 21
95.000000000000014
 31
0.0
  0
LINE
  5
66
  8
0
 10
110.0
 20
95.000000000000014
 30
0.0
 11
88.499999999999986
 21
95.000000000000014
 31
0.0
  0
LINE
  5
67
  8
0
 10
50.000000000000007
 20
95.000000000000014
 30
0.0
 11
50.000000000000028
 21
155.0
 31
0.0
  0
LINE
  5
68
  8
0
 10
50.000000000000028
 20
155.0
 30
0.0
 11
71.500000000000043
 21
155.0
 31
0.0
  0
LINE
  5
69
  8
0
 10
110.0
 20
155.0
 30
0.0
 11
110.0
 21
95.000000000000014
 31
0.0
  0
LINE
  5
6A
  8
0
 10
245.0
 20
94.999999999999943
 30
0.0
 11
245.0
 21
154.99999999999989
 31
0.0
  0
LINE
  5
6B
  8
0
 10
185.0
 20
95.0
 30
0.0
 11
206.5
 21
95.0
 31
0.0
  0
LINE
  5
6C
  8
0
 10
185.0
 20
155.0
 30
0.0
 11
185.0
 21
95.0
 31
0.0
  0
LINE
  5
6D
  8
0
 10
245.0
 20
154.99999999999989
 30
0.0
 11
223.5
 21
155.0
 31
0.0
  0
LINE
  5
6E
  8
0
 10
223.5
 20
140.0
 30
0.0
 11
206.5
 21
140.0
 31
0.0
  0
LINE
  5
6F
  8
0
 10
223.5
 20
125.0
 30
0.0
 11
206.5
 21
125.0
 31
0.0
  0
LINE
  5
70
  8
0
 10
223.5
 20
110.0
 30
0.0
 11
206.5
 21
110.0
 31
0.0
  0
CIRCLE
  5
71
  8
0
 10
197.0
 20
143.00000000000011
 30
0.0
 40
4.2000000000000002
  0
LINE
  5
72
  8
0
 10
54.000000000000028
 20
155.0
 30
0.0
 11
54.000000000000021
 21
95.000000000000014
 31
0.0
  0
LINE
  5
73
  8
1
 10
72.90000000000002
 20
106.9999999999999
 30
0.0
 11
51.100000000000009
 21
106.9999999999999
 31
0.0
  0
LINE
  5
74
  8
1
 10
62.000000000000007
 20
117.89999999999981
 30
0.0
 11
62.000000000000007
 21
96.099999999999866
 31
0.0
  0
LINE
  5
75
  8
1
 10
62.000000000000021
 20
153.90000000000001
 30
0.0
 11
62.000000000000007
 21
132.09999999999999
 31
0.0
  0
LINE
  5
76
  8
1
 10
72.900000000000034
 20
143.0
 30
0.0
 11
51.100000000000023
 21
143.0
 31
0.0
  0
LINE
  5
77
  8
1
 10
98.0
 20
117.89999999999981
 30
0.0
 11
98.0
 21
96.099999999999866
 31
0.0
  0
LINE
  5
78
  8
1
 10
108.90000000000001
 20
106.9999999999999
 30
0.0
 11
87.099999999999994
 21
106.9999999999999
 31
0.0
  0
LINE
  5
79
  8
1
 10
98.000000000000043
 20
153.90000000000001
 30
0.0
 11
98.0
 21
132.09999999999999
 31
0.0
  0
LINE
  5
7A
  8
1
 10
108.90000000000001
 20
143.0
 30
0.0
 11
87.100000000000023
 21
143.0
 31
0.0
  0
LINE
  5
7B
  8
1
 10
80.000000000000057
 20
160.0
 30
0.0
 11
80.000000000000028
 21
90.000000000000014
 31
0.0
  0
LINE
  5
97
  8
1
 10
215.0
 20
160.0
 30
0.0
 11
215.0
 21
90.0
 31
0.0
  0
ARC
  5
98
  8
0
 10
197.0
 20
143.00000000000011
 30
0.0
 40
7.5
 50
90.0
 51
164.533990046577
  0
LINE
  5
99
  8
1
 10
197.0
 20
132.50000000000011
 30
0.0
 11
197.0
 21
153.50000000000011
 31
0.0
  0
LINE
  5
9A
  8
1
 10
207.5
 20
143.00000000000011
 30
0.0
 11
186.5
 21
143.00000000000011
 31
0.0
  0
LINE
  5
9B
  8
1
 10
207.5
 20
107.0
 30
0.0
 11
186.5
 21
107.0
 31
0.0
  0
LINE
  5
9C
  8
1
 10
197.0
 20
96.5
 30
0.0
 11
197.0
 21
117.5
 31
0.0
  0
LINE
  5
9D
  8
0
 10
188.0
 20
152.0
 30
0.0
 11
188.0
 21
145.00000000000011
 31
0.0
  0
LINE
  5
9E
  8
0
 10
189.77158385260091
 20
141.00000000000011
 30
0.0
 11
188.0
 21
141.00000000000011
 31
0.0
  0
LINE
  5
9F
  8
0
 10
189.77158385259889
 20
145.00000000000011
 30
0.0
 11
188.0
 21
145.00000000000011
 31
0.0
  0
ARC
  5
A0
  8
0
 10
197.0
 20
143.00000000000011
 30
0.0
 40
7.5
 50
195.46600995342661
 51
330.07356513338431
  0
ARC
  5
A1
  8
0
 10
197.0
 20
143.00000000000011
 30
0.0
 40
7.5
 50
29.926434866614819
 51
90.0
  0
LINE
  5
A2
  8
0
 10
188.0
 20
141.00000000000011
 30
0.0
 11
188.0
 21
108.9999999999999
 31
0.0
  0
LINE
  5
A3
  8
0
 10
203.5
 20
152.0
 30
0.0
 11
188.0
 21
152.0
 31
0.0
  0
LINE
  5
A4
  8
0
 10
203.5
 20
98.0
 30
0.0
 11
188.0
 21
98.0
 31
0.0
  0
ARC
  5
A5
  8
0
 10
197.0
 20
106.9999999999999
 30
0.0
 40
7.5
 50
270.0
 51
330.07356513338431
  0
ARC
  5
A6
  8
0
 10
197.0
 20
106.9999999999999
 30
0.0
 40
7.5
 50
29.926434866614819
 51
164.53399004657331
  0
LINE
  5
A7
  8
0
 10
189.77158385259889
 20
104.9999999999999
 30
0.0
 11
188.0
 21
104.9999999999999
 31
0.0
  0
LINE
  5
A8
  8
0
 10
189.77158385260091
 20
108.9999999999999
 30
0.0
 11
188.0
 21
108.9999999999999
 31
0.0
  0
LINE
  5
A9
  8
0
 10
188.0
 20
98.0
 30
0.0
 11
188.0
 21
104.9999999999999
 31
0.0
  0
ARC
  5
AA
  8
0
 10
197.0
 20
106.9999999999999
 30
0.0
 40
7.5
 50
195.46600995342291
 51
270.0
  0
CIRCLE
  5
AB
  8
0
 10
197.0
 20
106.9999999999999
 30
0.0
 40
4.2000000000000002
  0
CIRCLE
  5
AC
  8
0
 10
233.0
 20
106.9999999999999
 30
0.0
 40
4.2000000000000002
  0
ARC
  5
AD
  8
0
 10
233.0
 20
106.9999999999999
 30
0.0
 40
7.5
 50
270.0
 51
344.533990046577
  0
LINE
  5
AE
  8
0
 10
242.0
 20
97.999999999999943
 30
0.0
 11
242.0
 21
104.9999999999998
 31
0.0
  0
LINE
  5
AF
  8
0
 10
226.5
 20
98.0
 30
0.0
 11
242.0
 21
97.999999999999943
 31
0.0
  0
LINE
  5
B0
  8
0
 10
240.22841614739909
 20
108.9999999999998
 30
0.0
 11
242.0
 21
108.9999999999998
 31
0.0
  0
LINE
  5
B1
  8
0
 10
240.22841614740111
 20
104.9999999999998
 30
0.0
 11
242.0
 21
104.9999999999998
 31
0.0
  0
ARC
  5
B2
  8
0
 10
233.0
 20
106.9999999999999
 30
0.0
 40
7.5
 50
15.46600995342663
 51
150.0735651333851
  0
ARC
  5
B3
  8
0
 10
233.0
 20
106.9999999999999
 30
0.0
 40
7.5
 50
209.92643486661481
 51
270.0
  0
LINE
  5
B4
  8
0
 10
226.5
 20
152.0
 30
0.0
 11
242.0
 21
151.99999999999989
 31
0.0
  0
LINE
  5
B5
  8
0
 10
242.0
 20
141.0
 30
0.0
 11
242.0
 21
108.9999999999998
 31
0.0
  0
ARC
  5
B6
  8
0
 10
233.0
 20
143.00000000000011
 30
0.0
 40
7.5
 50
90.0
 51
150.0735651333851
  0
ARC
  5
B7
  8
0
 10
233.0
 20
143.00000000000011
 30
0.0
 40
7.5
 50
209.92643486661481
 51
344.53399004657342
  0
LINE
  5
B8
  8
0
 10
240.22841614740111
 20
145.0
 30
0.0
 11
242.0
 21
145.0
 31
0.0
  0
LINE
  5
B9
  8
0
 10
240.22841614739909
 20
141.0
 30
0.0
 11
242.0
 21
141.0
 31
0.0
  0
LINE
  5
BA
  8
0
 10
242.0
 20
151.99999999999989
 30
0.0
 11
242.0
 21
145.0
 31
0.0
  0
LINE
  5
BB
  8
1
 10
233.0
 20
96.5
 30
0.0
 11
233.0
 21
117.5
 31
0.0
  0
LINE
  5
BC
  8
1
 10
222.5
 20
107.0
 30
0.0
 11
243.5
 21
106.9999999999999
 31
0.0
  0
LINE
  5
BD
  8
1
 10
222.5
 20
143.00000000000011
 30
0.0
 11
243.5
 21
143.0
 31
0.0
  0
LINE
  5
BE
  8
1
 10
233.0
 20
132.50000000000011
 30
0.0
 11
233.0
 21
153.50000000000011
 31
0.0
  0
ARC
  5
BF
  8
0
 10
233.0
 20
143.00000000000011
 30
0.0
 40
7.5
 50
15.466009953422921
 51
90.0
  0
CIRCLE
  5
C0
  8
0
 10
233.0
 20
143.00000000000011
 30
0.0
 40
4.2000000000000002
  0
LINE
  5
C1
  8
1
 10
80.000000000000028
 20
69.999999999999972
 30
0.0
 11
80.000000000000028
 21
45.999999999999993
 31
0.0
  0
LINE
  5
C2
  8
1
 10
61.999999999999993
 20
61.000000000000021
 30
0.0
 11
61.999999999999993
 21
46.999999999999993
 31
0.0
  0
LINE
  5
C3
  8
1
 10
87.0
 20
58.499999999999993
 30
0.0
 11
72.999999999999986
 21
58.499999999999993
 31
0.0
  0
LINE
  5
C4
  8
1
 10
98.000000000000057
 20
61.000000000000021
 30
0.0
 11
98.000000000000057
 21
46.999999999999993
 31
0.0
  0
LINE
  5
C9
  8
2
 10
146.99999999999989
 20
150.89999999999981
 30
0.0
 11
150.69999999999999
 21
147.1999999999997
 31
0.0
  0
LINE
  5
CA
  8
2
 10
150.69999999999999
 20
147.1999999999997
 30
0.0
 11
155.0
 21
147.1999999999997
 31
0.0
  0
LINE
  5
CB
  8
2
 10
150.69999999999999
 20
138.7999999999997
 30
0.0
 11
150.69999999999999
 21
147.1999999999997
 31
0.0
  0
LINE
  5
CC
  8
2
 10
150.69999999999999
 20
138.7999999999997
 30
0.0
 11
155.0
 21
138.7999999999997
 31
0.0
  0
LINE
  5
CD
  8
2
 10
146.99999999999989
 20
135.0999999999996
 30
0.0
 11
150.69999999999999
 21
138.7999999999997
 31
0.0
  0
LINE
  5
CE
  8
2
 10
147.0
 20
99.099999999999653
 30
0.0
 11
150.69999999999999
 21
102.7999999999997
 31
0.0
  0
LINE
  5
CF
  8
2
 10
150.69999999999999
 20
102.7999999999997
 30
0.0
 11
155.0
 21
102.7999999999997
 31
0.0
  0
LINE
  5
D0
  8
2
 10
150.69999999999999
 20
102.7999999999997
 30
0.0
 11
150.7000000000001
 21
111.1999999999998
 31
0.0
  0
LINE
  5
D1
  8
2
 10
150.69999999999999
 20
111.1999999999998
 30
0.0
 11
155.0
 21
111.1999999999998
 31
0.0
  0
LINE
  5
D2
  8
2
 10
147.0
 20
114.89999999999981
 30
0.0
 11
150.69999999999999
 21
111.1999999999998
 31
0.0
  0
LINE
  5
D3
  8
0
 10
155.0
 20
154.9999999999998
 30
0.0
 11
155.0
 21
94.999999999999801
 31
0.0
  0
LINE
  5
D4
  8
0
 10
151.0
 20
154.9999999999998
 30
0.0
 11
151.0
 21
94.999999999999801
 31
0.0
  0
LINE
  5
D5
  8
0
 10
147.0
 20
154.9999999999998
 30
0.0
 11
147.0
 21
94.999999999999801
 31
0.0
  0
LINE
  5
D6
  8
0
 10
144.0
 20
154.9999999999998
 30
0.0
 11
144.0
 21
94.999999999999801
 31
0.0
  0
LINE
  5
D7
  8
0
 10
140.0
 20
154.9999999999998
 30
0.0
 11
140.0
 21
94.999999999999801
 31
0.0
  0
LINE
  5
D8
  8
0
 10
140.0
 20
94.999999999999801
 30
0.0
 11
155.0
 21
94.999999999999801
 31
0.0
  0
LINE
  5
D9
  8
0
 10
147.0
 20
124.9999999999998
 30
0.0
 11
140.0
 21
124.9999999999998
 31
0.0
  0
LINE
  5
DA
  8
0
 10
147.0
 20
109.9999999999998
 30
0.0
 11
140.0
 21
109.9999999999998
 31
0.0
  0
LINE
  5
DB
  8
0
 10
140.0
 20
154.9999999999998
 30
0.0
 11
155.0
 21
154.9999999999998
 31
0.0
  0
LINE
  5
DC
  8
0
 10
147.0
 20
139.99999999999969
 30
0.0
 11
140.0
 21
139.99999999999969
 31
0.0
  0
LINE
  5
DD
  8
2
 10
150.99999999999989
 20
135.49999999999889
 30
0.0
 11
155.0
 21
135.49999999999889
 31
0.0
  0
LINE
  5
DE
  8
2
 10
150.99999999999989
 20
114.4999999999997
 30
0.0
 11
155.0
 21
114.4999999999997
 31
0.0
  0
LINE
  5
DF
  8
2
 10
151.0
 20
135.49999999999889
 30
0.0
 11
151.0
 21
114.4999999999997
 31
0.0
  0
LINE
  5
E0
  8
1
 10
158.0
 20
106.9999999999998
 30
0.0
 11
143.99999999999989
 21
106.9999999999998
 31
0.0
  0
LINE
  5
E1
  8
1
 10
158.0
 20
143.0
 30
0.0
 11
143.99999999999989
 21
143.0
 31
0.0
  0
LINE
  5
105
  8
0
 10
72.500000000000028
 20
155.0
 30
0.0
 11
110.0
 21
155.0
 31
0.0
  0
LINE
  5
106
  8
0
 10
87.5
 20
95.000000000000014
 30
0.0
 11
50.000000000000007
 21
95.000000000000014
 31
0.0
  0
LINE
  5
107
  8
0
 10
88.499999999999986
 20
57.999999999999993
 30
0.0
 11
88.499999999999986
 21
50.0
 31
0.0
  0
LINE
  5
108
  8
0
 10
223.5
 20
155.0
 30
0.0
 11
223.5
 21
95.0
 31
0.0
  0
LINE
  5
109
  8
0
 10
223.5
 20
155.0
 30
0.0
 11
226.5
 21
155.0
 31
0.0
  0
LINE
  5
10A
  8
0
 10
226.5
 20
152.0
 30
0.0
 11
226.5
 21
146.74165738677399
 31
0.0
  0
LINE
  5
10B
  8
0
 10
206.5
 20
155.0
 30
0.0
 11
206.5
 21
95.0
 31
0.0
  0
LINE
  5
10C
  8
0
 10
203.5
 20
152.0
 30
0.0
 11
203.5
 21
146.74165738677399
 31
0.0
  0
LINE
  5
10D
  8
0
 10
222.5
 20
155.0
 30
0.0
 11
185.0
 21
155.0
 31
0.0
  0
LINE
  5
10E
  8
0
 10
207.5
 20
95.0
 30
0.0
 11
245.0
 21
94.999999999999943
 31
0.0
  0
LINE
  5
10F
  8
0
 10
222.5
 20
155.0
 30
0.0
 11
222.5
 21
140.00000000000011
 31
0.0
  0
LINE
  5
110
  8
0
 10
207.5
 20
95.0
 30
0.0
 11
207.5
 21
110.0
 31
0.0
  0
LINE
  5
111
  8
0
 10
226.5
 20
103.25834261322591
 30
0.0
 11
226.5
 21
98.0
 31
0.0
  0
LINE
  5
112
  8
0
 10
226.5
 20
139.2583426132262
 30
0.0
 11
226.5
 21
110.7416573867738
 31
0.0
  0
LINE
  5
113
  8
0
 10
203.5
 20
103.25834261322591
 30
0.0
 11
203.5
 21
98.0
 31
0.0
  0
LINE
  5
114
  8
0
 10
203.5
 20
139.25834261322609
 30
0.0
 11
203.5
 21
110.7416573867738
 31
0.0
  0
LINE
  5
115
  8
0
 10
207.5
 20
125.0
 30
0.0
 11
207.5
 21
140.0
 31
0.0
  0
LINE
  5
116
  8
0
 10
222.5
 20
125.0000000000001
 30
0.0
 11
222.5
 21
110.0
 31
0.0
  0
TEXT
  5
26B
  8
0
 62
     3
 10
0.0
 20
0.0
 30
0.0
 40
10.0
  1
FTH6060HC
  7
STANDARD1
  0
ENDSEC
  0
EOF
