  0
SECTION
  2
HEADER
  9
$ACADVER
  1
AC1009
  9
$INSBASE
 10
0.0
 20
0.0
 30
0.0
  9
$EXTMIN
 10
0.0
 20
-2.960436562073669
 30
0.0
  9
$EXTMAX
 10
388.31982740613881
 20
286.90653259508889
 30
0.0
  9
$LIMMIN
 10
0.0
 20
0.0
  9
$LIMMAX
 10
375.0
 20
270.0
  9
$ORTHOMODE
 70
     1
  9
$REGENMODE
 70
     1
  9
$FILLMODE
 70
     1
  9
$QTEXTMODE
 70
     0
  9
$MIRRTEXT
 70
     0
  9
$DRAGMODE
 70
     2
  9
$LTSCALE
 40
10.0
  9
$OSMODE
 70
    55
  9
$ATTMODE
 70
     1
  9
$TEXTSIZE
 40
0.2
  9
$TRACEWID
 40
0.05
  9
$TEXTSTYLE
  7
STANDARD
  9
$CLAYER
  8
0
  9
$CELTYPE
  6
BYLAYER
  9
$CECOLOR
 62
   256
  9
$DIMSCALE
 40
1.0
  9
$DIMASZ
 40
3.0
  9
$DIMEXO
 40
2.0
  9
$DIMDLI
 40
10.0
  9
$DIMRND
 40
0.0
  9
$DIMDLE
 40
0.0
  9
$DIMEXE
 40
2.0
  9
$DIMTP
 40
0.0
  9
$DIMTM
 40
0.0
  9
$DIMTXT
 40
3.2000000000000002
  9
$DIMCEN
 40
0.09
  9
$DIMTSZ
 40
0.0
  9
$DIMTOL
 70
     0
  9
$DIMLIM
 70
     0
  9
$DIMTIH
 70
     0
  9
$DIMTOH
 70
     0
  9
$DIMSE1
 70
     0
  9
$DIMSE2
 70
     0
  9
$DIMTAD
 70
     1
  9
$DIMZIN
 70
     0
  9
$DIMBLK
  1

  9
$DIMASO
 70
     0
  9
$DIMSHO
 70
     0
  9
$DIMPOST
  1

  9
$DIMAPOST
  1

  9
$DIMALT
 70
     0
  9
$DIMALTD
 70
     2
  9
$DIMALTF
 40
25.399999999999999
  9
$DIMLFAC
 40
1.0
  9
$DIMTOFL
 70
     1
  9
$DIMTVP
 40
1.6000000000000001
  9
$DIMTIX
 70
     0
  9
$DIMSOXD
 70
     0
  9
$DIMSAH
 70
     0
  9
$DIMBLK1
  1

  9
$DIMBLK2
  1

  9
$DIMSTYLE
  2
STANDARD
  9
$DIMCLRD
 70
     0
  9
$DIMCLRE
 70
     0
  9
$DIMCLRT
 70
     0
  9
$DIMTFAC
 40
1.0
  9
$DIMGAP
 40
0.09
  9
$LUNITS
 70
     2
  9
$LUPREC
 70
     4
  9
$SKETCHINC
 40
0.1
  9
$FILLETRAD
 40
0.0
  9
$AUNITS
 70
     0
  9
$AUPREC
 70
     0
  9
$MENU
  1
E:\r13\win\SUPPORT\ACAD
  9
$ELEVATION
 40
0.0
  9
$PELEVATION
 40
0.0
  9
$THICKNESS
 40
0.0
  9
$LIMCHECK
 70
     0
  9
$BLIPMODE
 70
     0
  9
$CHAMFERA
 40
0.0
  9
$CHAMFERB
 40
0.0
  9
$SKPOLY
 70
     0
  9
$TDCREATE
 40
2449840.617175926
  9
$TDUPDATE
 40
2456598.6689568632
  9
$TDINDWG
 40
0.0030627778
  9
$TDUSRTIMER
 40
0.0030627778
  9
$USRTIMER
 70
     1
  9
$ANGBASE
 50
0.0
  9
$ANGDIR
 70
     0
  9
$PDMODE
 70
     0
  9
$PDSIZE
 40
0.0
  9
$PLINEWID
 40
0.0
  9
$COORDS
 70
     1
  9
$SPLFRAME
 70
     0
  9
$SPLINETYPE
 70
     6
  9
$SPLINESEGS
 70
     8
  9
$ATTDIA
 70
     0
  9
$ATTREQ
 70
     1
  9
$HANDLING
 70
     1
  9
$HANDSEED
  5
23A
  9
$SURFTAB1
 70
     6
  9
$SURFTAB2
 70
     6
  9
$SURFTYPE
 70
     6
  9
$SURFU
 70
     6
  9
$SURFV
 70
     6
  9
$UCSNAME
  2

  9
$UCSORG
 10
0.0
 20
0.0
 30
0.0
  9
$UCSXDIR
 10
1.0
 20
0.0
 30
0.0
  9
$UCSYDIR
 10
0.0
 20
1.0
 30
0.0
  9
$PUCSNAME
  2

  9
$PUCSORG
 10
0.0
 20
0.0
 30
0.0
  9
$PUCSXDIR
 10
1.0
 20
0.0
 30
0.0
  9
$PUCSYDIR
 10
0.0
 20
1.0
 30
0.0
  9
$USERI1
 70
     0
  9
$USERI2
 70
     1
  9
$USERI3
 70
     0
  9
$USERI4
 70
     0
  9
$USERI5
 70
     0
  9
$USERR1
 40
0.0
  9
$USERR2
 40
0.0
  9
$USERR3
 40
0.0
  9
$USERR4
 40
0.0
  9
$USERR5
 40
0.0
  9
$WORLDVIEW
 70
     1
  9
$SHADEDGE
 70
     3
  9
$SHADEDIF
 70
    70
  9
$TILEMODE
 70
     1
  9
$MAXACTVP
 70
    16
  9
$PLIMCHECK
 70
     0
  9
$PEXTMIN
 10
1.0000000000000000E+020
 20
1.0000000000000000E+020
 30
1.0000000000000000E+020
  9
$PEXTMAX
 10
-1.0000000000000000E+020
 20
-1.0000000000000000E+020
 30
-1.0000000000000000E+020
  9
$PLIMMIN
 10
0.0
 20
0.0
  9
$PLIMMAX
 10
12.0
 20
9.0
  9
$UNITMODE
 70
     0
  9
$VISRETAIN
 70
     0
  9
$PLINEGEN
 70
     0
  9
$PSLTSCALE
 70
     0
  0
ENDSEC
  0
SECTION
  2
TABLES
  0
TABLE
  2
VPORT
 70
     1
  0
VPORT
  2
*ACTIVE
 70
     0
 10
0.0
 20
0.0
 11
1.0
 21
1.0
 12
194.15991460719701
 22
185.9438258646727
 13
0.0
 23
0.0
 14
10.0
 24
10.0
 15
10.0
 25
10.0
 16
0.0
 26
0.0
 36
1.0
 17
0.0
 27
0.0
 37
0.0
 40
381.14719780396717
 41
1.7807262569832401
 42
50.0
 43
0.0
 44
0.0
 50
0.0
 51
0.0
 71
     0
 72
   100
 73
     1
 74
     0
 75
     0
 76
     0
 77
     0
 78
     0
  0
ENDTAB
  0
TABLE
  2
LTYPE
 70
     4
  0
LTYPE
  2
CONTINUOUS
 70
     0
  3
Solid Line
 72
    65
 73
     0
 40
0.0
  0
LTYPE
  2
CENTER
 70
     0
  3
____ _ ____ _ ____ _ ____ _ ____ _ ____ _ ____
 72
    65
 73
     4
 40
2.0
 49
1.25
 49
-0.25
 49
0.25
 49
-0.25
  0
LTYPE
  2
DASHED
 70
     0
  3
__ __ __ __ __ __ __ __ __ __ __ __ __ __ __
 72
    65
 73
     2
 40
0.75
 49
0.5
 49
-0.25
  0
LTYPE
  2
PHANTOM2
 70
     0
  3
___ _ _ ___ _ _ ___ _ _ ___ _ _
 72
    65
 73
     6
 40
1.25
 49
0.625
 49
-0.125
 49
0.125
 49
-0.125
 49
0.125
 49
-0.125
  0
ENDTAB
  0
TABLE
  2
LAYER
 70
     4
  0
LAYER
  2
0
 70
     0
 62
     7
  6
CONTINUOUS
  0
LAYER
  2
1
 70
     0
 62
     1
  6
CENTER
  0
LAYER
  2
3
 70
     0
 62
     3
  6
CONTINUOUS
  0
LAYER
  2
2
 70
     0
 62
     2
  6
DASHED
  0
ENDTAB
  0
TABLE
  2
STYLE
 70
     3
  0
STYLE
  2
STANDARD
 70
     0
 40
0.0
 41
1.0
 50
0.0
 71
     0
 42
0.2
  3
TXT
  4
BIGFONT
  0
STYLE
  2
COMPLEX
 70
     0
 40
3.5
 41
0.4
 50
0.0
 71
     0
 42
3.0
  3
COMPLEX
  4

  0
STYLE
  2
STANDARD1
 70
     0
 40
0.0
 41
1.0
 50
0.0
 71
     0
 42
3.0
  3
txt
  4

  0
ENDTAB
  0
TABLE
  2
VIEW
 70
     1
  0
VIEW
  2
ALL
 70
     0
 40
270.0
 10
220.99159700000001
 20
135.0
 41
0.0
 11
0.0
 21
0.0
 31
1.0
 12
0.0
 22
0.0
 32
0.0
 42
0.0
 43
0.0
 44
0.0
 50
0.0
 71
     0
  0
ENDTAB
  0
TABLE
  2
UCS
 70
     0
  0
ENDTAB
  0
TABLE
  2
APPID
 70
     3
  0
APPID
  2
ACAD
 70
     0
  0
APPID
  2
ACAD_MLEADERVER
 70
     0
  0
APPID
  2
ACAD_NAV_VCDISPLAY
 70
     0
  0
ENDTAB
  0
TABLE
  2
DIMSTYLE
 70
     1
  0
DIMSTYLE
  2
STANDARD
 70
     0
  3

  4

  5

  6

  7

 40
1.0
 41
0.18
 42
0.0625
 43
0.38
 44
0.18
 45
0.0
 46
0.0
 47
0.0
 48
0.0
140
0.18
141
0.09
142
0.0
143
25.399999999999999
144
1.0
145
0.0
146
1.0
147
0.09
 71
     0
 72
     0
 73
     1
 74
     1
 75
     0
 76
     0
 77
     0
 78
     0
170
     0
171
     2
172
     0
173
     0
174
     0
175
     0
176
     0
177
     0
178
     0
  0
ENDTAB
  0
ENDSEC
  0
SECTION
  2
BLOCKS
  0
BLOCK
  8
0
  2
$MODEL_SPACE
 70
     0
 10
0.0
 20
0.0
 30
0.0
  3
$MODEL_SPACE
  1

  0
ENDBLK
  5
E8
  8
0
  0
BLOCK
 67
     1
  8
0
  2
$PAPER_SPACE
 70
     0
 10
0.0
 20
0.0
 30
0.0
  3
$PAPER_SPACE
  1

  0
ENDBLK
  5
E6
 67
     1
  8
0
  0
ENDSEC
  0
SECTION
  2
ENTITIES
  0
CIRCLE
  5
37
  8
0
 10
141.19062740613879
 20
259.40653259508889
 30
0.0
 40
22.5
  0
LINE
  5
38
  8
1
 10
289.19062740613879
 20
284.60558091213261
 30
0.0
 11
289.19062740613879
 21
234.2074842780452
 31
0.0
  0
LINE
  5
39
  8
1
 10
314.38967572318251
 20
259.40653259508889
 30
0.0
 11
113.6906274061388
 21
259.40653259508889
 31
0.0
  0
LINE
  5
3A
  8
1
 10
141.19062740613879
 20
286.90653259508889
 30
0.0
 11
141.19062740613879
 21
231.90653259508889
 31
0.0
  0
LINE
  5
3C
  8
0
 10
273.69062740613879
 20
269.50603753345092
 30
0.0
 11
273.69062740613879
 21
249.3070276567268
 31
0.0
  0
CIRCLE
  5
3D
  8
0
 10
141.19062740613879
 20
259.40653259508889
 30
0.0
 40
20.0
  0
LINE
  5
3E
  8
0
 10
273.69062740613879
 20
266.40653259508889
 30
0.0
 11
162.5740324061388
 21
266.40653259508889
 31
0.0
  0
LINE
  5
3F
  8
0
 10
162.5740324061388
 20
252.40653259508889
 30
0.0
 11
273.69062740613879
 21
252.40653259508889
 31
0.0
  0
CIRCLE
  5
40
  8
0
 10
141.19062740613879
 20
259.40653259508889
 30
0.0
 40
12.0
  0
CIRCLE
  5
41
  8
0
 10
141.19062740613879
 20
259.40653259508889
 30
0.0
 40
9.0
  0
CIRCLE
  5
42
  8
0
 10
141.19062740613879
 20
269.65653259508889
 30
0.0
 40
0.75
  0
LINE
  5
43
  8
1
 10
137.94062740613879
 20
269.65653259508889
 30
0.0
 11
144.44062740613879
 21
269.65653259508889
 31
0.0
  0
LINE
  5
44
  8
1
 10
137.94062740613879
 20
249.15653259508889
 30
0.0
 11
144.44062740613879
 21
249.15653259508889
 31
0.0
  0
CIRCLE
  5
45
  8
0
 10
141.19062740613879
 20
249.15653259508889
 30
0.0
 40
0.75
  0
TEXT
  5
46
  8
0
 10
137.85729407280539
 20
257.40653259508889
 30
0.0
 40
4.0
  1
Kipp
 41
0.5
  7
COMPLEX
 72
     1
 11
141.19062740613879
 21
257.40653259508889
 31
0.0
  0
ARC
  5
47
  8
0
 10
147.68581840613879
 20
255.65653259508889
 30
0.0
 40
0.5
 50
270.0
 51
29.999999999999989
  0
ARC
  5
48
  8
0
 10
134.69543740613881
 20
255.65653259508889
 30
0.0
 40
0.5
 50
150.0
 51
270.0
  0
ARC
  5
49
  8
0
 10
141.19062740613879
 20
266.90653259508889
 30
0.0
 40
0.5
 50
29.999999999999989
 51
150.0
  0
LINE
  5
4A
  8
0
 10
148.11883140613881
 20
255.90653259508889
 30
0.0
 11
141.6236404061388
 21
267.15653259508889
 31
0.0
  0
LINE
  5
4B
  8
0
 10
134.69543740613881
 20
255.15653259508889
 30
0.0
 11
147.68581840613879
 21
255.15653259508889
 31
0.0
  0
LINE
  5
4C
  8
0
 10
140.7576154061388
 20
267.15653259508889
 30
0.0
 11
134.26242440613879
 21
255.90653259508889
 31
0.0
  0
LINE
  5
4D
  8
0
 10
163.69062740613879
 20
163.32829459508889
 30
0.0
 11
273.69062740613879
 21
163.32829459508889
 31
0.0
  0
LINE
  5
4E
  8
0
 10
273.69062740613879
 20
177.32829459508889
 30
0.0
 11
163.69062740613879
 21
177.32829459508889
 31
0.0
  0
LINE
  5
52
  8
0
 10
121.1906274061388
 20
181.32829459508889
 30
0.0
 11
118.6906274061388
 21
178.82829459508889
 31
0.0
  0
LINE
  5
53
  8
0
 10
118.6906274061388
 20
178.82829459508889
 30
0.0
 11
118.6906274061388
 21
156.32829459508889
 31
0.0
  0
LINE
  5
54
  8
0
 10
118.6906274061388
 20
156.32829459508889
 30
0.0
 11
119.6906274061388
 21
155.32829459508889
 31
0.0
  0
LINE
  5
55
  8
0
 10
129.69062740613879
 20
155.32829459508889
 30
0.0
 11
129.69062740613879
 21
154.02829459508891
 31
0.0
  0
LINE
  5
56
  8
0
 10
129.69062740613879
 20
154.02829459508891
 30
0.0
 11
130.3906274061388
 21
153.32829459508889
 31
0.0
  0
LINE
  5
57
  8
0
 10
152.69062740613879
 20
154.02829459508891
 30
0.0
 11
151.9906274061388
 21
153.32829459508889
 31
0.0
  0
LINE
  5
58
  8
0
 10
152.69062740613879
 20
155.32829459508889
 30
0.0
 11
152.69062740613879
 21
154.02829459508891
 31
0.0
  0
LINE
  5
59
  8
0
 10
163.69062740613879
 20
156.32829459508889
 30
0.0
 11
162.69062740613879
 21
155.32829459508889
 31
0.0
  0
LINE
  5
5A
  8
0
 10
163.69062740613879
 20
178.82829459508889
 30
0.0
 11
163.69062740613879
 21
177.32829459508889
 31
0.0
  0
LINE
  5
5B
  8
0
 10
161.19062740613879
 20
181.32829459508889
 30
0.0
 11
163.69062740613879
 21
178.82829459508889
 31
0.0
  0
LINE
  5
5C
  8
0
 10
121.1906274061388
 20
181.32829459508889
 30
0.0
 11
161.19062740613879
 21
181.32829459508889
 31
0.0
  0
LINE
  5
5D
  8
0
 10
163.69062740613879
 20
178.82829459508889
 30
0.0
 11
118.6906274061388
 21
178.82829459508889
 31
0.0
  0
LINE
  5
5E
  8
0
 10
118.6906274061388
 20
156.32829459508889
 30
0.0
 11
163.69062740613879
 21
156.32829459508889
 31
0.0
  0
LINE
  5
5F
  8
0
 10
162.69062740613879
 20
155.32829459508889
 30
0.0
 11
119.6906274061388
 21
155.32829459508889
 31
0.0
  0
LINE
  5
60
  8
0
 10
130.3906274061388
 20
153.32829459508889
 30
0.0
 11
151.9906274061388
 21
153.32829459508889
 31
0.0
  0
ARC
  5
61
  8
0
 10
185.08125240613879
 20
170.32829459508889
 30
0.0
 40
22.506862000000002
 50
161.879514
 51
198.12048599999989
  0
LINE
  5
62
  8
0
 10
163.69062740613879
 20
163.32829459508889
 30
0.0
 11
163.69062740613879
 21
156.32829459508889
 31
0.0
  0
LINE
  5
63
  8
1
 10
141.19062740613879
 20
186.32829459508889
 30
0.0
 11
141.19062740613879
 21
148.32829459508889
 31
0.0
  0
LINE
  5
64
  8
1
 10
314.38967572318251
 20
170.32829459508889
 30
0.0
 11
113.6906274061388
 21
170.32829459508889
 31
0.0
  0
LINE
  5
65
  8
0
 10
129.69062740613879
 20
154.02829459508891
 30
0.0
 11
152.69062740613879
 21
154.02829459508891
 31
0.0
  0
LINE
  5
66
  8
0
 10
162.5740324061388
 20
65.891244595088907
 30
0.0
 11
273.69062740613879
 21
65.891244595088907
 31
0.0
  0
LINE
  5
67
  8
0
 10
273.69062740613879
 20
79.891244595088907
 30
0.0
 11
162.5740324061388
 21
79.891244595088907
 31
0.0
  0
LINE
  5
6A
  8
1
 10
141.19062740613879
 20
100.39124459508891
 30
0.0
 11
141.19062740613879
 21
45.391244595088892
 31
0.0
  0
LINE
  5
6B
  8
1
 10
314.38967572318251
 20
72.891244595088907
 30
0.0
 11
113.6906274061388
 21
72.891244595088907
 31
0.0
  0
CIRCLE
  5
6D
  8
0
 10
141.19062740613879
 20
72.891244595088907
 30
0.0
 40
22.5
  0
CIRCLE
  5
6E
  8
0
 10
141.19062740613879
 20
72.891244595088907
 30
0.0
 40
21.5
  0
CIRCLE
  5
6F
  8
0
 10
141.19062740613879
 20
72.891244595088907
 30
0.0
 40
11.5
  0
CIRCLE
  5
70
  8
0
 10
141.19062740613879
 20
72.891244595088907
 30
0.0
 40
10.800000000000001
  0
CIRCLE
  5
71
  8
3
 10
141.19062740613879
 20
72.891244595088907
 30
0.0
 40
8.0
  0
CIRCLE
  5
72
  8
0
 10
141.19062740613879
 20
72.891244595088907
 30
0.0
 40
6.9175000000000004
  0
LINE
  5
73
  8
0
 10
349.31982740613881
 20
154.02829459508891
 30
0.0
 11
352.06997026444782
 21
154.02829459508891
 31
0.0
  0
LINE
  5
74
  8
1
 10
360.81982740613881
 20
195.52734291213261
 30
0.0
 11
360.81982740613881
 21
145.12924627804509
 31
0.0
  0
LINE
  5
75
  8
0
 10
383.31982740613881
 20
178.82829459508889
 30
0.0
 11
383.31982740613881
 21
156.32829459508889
 31
0.0
  0
LINE
  5
76
  8
0
 10
350.01982740613892
 20
153.32829459508889
 30
0.0
 11
353.52256764647558
 21
153.32829459508889
 31
0.0
  0
LINE
  5
77
  8
0
 10
382.31982740613881
 20
155.32829459508889
 30
0.0
 11
371.6480313199927
 21
155.32829459508889
 31
0.0
  0
LINE
  5
78
  8
0
 10
338.31982740613881
 20
156.32829459508889
 30
0.0
 11
348.72644078369098
 21
156.32829459508889
 31
0.0
  0
LINE
  5
79
  8
0
 10
383.31982740613881
 20
178.82829459508889
 30
0.0
 11
377.25150413129381
 21
178.82829459508889
 31
0.0
  0
LINE
  5
7A
  8
0
 10
340.81982740613881
 20
181.32829459508889
 30
0.0
 11
345.94535262549527
 21
181.32829459508889
 31
0.0
  0
LINE
  5
7B
  8
0
 10
380.81982740613881
 20
181.32829459508889
 30
0.0
 11
383.31982740613881
 21
178.82829459508889
 31
0.0
  0
LINE
  5
7C
  8
0
 10
383.31982740613881
 20
156.32829459508889
 30
0.0
 11
382.31982740613881
 21
155.32829459508889
 31
0.0
  0
LINE
  5
7D
  8
0
 10
372.31982740613881
 20
155.32829459508889
 30
0.0
 11
372.31982740613881
 21
154.02829459508891
 31
0.0
  0
LINE
  5
7E
  8
0
 10
372.31982740613881
 20
154.02829459508891
 30
0.0
 11
371.61982740613882
 21
153.32829459508889
 31
0.0
  0
LINE
  5
7F
  8
0
 10
349.31982740613881
 20
154.02829459508891
 30
0.0
 11
350.01982740613892
 21
153.32829459508889
 31
0.0
  0
LINE
  5
80
  8
0
 10
349.31982740613881
 20
155.32829459508889
 30
0.0
 11
349.31982740613881
 21
154.02829459508891
 31
0.0
  0
LINE
  5
81
  8
0
 10
338.31982740613881
 20
156.32829459508889
 30
0.0
 11
339.31982740613881
 21
155.32829459508889
 31
0.0
  0
LINE
  5
82
  8
0
 10
338.31982740613881
 20
178.82829459508889
 30
0.0
 11
338.31982740613881
 21
156.32829459508889
 31
0.0
  0
LINE
  5
83
  8
0
 10
340.81982740613881
 20
181.32829459508889
 30
0.0
 11
338.31982740613881
 21
178.82829459508889
 31
0.0
  0
LINE
  5
84
  8
1
 10
333.31982740613881
 20
170.32829459508889
 30
0.0
 11
388.31982740613881
 21
170.32829459508889
 31
0.0
  0
LINE
  5
86
  8
0
 10
375.69430218678241
 20
181.32829459508889
 30
0.0
 11
380.81982740613881
 21
181.32829459508889
 31
0.0
  0
LINE
  5
87
  8
0
 10
344.38815068098381
 20
178.82829459508889
 30
0.0
 11
338.31982740613881
 21
178.82829459508889
 31
0.0
  0
LINE
  5
88
  8
0
 10
372.91321402858659
 20
156.32829459508889
 30
0.0
 11
383.31982740613881
 21
156.32829459508889
 31
0.0
  0
LINE
  5
89
  8
0
 10
349.99162349228487
 20
155.32829459508889
 30
0.0
 11
339.31982740613881
 21
155.32829459508889
 31
0.0
  0
LINE
  5
8A
  8
0
 10
369.56968454782981
 20
154.02829459508891
 30
0.0
 11
372.31982740613881
 21
154.02829459508891
 31
0.0
  0
LINE
  5
8B
  8
0
 10
368.1170871658021
 20
153.32829459508889
 30
0.0
 11
371.61982740613882
 21
153.32829459508889
 31
0.0
  0
LINE
  5
8C
  8
0
 10
84.112988403445456
 20
155.32829459508889
 30
0.0
 11
41.112988403445463
 21
155.32829459508889
 31
0.0
  0
LINE
  5
8D
  8
0
 10
85.112988403445456
 20
178.82829459508889
 30
0.0
 11
40.112988403445463
 21
178.82829459508889
 31
0.0
  0
ARC
  5
8E
  8
0
 10
62.612988403445463
 20
170.32829459508889
 30
0.0
 40
17.5
 50
256.27086700000018
 51
283.72913299999971
  0
LINE
  5
8F
  8
1
 10
35.112988403445463
 20
170.32829459508889
 30
0.0
 11
90.11298840344547
 21
170.32829459508889
 31
0.0
  0
LINE
  5
90
  8
0
 10
42.612988403445463
 20
181.32829459508889
 30
0.0
 11
40.112988403445463
 21
178.82829459508889
 31
0.0
  0
LINE
  5
91
  8
0
 10
40.112988403445463
 20
178.82829459508889
 30
0.0
 11
40.112988403445463
 21
156.32829459508889
 31
0.0
  0
LINE
  5
92
  8
0
 10
40.112988403445463
 20
156.32829459508889
 30
0.0
 11
41.112988403445463
 21
155.32829459508889
 31
0.0
  0
LINE
  5
93
  8
0
 10
51.112988403445449
 20
155.32829459508889
 30
0.0
 11
51.112988403445449
 21
154.02829459508891
 31
0.0
  0
LINE
  5
94
  8
0
 10
51.112988403445449
 20
154.02829459508891
 30
0.0
 11
51.812988403445452
 21
153.32829459508889
 31
0.0
  0
LINE
  5
95
  8
0
 10
74.112988403445456
 20
154.02829459508891
 30
0.0
 11
73.412988403445453
 21
153.32829459508889
 31
0.0
  0
LINE
  5
96
  8
0
 10
74.112988403445456
 20
155.32829459508889
 30
0.0
 11
74.112988403445456
 21
154.02829459508891
 31
0.0
  0
LINE
  5
97
  8
0
 10
85.112988403445456
 20
156.32829459508889
 30
0.0
 11
84.112988403445456
 21
155.32829459508889
 31
0.0
  0
LINE
  5
98
  8
0
 10
82.612988403445456
 20
181.32829459508889
 30
0.0
 11
85.112988403445456
 21
178.82829459508889
 31
0.0
  0
LINE
  5
99
  8
0
 10
42.612988403445463
 20
181.32829459508889
 30
0.0
 11
82.612988403445456
 21
181.32829459508889
 31
0.0
  0
LINE
  5
9A
  8
0
 10
40.112988403445463
 20
156.32829459508889
 30
0.0
 11
85.112988403445456
 21
156.32829459508889
 31
0.0
  0
LINE
  5
9B
  8
0
 10
51.812988403445452
 20
153.32829459508889
 30
0.0
 11
73.412988403445453
 21
153.32829459508889
 31
0.0
  0
LINE
  5
9C
  8
0
 10
85.112988403445456
 20
178.82829459508889
 30
0.0
 11
85.112988403445456
 21
156.32829459508889
 31
0.0
  0
LINE
  5
9D
  8
1
 10
62.612988403445463
 20
195.52734291213261
 30
0.0
 11
62.612988403445463
 21
145.12924627804509
 31
0.0
  0
LINE
  5
9E
  8
0
 10
51.112988403445449
 20
154.02829459508891
 30
0.0
 11
74.112988403445456
 21
154.02829459508891
 31
0.0
  0
LINE
  5
A9
  8
2
 10
133.19062740613879
 20
180.32829459508889
 30
0.0
 11
149.19062740613879
 21
180.32829459508889
 31
0.0
  0
LINE
  5
AA
  8
2
 10
148.10812740613881
 20
180.32829459508889
 30
0.0
 11
148.10812740613881
 21
153.32829459508889
 31
0.0
  0
LINE
  5
AB
  8
2
 10
134.2731274061388
 20
180.32829459508889
 30
0.0
 11
134.2731274061388
 21
153.32829459508889
 31
0.0
  0
LINE
  5
AC
  8
2
 10
149.19062740613879
 20
180.32829459508889
 30
0.0
 11
149.19062740613879
 21
153.32829459508889
 31
0.0
  0
LINE
  5
AD
  8
2
 10
133.19062740613879
 20
180.32829459508889
 30
0.0
 11
133.19062740613879
 21
153.32829459508889
 31
0.0
  0
LINE
  5
AE
  8
2
 10
54.61298840344547
 20
180.32829459508889
 30
0.0
 11
54.61298840344547
 21
153.32829459508889
 31
0.0
  0
LINE
  5
AF
  8
2
 10
70.612988403445456
 20
180.32829459508889
 30
0.0
 11
70.612988403445456
 21
153.32829459508889
 31
0.0
  0
LINE
  5
B0
  8
2
 10
55.695488403445459
 20
180.32829459508889
 30
0.0
 11
55.695488403445459
 21
153.32829459508889
 31
0.0
  0
LINE
  5
B1
  8
2
 10
69.53048840344546
 20
180.32829459508889
 30
0.0
 11
69.53048840344546
 21
153.32829459508889
 31
0.0
  0
LINE
  5
B2
  8
2
 10
54.61298840344547
 20
180.32829459508889
 30
0.0
 11
70.612988403445456
 21
180.32829459508889
 31
0.0
  0
ARC
  5
153
  8
0
 10
289.19062740613879
 20
259.40653259508889
 30
0.0
 40
18.5
 50
213.08749998019729
 51
146.91250001980271
  0
LINE
  5
156
  8
1
 10
289.19062740613879
 20
195.52734291213261
 30
0.0
 11
289.19062740613879
 21
145.12924627804509
 31
0.0
  0
LINE
  5
157
  8
0
 10
273.69062740613879
 20
180.42779953345089
 30
0.0
 11
273.69062740613879
 21
160.2287896567268
 31
0.0
  0
ARC
  5
158
  8
0
 10
289.19062740613879
 20
170.32829459508889
 30
0.0
 40
18.5
 50
213.08749998019749
 51
146.91250001980319
  0
LINE
  5
159
  8
1
 10
289.19062740613879
 20
98.090292912132625
 30
0.0
 11
289.19062740613879
 21
47.692196278045166
 31
0.0
  0
LINE
  5
15A
  8
0
 10
273.69062740613879
 20
82.990749533450924
 30
0.0
 11
273.69062740613879
 21
62.791739656726833
 31
0.0
  0
ARC
  5
15B
  8
0
 10
289.19062740613879
 20
72.891244595088892
 30
0.0
 40
18.5
 50
213.08749998019681
 51
146.91250001980319
  0
CIRCLE
  5
15C
  8
0
 10
360.81982740613881
 20
170.32829459508889
 30
0.0
 40
18.5
  0
ARC
  5
15F
  8
0
 10
62.481242051089787
 20
170.32829459508889
 30
0.0
 40
18.5
 50
36.48373706136713
 51
143.51626293863279
  0
TEXT
  5
1D1
  8
0
 62
     3
 10
0.0
 20
0.0
 30
0.0
 40
10.0
  1
FTF16
  7
STANDARD1
  0
ENDSEC
  0
EOF
