  0
SECTION
  2
HEADER
  9
$ACADVER
  1
AC1009
  9
$INSBASE
 10
0.0
 20
0.0
 30
0.0
  9
$EXTMIN
 10
0.0
 20
-2.960436562073669
 30
0.0
  9
$EXTMAX
 10
353.75761899999998
 20
253.51708600000001
 30
0.0
  9
$LIMMIN
 10
0.0
 20
0.0
  9
$LIMMAX
 10
375.0
 20
270.0
  9
$ORTHOMODE
 70
     1
  9
$REGENMODE
 70
     1
  9
$FILLMODE
 70
     1
  9
$QTEXTMODE
 70
     0
  9
$MIRRTEXT
 70
     0
  9
$DRAGMODE
 70
     2
  9
$LTSCALE
 40
10.0
  9
$OSMODE
 70
    55
  9
$ATTMODE
 70
     1
  9
$TEXTSIZE
 40
0.2
  9
$TRACEWID
 40
0.05
  9
$TEXTSTYLE
  7
STANDARD
  9
$CLAYER
  8
0
  9
$CELTYPE
  6
BYLAYER
  9
$CECOLOR
 62
   256
  9
$DIMSCALE
 40
1.0
  9
$DIMASZ
 40
3.0
  9
$DIMEXO
 40
2.0
  9
$DIMDLI
 40
10.0
  9
$DIMRND
 40
0.0
  9
$DIMDLE
 40
0.0
  9
$DIMEXE
 40
2.0
  9
$DIMTP
 40
0.0
  9
$DIMTM
 40
0.0
  9
$DIMTXT
 40
3.2000000000000002
  9
$DIMCEN
 40
0.09
  9
$DIMTSZ
 40
0.0
  9
$DIMTOL
 70
     0
  9
$DIMLIM
 70
     0
  9
$DIMTIH
 70
     0
  9
$DIMTOH
 70
     0
  9
$DIMSE1
 70
     0
  9
$DIMSE2
 70
     0
  9
$DIMTAD
 70
     1
  9
$DIMZIN
 70
     0
  9
$DIMBLK
  1

  9
$DIMASO
 70
     0
  9
$DIMSHO
 70
     0
  9
$DIMPOST
  1

  9
$DIMAPOST
  1

  9
$DIMALT
 70
     0
  9
$DIMALTD
 70
     2
  9
$DIMALTF
 40
25.399999999999999
  9
$DIMLFAC
 40
1.0
  9
$DIMTOFL
 70
     1
  9
$DIMTVP
 40
1.6000000000000001
  9
$DIMTIX
 70
     0
  9
$DIMSOXD
 70
     0
  9
$DIMSAH
 70
     0
  9
$DIMBLK1
  1

  9
$DIMBLK2
  1

  9
$DIMSTYLE
  2
STANDARD
  9
$DIMCLRD
 70
     0
  9
$DIMCLRE
 70
     0
  9
$DIMCLRT
 70
     0
  9
$DIMTFAC
 40
1.0
  9
$DIMGAP
 40
0.09
  9
$LUNITS
 70
     2
  9
$LUPREC
 70
     4
  9
$SKETCHINC
 40
0.1
  9
$FILLETRAD
 40
0.0
  9
$AUNITS
 70
     0
  9
$AUPREC
 70
     0
  9
$MENU
  1
E:\r13\win\SUPPORT\ACAD
  9
$ELEVATION
 40
0.0
  9
$PELEVATION
 40
0.0
  9
$THICKNESS
 40
0.0
  9
$LIMCHECK
 70
     0
  9
$BLIPMODE
 70
     0
  9
$CHAMFERA
 40
0.0
  9
$CHAMFERB
 40
0.0
  9
$SKPOLY
 70
     0
  9
$TDCREATE
 40
2449840.6171296299
  9
$TDUPDATE
 40
2456598.668856435
  9
$TDINDWG
 40
0.0004802662
  9
$TDUSRTIMER
 40
0.0004802662
  9
$USRTIMER
 70
     1
  9
$ANGBASE
 50
0.0
  9
$ANGDIR
 70
     0
  9
$PDMODE
 70
     0
  9
$PDSIZE
 40
0.0
  9
$PLINEWID
 40
0.0
  9
$COORDS
 70
     1
  9
$SPLFRAME
 70
     0
  9
$SPLINETYPE
 70
     6
  9
$SPLINESEGS
 70
     8
  9
$ATTDIA
 70
     0
  9
$ATTREQ
 70
     1
  9
$HANDLING
 70
     1
  9
$HANDSEED
  5
23D
  9
$SURFTAB1
 70
     6
  9
$SURFTAB2
 70
     6
  9
$SURFTYPE
 70
     6
  9
$SURFU
 70
     6
  9
$SURFV
 70
     6
  9
$UCSNAME
  2

  9
$UCSORG
 10
0.0
 20
0.0
 30
0.0
  9
$UCSXDIR
 10
1.0
 20
0.0
 30
0.0
  9
$UCSYDIR
 10
0.0
 20
1.0
 30
0.0
  9
$PUCSNAME
  2

  9
$PUCSORG
 10
0.0
 20
0.0
 30
0.0
  9
$PUCSXDIR
 10
1.0
 20
0.0
 30
0.0
  9
$PUCSYDIR
 10
0.0
 20
1.0
 30
0.0
  9
$USERI1
 70
     0
  9
$USERI2
 70
     1
  9
$USERI3
 70
     0
  9
$USERI4
 70
     0
  9
$USERI5
 70
     0
  9
$USERR1
 40
0.0
  9
$USERR2
 40
0.0
  9
$USERR3
 40
0.0
  9
$USERR4
 40
0.0
  9
$USERR5
 40
0.0
  9
$WORLDVIEW
 70
     1
  9
$SHADEDGE
 70
     3
  9
$SHADEDIF
 70
    70
  9
$TILEMODE
 70
     1
  9
$MAXACTVP
 70
    16
  9
$PLIMCHECK
 70
     0
  9
$PEXTMIN
 10
1.0000000000000000E+020
 20
1.0000000000000000E+020
 30
1.0000000000000000E+020
  9
$PEXTMAX
 10
-1.0000000000000000E+020
 20
-1.0000000000000000E+020
 30
-1.0000000000000000E+020
  9
$PLIMMIN
 10
0.0
 20
0.0
  9
$PLIMMAX
 10
12.0
 20
9.0
  9
$UNITMODE
 70
     0
  9
$VISRETAIN
 70
     0
  9
$PLINEGEN
 70
     0
  9
$PSLTSCALE
 70
     0
  0
ENDSEC
  0
SECTION
  2
TABLES
  0
TABLE
  2
VPORT
 70
     1
  0
VPORT
  2
*ACTIVE
 70
     0
 10
0.0
 20
0.0
 11
1.0
 21
1.0
 12
187.49427839065231
 22
174.91677254346851
 13
0.0
 23
0.0
 14
10.0
 24
10.0
 15
10.0
 25
10.0
 16
0.0
 26
0.0
 36
1.0
 17
0.0
 27
0.0
 37
0.0
 40
358.92027899574339
 41
1.7807262569832401
 42
50.0
 43
0.0
 44
0.0
 50
0.0
 51
0.0
 71
     0
 72
   100
 73
     1
 74
     0
 75
     0
 76
     0
 77
     0
 78
     0
  0
ENDTAB
  0
TABLE
  2
LTYPE
 70
     4
  0
LTYPE
  2
CONTINUOUS
 70
     0
  3
Solid Line
 72
    65
 73
     0
 40
0.0
  0
LTYPE
  2
CENTER
 70
     0
  3
____ _ ____ _ ____ _ ____ _ ____ _ ____ _ ____
 72
    65
 73
     4
 40
2.0
 49
1.25
 49
-0.25
 49
0.25
 49
-0.25
  0
LTYPE
  2
DASHED
 70
     0
  3
__ __ __ __ __ __ __ __ __ __ __ __ __ __ __
 72
    65
 73
     2
 40
0.75
 49
0.5
 49
-0.25
  0
LTYPE
  2
PHANTOM2
 70
     0
  3
___ _ _ ___ _ _ ___ _ _ ___ _ _
 72
    65
 73
     6
 40
1.25
 49
0.625
 49
-0.125
 49
0.125
 49
-0.125
 49
0.125
 49
-0.125
  0
ENDTAB
  0
TABLE
  2
LAYER
 70
     4
  0
LAYER
  2
0
 70
     0
 62
     7
  6
CONTINUOUS
  0
LAYER
  2
1
 70
     0
 62
     1
  6
CENTER
  0
LAYER
  2
3
 70
     0
 62
     3
  6
CONTINUOUS
  0
LAYER
  2
2
 70
     0
 62
     2
  6
DASHED
  0
ENDTAB
  0
TABLE
  2
STYLE
 70
     3
  0
STYLE
  2
STANDARD
 70
     0
 40
0.0
 41
1.0
 50
0.0
 71
     0
 42
0.2
  3
TXT
  4
BIGFONT
  0
STYLE
  2
COMPLEX
 70
     0
 40
3.5
 41
0.4
 50
0.0
 71
     0
 42
3.0
  3
COMPLEX
  4

  0
STYLE
  2
STANDARD1
 70
     0
 40
0.0
 41
1.0
 50
0.0
 71
     0
 42
3.0
  3
txt
  4

  0
ENDTAB
  0
TABLE
  2
VIEW
 70
     1
  0
VIEW
  2
ALL
 70
     0
 40
270.0
 10
220.99159700000001
 20
135.0
 41
0.0
 11
0.0
 21
0.0
 31
1.0
 12
0.0
 22
0.0
 32
0.0
 42
0.0
 43
0.0
 44
0.0
 50
0.0
 71
     0
  0
ENDTAB
  0
TABLE
  2
UCS
 70
     0
  0
ENDTAB
  0
TABLE
  2
APPID
 70
     3
  0
APPID
  2
ACAD
 70
     0
  0
APPID
  2
ACAD_MLEADERVER
 70
     0
  0
APPID
  2
ACAD_NAV_VCDISPLAY
 70
     0
  0
ENDTAB
  0
TABLE
  2
DIMSTYLE
 70
     1
  0
DIMSTYLE
  2
STANDARD
 70
     0
  3

  4

  5

  6

  7

 40
1.0
 41
0.18
 42
0.0625
 43
0.38
 44
0.18
 45
0.0
 46
0.0
 47
0.0
 48
0.0
140
0.18
141
0.09
142
0.0
143
25.399999999999999
144
1.0
145
0.0
146
1.0
147
0.09
 71
     0
 72
     0
 73
     1
 74
     1
 75
     0
 76
     0
 77
     0
 78
     0
170
     0
171
     2
172
     0
173
     0
174
     0
175
     0
176
     0
177
     0
178
     0
  0
ENDTAB
  0
ENDSEC
  0
SECTION
  2
BLOCKS
  0
BLOCK
  8
0
  2
$MODEL_SPACE
 70
     0
 10
0.0
 20
0.0
 30
0.0
  3
$MODEL_SPACE
  1

  0
ENDBLK
  5
E8
  8
0
  0
BLOCK
 67
     1
  8
0
  2
$PAPER_SPACE
 70
     0
 10
0.0
 20
0.0
 30
0.0
  3
$PAPER_SPACE
  1

  0
ENDBLK
  5
E6
 67
     1
  8
0
  0
ENDSEC
  0
SECTION
  2
ENTITIES
  0
CIRCLE
  5
37
  8
0
 10
123.58780899999999
 20
228.01708600000001
 30
0.0
 40
20.5
  0
LINE
  5
38
  8
1
 10
98.087808999999993
 20
228.01708600000001
 30
0.0
 11
274.58780899999999
 21
228.01708600000001
 31
0.0
  0
LINE
  5
39
  8
1
 10
254.58780899999999
 20
248.01708600000001
 30
0.0
 11
254.58780899999999
 21
208.01708600000001
 31
0.0
  0
LINE
  5
3A
  8
1
 10
123.58780899999999
 20
253.51708600000001
 30
0.0
 11
123.58780899999999
 21
202.51708600000001
 31
0.0
  0
ARC
  5
3B
  8
0
 10
254.58780899999999
 20
228.01708600000001
 30
0.0
 40
15.0
 50
209.926435
 51
150.073565
  0
LINE
  5
3C
  8
0
 10
241.58780899999999
 20
235.50040100000001
 30
0.0
 11
241.58780899999999
 21
220.533772
 31
0.0
  0
CIRCLE
  5
3D
  8
0
 10
123.58780899999999
 20
228.01708600000001
 30
0.0
 40
18.5
  0
CIRCLE
  5
3E
  8
0
 10
123.58780899999999
 20
228.01708600000001
 30
0.0
 40
11.0
  0
CIRCLE
  5
3F
  8
0
 10
123.58780899999999
 20
228.01708600000001
 30
0.0
 40
7.5
  0
CIRCLE
  5
40
  8
0
 10
123.58780899999999
 20
237.01708600000001
 30
0.0
 40
0.75
  0
LINE
  5
41
  8
1
 10
120.33780899999999
 20
237.01708600000001
 30
0.0
 11
126.83780899999999
 21
237.01708600000001
 31
0.0
  0
LINE
  5
42
  8
1
 10
120.33780899999999
 20
219.01708600000001
 30
0.0
 11
126.83780899999999
 21
219.01708600000001
 31
0.0
  0
CIRCLE
  5
43
  8
0
 10
123.58780899999999
 20
219.01708600000001
 30
0.0
 40
0.75
  0
TEXT
  5
44
  8
0
 10
121.25447566666659
 20
226.51708600000001
 30
0.0
 40
3.5
  1
Kipp
 41
0.4
  7
COMPLEX
 72
     1
 11
123.58780899999999
 21
226.51708600000001
 31
0.0
  0
ARC
  5
45
  8
0
 10
128.78396100000001
 20
225.01708600000001
 30
0.0
 40
0.5
 50
270.0
 51
30.0
  0
ARC
  5
46
  8
0
 10
118.391657
 20
225.01708600000001
 30
0.0
 40
0.5
 50
150.0
 51
270.0
  0
ARC
  5
47
  8
0
 10
123.58780899999999
 20
234.01708600000001
 30
0.0
 40
0.5
 50
30.0
 51
150.0
  0
LINE
  5
48
  8
0
 10
129.21697399999999
 20
225.26708600000001
 30
0.0
 11
124.020822
 21
234.26708600000001
 31
0.0
  0
LINE
  5
49
  8
0
 10
118.391657
 20
224.51708600000001
 30
0.0
 11
128.78396100000001
 21
224.51708600000001
 31
0.0
  0
LINE
  5
4A
  8
0
 10
123.154796
 20
234.26708600000001
 30
0.0
 11
117.95864400000001
 21
225.26708600000001
 31
0.0
  0
LINE
  5
4B
  8
0
 10
143.19010499999999
 20
234.01708600000001
 30
0.0
 11
241.58780899999999
 21
234.01708600000001
 31
0.0
  0
LINE
  5
4C
  8
0
 10
241.58780899999999
 20
222.01708600000001
 30
0.0
 11
143.19010499999999
 21
222.01708600000001
 31
0.0
  0
LINE
  5
4D
  8
0
 10
241.58780899999999
 20
130.227518
 30
0.0
 11
144.08780899999999
 21
130.227518
 31
0.0
  0
LINE
  5
4E
  8
0
 10
144.08780899999999
 20
142.227518
 30
0.0
 11
241.58780899999999
 21
142.227518
 31
0.0
  0
LINE
  5
4F
  8
0
 10
241.58780899999999
 20
143.71083300000001
 30
0.0
 11
241.58780899999999
 21
128.744203
 31
0.0
  0
ARC
  5
50
  8
0
 10
254.58780899999999
 20
136.227518
 30
0.0
 40
15.0
 50
209.926435
 51
150.073565
  0
LINE
  5
51
  8
1
 10
254.58780899999999
 20
156.227518
 30
0.0
 11
254.58780899999999
 21
116.227518
 31
0.0
  0
LINE
  5
52
  8
1
 10
98.087808999999993
 20
136.227518
 30
0.0
 11
274.58780899999999
 21
136.227518
 31
0.0
  0
LINE
  5
53
  8
0
 10
105.08780899999999
 20
144.727518
 30
0.0
 11
103.08780899999999
 21
142.727518
 31
0.0
  0
LINE
  5
54
  8
0
 10
103.08780899999999
 20
142.727518
 30
0.0
 11
103.08780899999999
 21
125.727518
 31
0.0
  0
LINE
  5
55
  8
0
 10
103.08780899999999
 20
125.727518
 30
0.0
 11
104.08780899999999
 21
124.727518
 31
0.0
  0
LINE
  5
56
  8
0
 10
114.08780899999999
 20
124.727518
 30
0.0
 11
114.08780899999999
 21
123.327518
 31
0.0
  0
LINE
  5
57
  8
0
 10
114.08780899999999
 20
123.327518
 30
0.0
 11
114.687809
 21
122.727518
 31
0.0
  0
LINE
  5
58
  8
0
 10
133.08780899999999
 20
123.327518
 30
0.0
 11
132.487809
 21
122.727518
 31
0.0
  0
LINE
  5
59
  8
0
 10
133.08780899999999
 20
124.727518
 30
0.0
 11
133.08780899999999
 21
123.327518
 31
0.0
  0
LINE
  5
5A
  8
0
 10
144.08780899999999
 20
125.727518
 30
0.0
 11
143.08780899999999
 21
124.727518
 31
0.0
  0
LINE
  5
5B
  8
0
 10
144.08780899999999
 20
142.727518
 30
0.0
 11
144.08780899999999
 21
142.227518
 31
0.0
  0
LINE
  5
5C
  8
0
 10
142.08780899999999
 20
144.727518
 30
0.0
 11
144.08780899999999
 21
142.727518
 31
0.0
  0
LINE
  5
5D
  8
0
 10
105.08780899999999
 20
144.727518
 30
0.0
 11
142.08780899999999
 21
144.727518
 31
0.0
  0
LINE
  5
5E
  8
0
 10
144.08780899999999
 20
142.727518
 30
0.0
 11
103.08780899999999
 21
142.727518
 31
0.0
  0
LINE
  5
5F
  8
0
 10
103.08780899999999
 20
125.727518
 30
0.0
 11
144.08780899999999
 21
125.727518
 31
0.0
  0
LINE
  5
60
  8
0
 10
104.08780899999999
 20
124.727518
 30
0.0
 11
143.08780899999999
 21
124.727518
 31
0.0
  0
LINE
  5
61
  8
0
 10
114.687809
 20
122.727518
 30
0.0
 11
132.487809
 21
122.727518
 31
0.0
  0
ARC
  5
62
  8
0
 10
163.69010499999999
 20
136.227518
 30
0.0
 40
20.5
 50
162.98135300000001
 51
197.01864699999999
  0
LINE
  5
63
  8
0
 10
144.08780899999999
 20
130.227518
 30
0.0
 11
144.08780899999999
 21
125.727518
 31
0.0
  0
LINE
  5
64
  8
1
 10
123.58780899999999
 20
149.727518
 30
0.0
 11
123.58780899999999
 21
117.727518
 31
0.0
  0
LINE
  5
65
  8
0
 10
114.08780899999999
 20
123.327518
 30
0.0
 11
133.08780899999999
 21
123.327518
 31
0.0
  0
LINE
  5
66
  8
0
 10
241.58780899999999
 20
35.987409999999997
 30
0.0
 11
143.19010499999999
 21
35.987409999999997
 31
0.0
  0
LINE
  5
67
  8
0
 10
143.19010499999999
 20
47.98740999999999
 30
0.0
 11
241.58780899999999
 21
47.98740999999999
 31
0.0
  0
LINE
  5
68
  8
0
 10
241.58780899999999
 20
49.470725000000002
 30
0.0
 11
241.58780899999999
 21
34.504095
 31
0.0
  0
ARC
  5
69
  8
0
 10
254.58780899999999
 20
41.987409999999997
 30
0.0
 40
15.0
 50
209.926435
 51
150.073565
  0
LINE
  5
6A
  8
1
 10
123.58780899999999
 20
67.487409999999997
 30
0.0
 11
123.58780899999999
 21
16.487410000000001
 31
0.0
  0
LINE
  5
6B
  8
1
 10
254.58780899999999
 20
61.987409999999997
 30
0.0
 11
254.58780899999999
 21
21.987410000000001
 31
0.0
  0
LINE
  5
6C
  8
1
 10
98.087808999999993
 20
41.987409999999997
 30
0.0
 11
274.58780899999999
 21
41.987409999999997
 31
0.0
  0
CIRCLE
  5
6D
  8
0
 10
123.58780899999999
 20
41.987409999999997
 30
0.0
 40
20.5
  0
CIRCLE
  5
6E
  8
0
 10
123.58780899999999
 20
41.987409999999997
 30
0.0
 40
19.5
  0
CIRCLE
  5
6F
  8
0
 10
123.58780899999999
 20
41.987409999999997
 30
0.0
 40
9.5
  0
CIRCLE
  5
70
  8
0
 10
123.58780899999999
 20
41.987409999999997
 30
0.0
 40
8.9000000000000004
  0
CIRCLE
  5
71
  8
3
 10
123.58780899999999
 20
41.987409999999997
 30
0.0
 40
5.0
  0
CIRCLE
  5
72
  8
0
 10
123.58780899999999
 20
41.987409999999997
 30
0.0
 40
4.1879999999999988
  0
LINE
  5
73
  8
0
 10
318.75761899999998
 20
123.327518
 30
0.0
 11
320.603208
 21
123.327518
 31
0.0
  0
LINE
  5
74
  8
1
 10
328.25761899999998
 20
156.227518
 30
0.0
 11
328.25761899999998
 21
116.227518
 31
0.0
  0
LINE
  5
75
  8
0
 10
348.75761899999998
 20
142.727518
 30
0.0
 11
348.75761899999998
 21
125.727518
 31
0.0
  0
LINE
  5
76
  8
0
 10
319.357619
 20
122.727518
 30
0.0
 11
321.71927099999999
 21
122.727518
 31
0.0
  0
LINE
  5
77
  8
0
 10
308.75761899999998
 20
124.727518
 30
0.0
 11
318.62693899999999
 21
124.727518
 31
0.0
  0
LINE
  5
78
  8
0
 10
307.75761899999998
 20
125.727518
 30
0.0
 11
317.54547600000001
 21
125.727518
 31
0.0
  0
LINE
  5
79
  8
0
 10
348.75761899999998
 20
142.727518
 30
0.0
 11
341.77612499999998
 21
142.727518
 31
0.0
  0
LINE
  5
7A
  8
0
 10
309.75761899999998
 20
144.727518
 30
0.0
 11
315.89841200000001
 21
144.727518
 31
0.0
  0
LINE
  5
7B
  8
0
 10
346.75761899999998
 20
144.727518
 30
0.0
 11
348.75761899999998
 21
142.727518
 31
0.0
  0
LINE
  5
7C
  8
0
 10
348.75761899999998
 20
125.727518
 30
0.0
 11
347.75761899999998
 21
124.727518
 31
0.0
  0
LINE
  5
7D
  8
0
 10
337.75761899999998
 20
124.727518
 30
0.0
 11
337.75761899999998
 21
123.327518
 31
0.0
  0
LINE
  5
7E
  8
0
 10
337.75761899999998
 20
123.327518
 30
0.0
 11
337.15761900000001
 21
122.727518
 31
0.0
  0
LINE
  5
7F
  8
0
 10
318.75761899999998
 20
123.327518
 30
0.0
 11
319.357619
 21
122.727518
 31
0.0
  0
LINE
  5
80
  8
0
 10
318.75761899999998
 20
124.727518
 30
0.0
 11
318.75761899999998
 21
123.327518
 31
0.0
  0
LINE
  5
81
  8
0
 10
307.75761899999998
 20
125.727518
 30
0.0
 11
308.75761899999998
 21
124.727518
 31
0.0
  0
LINE
  5
82
  8
0
 10
307.75761899999998
 20
142.727518
 30
0.0
 11
307.75761899999998
 21
125.727518
 31
0.0
  0
LINE
  5
83
  8
0
 10
309.75761899999998
 20
144.727518
 30
0.0
 11
307.75761899999998
 21
142.727518
 31
0.0
  0
LINE
  5
84
  8
1
 10
302.75761899999998
 20
136.227518
 30
0.0
 11
353.75761899999998
 21
136.227518
 31
0.0
  0
CIRCLE
  5
85
  8
0
 10
328.25761899999998
 20
136.227518
 30
0.0
 40
15.0
  0
LINE
  5
86
  8
0
 10
340.616826
 20
144.727518
 30
0.0
 11
346.75761899999998
 21
144.727518
 31
0.0
  0
LINE
  5
87
  8
0
 10
314.73911299999997
 20
142.727518
 30
0.0
 11
307.75761899999998
 21
142.727518
 31
0.0
  0
LINE
  5
88
  8
0
 10
338.969762
 20
125.727518
 30
0.0
 11
348.75761899999998
 21
125.727518
 31
0.0
  0
LINE
  5
89
  8
0
 10
337.88829900000002
 20
124.727518
 30
0.0
 11
347.75761899999998
 21
124.727518
 31
0.0
  0
LINE
  5
8A
  8
0
 10
335.91202900000002
 20
123.327518
 30
0.0
 11
337.75761899999998
 21
123.327518
 31
0.0
  0
LINE
  5
8B
  8
0
 10
334.79596700000002
 20
122.727518
 30
0.0
 11
337.15761900000001
 21
122.727518
 31
0.0
  0
LINE
  5
8C
  8
0
 10
73.324095999999997
 20
142.727518
 30
0.0
 11
32.324095999999997
 21
142.727518
 31
0.0
  0
ARC
  5
8D
  8
0
 10
52.824095999999997
 20
136.227518
 30
0.0
 40
15.0
 50
244.15806699999999
 51
295.84193299999998
  0
LINE
  5
8E
  8
1
 10
27.324096000000001
 20
136.227518
 30
0.0
 11
78.324095999999997
 21
136.227518
 31
0.0
  0
LINE
  5
8F
  8
0
 10
34.324096000000011
 20
144.727518
 30
0.0
 11
32.324095999999997
 21
142.727518
 31
0.0
  0
LINE
  5
90
  8
0
 10
32.324095999999997
 20
142.727518
 30
0.0
 11
32.324095999999997
 21
125.727518
 31
0.0
  0
LINE
  5
91
  8
0
 10
32.324095999999997
 20
125.727518
 30
0.0
 11
33.324095999999997
 21
124.727518
 31
0.0
  0
LINE
  5
92
  8
0
 10
43.324095999999997
 20
124.727518
 30
0.0
 11
43.324095999999997
 21
123.327518
 31
0.0
  0
LINE
  5
93
  8
0
 10
43.324095999999997
 20
123.327518
 30
0.0
 11
43.924095999999992
 21
122.727518
 31
0.0
  0
LINE
  5
94
  8
0
 10
62.324095999999997
 20
123.327518
 30
0.0
 11
61.724095999999989
 21
122.727518
 31
0.0
  0
LINE
  5
95
  8
0
 10
62.324095999999997
 20
124.727518
 30
0.0
 11
62.324095999999997
 21
123.327518
 31
0.0
  0
LINE
  5
96
  8
0
 10
73.324095999999997
 20
125.727518
 30
0.0
 11
72.324095999999997
 21
124.727518
 31
0.0
  0
LINE
  5
97
  8
0
 10
71.324095999999983
 20
144.727518
 30
0.0
 11
73.324095999999997
 21
142.727518
 31
0.0
  0
LINE
  5
98
  8
0
 10
34.324096000000011
 20
144.727518
 30
0.0
 11
71.324095999999983
 21
144.727518
 31
0.0
  0
LINE
  5
99
  8
0
 10
32.324095999999997
 20
125.727518
 30
0.0
 11
73.324095999999997
 21
125.727518
 31
0.0
  0
LINE
  5
9A
  8
0
 10
33.324095999999997
 20
124.727518
 30
0.0
 11
72.324095999999997
 21
124.727518
 31
0.0
  0
LINE
  5
9B
  8
0
 10
43.924095999999992
 20
122.727518
 30
0.0
 11
61.724095999999989
 21
122.727518
 31
0.0
  0
LINE
  5
9C
  8
0
 10
73.324095999999997
 20
142.727518
 30
0.0
 11
73.324095999999997
 21
125.727518
 31
0.0
  0
LINE
  5
9D
  8
1
 10
52.824095999999997
 20
156.227518
 30
0.0
 11
52.824095999999997
 21
116.227518
 31
0.0
  0
LINE
  5
9E
  8
0
 10
43.324095999999997
 20
123.327518
 30
0.0
 11
62.324095999999997
 21
123.327518
 31
0.0
  0
ARC
  5
9F
  8
0
 10
52.824095999999997
 20
136.227518
 30
0.0
 40
15.0
 50
34.518107999999998
 51
145.48189199999999
  0
LINE
  5
A9
  8
2
 10
118.58780899999999
 20
143.727518
 30
0.0
 11
128.58780899999999
 21
143.727518
 31
0.0
  0
LINE
  5
AA
  8
2
 10
127.775809
 20
143.727518
 30
0.0
 11
127.775809
 21
122.727518
 31
0.0
  0
LINE
  5
AB
  8
2
 10
119.399809
 20
143.727518
 30
0.0
 11
119.399809
 21
122.727518
 31
0.0
  0
LINE
  5
AC
  8
2
 10
128.58780899999999
 20
143.727518
 30
0.0
 11
128.58780899999999
 21
122.727518
 31
0.0
  0
LINE
  5
AD
  8
2
 10
118.58780899999999
 20
143.727518
 30
0.0
 11
118.58780899999999
 21
122.727518
 31
0.0
  0
LINE
  5
AE
  8
2
 10
47.824095999999997
 20
143.727518
 30
0.0
 11
47.824095999999997
 21
122.727518
 31
0.0
  0
LINE
  5
AF
  8
2
 10
57.824095999999997
 20
143.727518
 30
0.0
 11
57.824095999999997
 21
122.727518
 31
0.0
  0
LINE
  5
B0
  8
2
 10
48.636096000000002
 20
143.727518
 30
0.0
 11
48.636096000000002
 21
122.727518
 31
0.0
  0
LINE
  5
B1
  8
2
 10
57.012096
 20
143.727518
 30
0.0
 11
57.012096
 21
122.727518
 31
0.0
  0
LINE
  5
B2
  8
2
 10
47.824095999999997
 20
143.727518
 30
0.0
 11
57.824095999999997
 21
143.727518
 31
0.0
  0
TEXT
  5
1AB
  8
0
 62
     3
 10
0.0
 20
0.0
 30
0.0
 40
10.0
  1
FTF10-SUS
  7
STANDARD1
  0
ENDSEC
  0
EOF
