  0
SECTION
  2
HEADER
  9
$ACADVER
  1
AC1009
  9
$INSBASE
 10
0.0
 20
0.0
 30
0.0
  9
$EXTMIN
 10
0.0
 20
-2.960436562073669
 30
0.0
  9
$EXTMAX
 10
168.10702767381159
 20
170.08325709137929
 30
0.0
  9
$LIMMIN
 10
0.0
 20
0.0
  9
$LIMMAX
 10
375.0
 20
270.0
  9
$ORTHOMODE
 70
     1
  9
$REGENMODE
 70
     1
  9
$FILLMODE
 70
     1
  9
$QTEXTMODE
 70
     0
  9
$MIRRTEXT
 70
     0
  9
$DRAGMODE
 70
     2
  9
$LTSCALE
 40
10.0
  9
$OSMODE
 70
    37
  9
$ATTMODE
 70
     1
  9
$TEXTSIZE
 40
0.2
  9
$TRACEWID
 40
0.05
  9
$TEXTSTYLE
  7
STANDARD
  9
$CLAYER
  8
0
  9
$CELTYPE
  6
BYLAYER
  9
$CECOLOR
 62
   256
  9
$DIMSCALE
 40
1.0
  9
$DIMASZ
 40
3.0
  9
$DIMEXO
 40
2.0
  9
$DIMDLI
 40
0.38
  9
$DIMRND
 40
0.0
  9
$DIMDLE
 40
0.0
  9
$DIMEXE
 40
2.0
  9
$DIMTP
 40
0.0
  9
$DIMTM
 40
0.0
  9
$DIMTXT
 40
3.2000000000000002
  9
$DIMCEN
 40
0.0
  9
$DIMTSZ
 40
0.0
  9
$DIMTOL
 70
     0
  9
$DIMLIM
 70
     0
  9
$DIMTIH
 70
     0
  9
$DIMTOH
 70
     0
  9
$DIMSE1
 70
     0
  9
$DIMSE2
 70
     0
  9
$DIMTAD
 70
     1
  9
$DIMZIN
 70
     0
  9
$DIMBLK
  1

  9
$DIMASO
 70
     1
  9
$DIMSHO
 70
     0
  9
$DIMPOST
  1

  9
$DIMAPOST
  1

  9
$DIMALT
 70
     0
  9
$DIMALTD
 70
     2
  9
$DIMALTF
 40
25.399999999999999
  9
$DIMLFAC
 40
1.0
  9
$DIMTOFL
 70
     1
  9
$DIMTVP
 40
1.6000000000000001
  9
$DIMTIX
 70
     1
  9
$DIMSOXD
 70
     0
  9
$DIMSAH
 70
     0
  9
$DIMBLK1
  1

  9
$DIMBLK2
  1

  9
$DIMSTYLE
  2
STANDARD
  9
$DIMCLRD
 70
     0
  9
$DIMCLRE
 70
     0
  9
$DIMCLRT
 70
     0
  9
$DIMTFAC
 40
1.0
  9
$DIMGAP
 40
0.09
  9
$LUNITS
 70
     2
  9
$LUPREC
 70
     4
  9
$SKETCHINC
 40
0.1
  9
$FILLETRAD
 40
0.0
  9
$AUNITS
 70
     0
  9
$AUPREC
 70
     4
  9
$MENU
  1
E:\r13\win\SUPPORT\ACAD
  9
$ELEVATION
 40
0.0
  9
$PELEVATION
 40
0.0
  9
$THICKNESS
 40
0.0
  9
$LIMCHECK
 70
     0
  9
$BLIPMODE
 70
     0
  9
$CHAMFERA
 40
0.0
  9
$CHAMFERB
 40
0.0
  9
$SKPOLY
 70
     0
  9
$TDCREATE
 40
2448436.5572774308
  9
$TDUPDATE
 40
2456769.6697341669
  9
$TDINDWG
 40
0.2612047338
  9
$TDUSRTIMER
 40
0.2612047338
  9
$USRTIMER
 70
     1
  9
$ANGBASE
 50
0.0
  9
$ANGDIR
 70
     0
  9
$PDMODE
 70
     0
  9
$PDSIZE
 40
0.0
  9
$PLINEWID
 40
0.0
  9
$COORDS
 70
     1
  9
$SPLFRAME
 70
     0
  9
$SPLINETYPE
 70
     6
  9
$SPLINESEGS
 70
     8
  9
$ATTDIA
 70
     0
  9
$ATTREQ
 70
     1
  9
$HANDLING
 70
     1
  9
$HANDSEED
  5
23A2
  9
$SURFTAB1
 70
     6
  9
$SURFTAB2
 70
     6
  9
$SURFTYPE
 70
     6
  9
$SURFU
 70
     6
  9
$SURFV
 70
     6
  9
$UCSNAME
  2

  9
$UCSORG
 10
0.0
 20
0.0
 30
0.0
  9
$UCSXDIR
 10
1.0
 20
0.0
 30
0.0
  9
$UCSYDIR
 10
0.0
 20
1.0
 30
0.0
  9
$PUCSNAME
  2

  9
$PUCSORG
 10
0.0
 20
0.0
 30
0.0
  9
$PUCSXDIR
 10
1.0
 20
0.0
 30
0.0
  9
$PUCSYDIR
 10
0.0
 20
1.0
 30
0.0
  9
$USERI1
 70
     0
  9
$USERI2
 70
     1
  9
$USERI3
 70
     1
  9
$USERI4
 70
     0
  9
$USERI5
 70
     0
  9
$USERR1
 40
0.0
  9
$USERR2
 40
0.0
  9
$USERR3
 40
0.0
  9
$USERR4
 40
0.0
  9
$USERR5
 40
0.0
  9
$WORLDVIEW
 70
     1
  9
$SHADEDGE
 70
     3
  9
$SHADEDIF
 70
    70
  9
$TILEMODE
 70
     1
  9
$MAXACTVP
 70
    16
  9
$PLIMCHECK
 70
     0
  9
$PEXTMIN
 10
1.0000000000000000E+020
 20
1.0000000000000000E+020
 30
1.0000000000000000E+020
  9
$PEXTMAX
 10
-1.0000000000000000E+020
 20
-1.0000000000000000E+020
 30
-1.0000000000000000E+020
  9
$PLIMMIN
 10
0.0
 20
0.0
  9
$PLIMMAX
 10
12.0
 20
9.0
  9
$UNITMODE
 70
     0
  9
$VISRETAIN
 70
     0
  9
$PLINEGEN
 70
     1
  9
$PSLTSCALE
 70
     0
  0
ENDSEC
  0
SECTION
  2
TABLES
  0
TABLE
  2
VPORT
 70
     1
  0
VPORT
  2
*ACTIVE
 70
     0
 10
0.0
 20
0.0
 11
1.0
 21
1.0
 12
235.63977746870651
 22
135.0
 13
0.0
 23
0.0
 14
10.0
 24
10.0
 15
10.0
 25
10.0
 16
0.0
 26
0.0
 36
1.0
 17
0.0
 27
0.0
 37
0.0
 40
270.0
 41
1.7454798331015291
 42
50.0
 43
0.0
 44
0.0
 50
0.0
 51
0.0
 71
     0
 72
   500
 73
     1
 74
     0
 75
     0
 76
     0
 77
     0
 78
     2
  0
ENDTAB
  0
TABLE
  2
LTYPE
 70
     4
  0
LTYPE
  2
CONTINUOUS
 70
     0
  3
Solid Line
 72
    65
 73
     0
 40
0.0
  0
LTYPE
  2
CENTER
 70
     0
  3
____ _ ____ _ ____ _ ____ _ ____ _ ____ _ ____
 72
    65
 73
     4
 40
2.0
 49
1.25
 49
-0.25
 49
0.25
 49
-0.25
  0
LTYPE
  2
HIDDEN
 70
     0
  3
_ _ _ _ _ _ _ _ _ _ _ _ _ _ _ _ _ _ _ _ _ _ _
 72
    65
 73
     2
 40
0.375
 49
0.25
 49
-0.125
  0
LTYPE
  2
PHANTOM2
 70
     0
  3
___ _ _ ___ _ _ ___ _ _ ___ _ _
 72
    65
 73
     6
 40
1.25
 49
0.625
 49
-0.125
 49
0.125
 49
-0.125
 49
0.125
 49
-0.125
  0
ENDTAB
  0
TABLE
  2
LAYER
 70
     3
  0
LAYER
  2
0
 70
     0
 62
     7
  6
CONTINUOUS
  0
LAYER
  2
1
 70
     0
 62
     1
  6
CENTER
  0
LAYER
  2
2
 70
     0
 62
     2
  6
HIDDEN
  0
ENDTAB
  0
TABLE
  2
STYLE
 70
     2
  0
STYLE
  2
STANDARD
 70
     0
 40
0.0
 41
1.0
 50
0.0
 71
     0
 42
0.2
  3
TXT
  4
BIGFONT
  0
STYLE
  2
STANDARD1
 70
     0
 40
0.0
 41
1.0
 50
0.0
 71
     0
 42
3.0
  3
txt
  4

  0
ENDTAB
  0
TABLE
  2
VIEW
 70
     1
  0
VIEW
  2
ALL
 70
     0
 40
270.0
 10
220.99159663865549
 20
135.0
 41
0.0
 11
0.0
 21
0.0
 31
1.0
 12
0.0
 22
0.0
 32
0.0
 42
0.0
 43
0.0
 44
0.0
 50
0.0
 71
     0
  0
ENDTAB
  0
TABLE
  2
UCS
 70
     0
  0
ENDTAB
  0
TABLE
  2
APPID
 70
     4
  0
APPID
  2
ACAD
 70
     0
  0
APPID
  2
ACAD_MLEADERVER
 70
     0
  0
APPID
  2
ACAD_NAV_VCDISPLAY
 70
     0
  0
APPID
  2
ACAD_EXEMPT_FROM_CAD_STANDARDS
 70
     0
  0
ENDTAB
  0
TABLE
  2
DIMSTYLE
 70
     1
  0
DIMSTYLE
  2
STANDARD
 70
     0
  3

  4

  5

  6

  7

 40
1.0
 41
0.18
 42
0.0625
 43
0.38
 44
0.18
 45
0.0
 46
0.0
 47
0.0
 48
0.0
140
0.18
141
0.09
142
0.0
143
25.399999999999999
144
1.0
145
0.0
146
1.0
147
0.09
 71
     0
 72
     0
 73
     1
 74
     1
 75
     0
 76
     0
 77
     0
 78
     0
170
     0
171
     2
172
     0
173
     0
174
     0
175
     0
176
     0
177
     0
178
     0
  0
ENDTAB
  0
ENDSEC
  0
SECTION
  2
BLOCKS
  0
BLOCK
  8
0
  2
$MODEL_SPACE
 70
     0
 10
0.0
 20
0.0
 30
0.0
  3
$MODEL_SPACE
  1

  0
ENDBLK
  5
15E
  8
0
  0
BLOCK
 67
     1
  8
0
  2
$PAPER_SPACE
 70
     0
 10
0.0
 20
0.0
 30
0.0
  3
$PAPER_SPACE
  1

  0
ENDBLK
  5
15C
 67
     1
  8
0
  0
ENDSEC
  0
SECTION
  2
ENTITIES
  0
TEXT
  5
250
  8
0
 62
     3
 10
0.0
 20
0.0
 30
0.0
 40
10.0
  1
FTAH7660H
  7
STANDARD1
  0
LINE
  5
C9F
  8
0
 10
126.1070287057171
 20
152.28325801823149
 30
0.0
 11
126.1070287057171
 21
151.98325759652869
 31
0.0
  0
LINE
  5
CA0
  8
0
 10
126.1070287057171
 20
137.18325775940531
 30
0.0
 11
126.1070287057171
 21
136.98325776445779
 31
0.0
  0
LINE
  5
CA1
  8
0
 10
126.1070287057171
 20
122.1832579273344
 30
0.0
 11
126.1070287057171
 21
121.8832575056316
 31
0.0
  0
LINE
  5
CA2
  8
0
 10
134.10702908569669
 20
121.8832575056316
 30
0.0
 11
134.10702908569669
 21
122.1832579273344
 31
0.0
  0
LINE
  5
CA3
  8
0
 10
134.10702908569669
 20
136.98325776445779
 30
0.0
 11
134.10702908569669
 21
137.18325775940531
 31
0.0
  0
LINE
  5
CA4
  8
0
 10
134.10702908569669
 20
151.98325759652869
 30
0.0
 11
134.10702908569669
 21
152.28325801823149
 31
0.0
  0
LINE
  5
CA5
  8
0
 10
133.60702900374031
 20
107.0832584324838
 30
0.0
 11
133.60702900374031
 21
121.8832575056316
 31
0.0
  0
LINE
  5
CA7
  8
0
 10
126.6070287876734
 20
107.0832584324838
 30
0.0
 11
126.6070287876734
 21
121.8832575056316
 31
0.0
  0
LINE
  5
CAA
  8
0
 10
122.6070290633449
 20
121.8832575056316
 30
0.0
 11
122.6070290633449
 21
107.0832584324838
 31
0.0
  0
LINE
  5
CAD
  8
0
 10
137.6070287280688
 20
107.0832584324838
 30
0.0
 11
92.107030117602051
 21
107.0832584324838
 31
0.0
  0
LINE
  5
CAF
  8
0
 10
137.6070287280688
 20
107.0832584324838
 30
0.0
 11
137.6070287280688
 21
121.8832575056316
 31
0.0
  0
LINE
  5
CB1
  8
0
 10
137.6070287280688
 20
121.8832575056316
 30
0.0
 11
121.60702843377091
 21
121.8832575056316
 31
0.0
  0
LINE
  5
CB5
  8
0
 10
121.60702843377091
 20
137.18325775940531
 30
0.0
 11
137.6070287280688
 21
137.18325775940531
 31
0.0
  0
LINE
  5
CB6
  8
0
 10
122.6070290633449
 20
151.98325759652869
 30
0.0
 11
122.6070290633449
 21
137.18325775940531
 31
0.0
  0
LINE
  5
CB7
  8
0
 10
126.6070287876734
 20
151.98325759652869
 30
0.0
 11
126.6070287876734
 21
137.18325775940531
 31
0.0
  0
LINE
  5
CB9
  8
0
 10
133.60702900374031
 20
137.18325775940531
 30
0.0
 11
133.60702900374031
 21
151.98325759652869
 31
0.0
  0
LINE
  5
CBB
  8
0
 10
137.6070287280688
 20
151.98325759652869
 30
0.0
 11
121.60702843377091
 21
151.98325759652869
 31
0.0
  0
LINE
  5
CBD
  8
0
 10
137.6070287280688
 20
137.18325775940531
 30
0.0
 11
137.6070287280688
 21
151.98325759652869
 31
0.0
  0
LINE
  5
CBE
  8
0
 10
121.60702843377091
 20
167.08325709137929
 30
0.0
 11
121.60702843377091
 21
151.98325759652869
 31
0.0
  0
LINE
  5
CBF
  8
0
 10
121.60702843377091
 20
167.08325709137929
 30
0.0
 11
92.107030117602051
 21
167.08325709137929
 31
0.0
  0
LINE
  5
CC0
  8
0
 10
96.107027047962845
 20
167.08325709137929
 30
0.0
 11
96.107027047962845
 21
107.0832584324838
 31
0.0
  0
LINE
  5
CC1
  8
0
 10
121.60702843377091
 20
137.18325775940531
 30
0.0
 11
121.60702843377091
 21
121.8832575056316
 31
0.0
  0
LINE
  5
CC3
  8
0
 10
92.107030117602051
 20
167.08325709137929
 30
0.0
 11
92.107030117602051
 21
107.0832584324838
 31
0.0
  0
CIRCLE
  5
CC6
  8
0
 10
109.1070288957068
 20
154.08325776193161
 30
0.0
 40
5.9970000000000141
  0
CIRCLE
  5
CCB
  8
0
 10
109.1070288957068
 20
154.08325776193161
 30
0.0
 40
3.099999999999965
  0
CIRCLE
  5
CCE
  8
0
 10
109.1070288957068
 20
120.08325776193161
 30
0.0
 40
5.9970000000000141
  0
CIRCLE
  5
CD3
  8
0
 10
109.1070288957068
 20
120.08325776193161
 30
0.0
 40
3.099999999999965
  0
LINE
  5
DCA
  8
0
 10
133.60702900374031
 20
167.08325709137929
 30
0.0
 11
133.60702900374031
 21
152.28325801823149
 31
0.0
  0
LINE
  5
DCC
  8
0
 10
137.6070287280688
 20
152.28325801823149
 30
0.0
 11
137.6070287280688
 21
167.08325709137929
 31
0.0
  0
LINE
  5
DCE
  8
0
 10
168.10702767381159
 20
167.08325709137941
 30
0.0
 11
122.6070290633449
 21
167.08325709137929
 31
0.0
  0
LINE
  5
DD2
  8
0
 10
126.6070287876734
 20
167.08325709137929
 30
0.0
 11
126.6070287876734
 21
152.28325801823149
 31
0.0
  0
LINE
  5
DD4
  8
0
 10
122.6070290633449
 20
167.08325709137929
 30
0.0
 11
122.6070290633449
 21
152.28325801823149
 31
0.0
  0
LINE
  5
DD6
  8
0
 10
122.6070290633449
 20
152.28325801823149
 30
0.0
 11
138.60702935764289
 21
152.28325801823149
 31
0.0
  0
LINE
  5
DDA
  8
0
 10
138.60702935764289
 20
136.98325776445779
 30
0.0
 11
122.6070290633449
 21
136.98325776445779
 31
0.0
  0
LINE
  5
DDB
  8
0
 10
133.60702900374031
 20
122.1832579273344
 30
0.0
 11
133.60702900374031
 21
136.98325776445779
 31
0.0
  0
LINE
  5
DDC
  8
0
 10
126.6070287876734
 20
136.98325776445779
 30
0.0
 11
126.6070287876734
 21
122.1832579273344
 31
0.0
  0
LINE
  5
DDE
  8
0
 10
137.6070287280688
 20
122.1832579273344
 30
0.0
 11
137.6070287280688
 21
136.98325776445779
 31
0.0
  0
LINE
  5
DE0
  8
0
 10
122.6070290633449
 20
136.98325776445779
 30
0.0
 11
122.6070290633449
 21
122.1832579273344
 31
0.0
  0
LINE
  5
DE2
  8
0
 10
122.6070290633449
 20
122.1832579273344
 30
0.0
 11
138.60702935764289
 21
122.1832579273344
 31
0.0
  0
LINE
  5
DE3
  8
0
 10
138.60702935764289
 20
107.0832584324838
 30
0.0
 11
138.60702935764289
 21
122.1832579273344
 31
0.0
  0
LINE
  5
DE4
  8
0
 10
138.60702935764289
 20
107.0832584324838
 30
0.0
 11
168.10702767381159
 21
107.0832584324838
 31
0.0
  0
LINE
  5
DE5
  8
0
 10
164.10703074345079
 20
107.0832584324838
 30
0.0
 11
164.10703074345079
 21
167.08325709137929
 31
0.0
  0
LINE
  5
DE6
  8
0
 10
138.60702935764289
 20
136.98325776445779
 30
0.0
 11
138.60702935764289
 21
152.28325801823149
 31
0.0
  0
LINE
  5
DF0
  8
0
 10
168.10702767381159
 20
107.0832584324838
 30
0.0
 11
168.10702767381159
 21
167.08325709137929
 31
0.0
  0
LINE
  5
EFE
  8
0
 10
119.60702903726791
 20
44.304662676670432
 30
0.0
 11
119.60702903726791
 21
45.504662617252052
 31
0.0
  0
LINE
  5
EFF
  8
0
 10
98.607028389067352
 20
45.504662617252052
 30
0.0
 11
98.607028389067352
 21
44.304662676670432
 31
0.0
  0
ARC
  5
F01
  8
0
 10
130.10702903348979
 20
46.554662442030001
 30
0.0
 40
7.4999996945789764
 50
269.99999894741609
 51
0.0000010525838601
  0
LINE
  5
F03
  8
0
 10
133.60702900374031
 20
53.554662795879779
 30
0.0
 11
137.6070287280688
 21
49.554662605889973
 31
0.0
  0
LINE
  5
F04
  8
0
 10
126.6070287876734
 20
53.554662795879779
 30
0.0
 11
133.60702900374031
 21
53.554662795879779
 31
0.0
  0
LINE
  5
F05
  8
0
 10
122.6070290633449
 20
49.554662605889973
 30
0.0
 11
126.6070287876734
 21
53.554662795879779
 31
0.0
  0
LINE
  5
F06
  8
0
 10
122.6070290633449
 20
44.304662676670489
 30
0.0
 11
122.6070290633449
 21
49.554662605889973
 31
0.0
  0
LINE
  5
F07
  8
0
 10
122.6070290633449
 20
44.304662676670489
 30
0.0
 11
96.107027047962845
 21
44.304662676670489
 31
0.0
  0
LINE
  5
F08
  8
0
 10
96.107027047962845
 20
44.304662676670489
 30
0.0
 11
92.107030117602051
 21
40.304662486680677
 31
0.0
  0
LINE
  5
F09
  8
0
 10
92.107030117602051
 20
40.304662486680677
 30
0.0
 11
92.107030117602051
 21
38.554662199833331
 31
0.0
  0
LINE
  5
F0A
  8
0
 10
92.107030117602051
 20
38.554662199833331
 30
0.0
 11
121.60702843377091
 21
38.554662199833331
 31
0.0
  0
LINE
  5
F0B
  8
0
 10
121.60702843377091
 20
38.554662199833331
 30
0.0
 11
121.60702843377091
 21
39.054662747450998
 31
0.0
  0
ARC
  5
F0F
  8
0
 10
99.407030591962794
 20
45.504660365040067
 30
0.0
 40
0.8000022028985981
 50
89.999988296726372
 51
179.9998386976439
  0
LINE
  5
F10
  8
0
 10
99.407028892726601
 20
46.304662567938522
 30
0.0
 11
118.8070285336086
 21
46.304662567938522
 31
0.0
  0
ARC
  5
F11
  8
0
 10
118.8070288298517
 20
45.504662360523177
 30
0.0
 40
0.8000002074162506
 50
0.0000183868442197
 51
90.000087917893595
  0
LINE
  5
F12
  8
0
 10
98.607028389067352
 20
45.504662617252052
 30
0.0
 11
119.60702903726791
 21
45.504662617252052
 31
0.0
  0
LINE
  5
F13
  8
0
 10
164.10703074345079
 20
44.304662676670489
 30
0.0
 11
168.10702767381159
 21
40.304662486680677
 31
0.0
  0
LINE
  5
F14
  8
0
 10
137.60702872806891
 20
44.304662676670489
 30
0.0
 11
164.10703074345079
 21
44.304662676670489
 31
0.0
  0
LINE
  5
F15
  8
0
 10
138.60702935764289
 20
38.554662199833331
 30
0.0
 11
138.60702935764289
 21
44.304662676670489
 31
0.0
  0
LINE
  5
F16
  8
0
 10
168.10702767381159
 20
38.554662199833331
 30
0.0
 11
138.60702935764289
 21
38.554662199833331
 31
0.0
  0
LINE
  5
F17
  8
0
 10
168.10702767381159
 20
40.304662486680677
 30
0.0
 11
168.10702767381159
 21
38.554662199833331
 31
0.0
  0
LINE
  5
F19
  8
0
 10
137.6070287280688
 20
44.304662676670432
 30
0.0
 11
137.6070287280688
 21
49.55466260588986
 31
0.0
  0
LINE
  5
F1A
  8
0
 10
138.60702935764289
 20
39.054662747450948
 30
0.0
 11
121.60702843377091
 21
39.054662747450948
 31
0.0
  0
LINE
  5
F74
  8
2
 10
106.0070288569638
 20
43.304662512757652
 30
0.0
 11
112.20702950069401
 21
43.304662512757652
 31
0.0
  0
LINE
  5
F95
  8
2
 10
117.1070288957069
 20
41.004662694551882
 30
0.0
 11
101.1070288957069
 21
41.00466269455174
 31
0.0
  0
LINE
  5
10B1
  8
2
 10
114.6070291490266
 20
38.554662199833267
 30
0.0
 11
114.6070291490266
 21
41.00466269455179
 31
0.0
  0
LINE
  5
10B2
  8
2
 10
103.1100289166877
 20
46.304662567938522
 30
0.0
 11
106.0070288569638
 21
43.304662512757652
 31
0.0
  0
LINE
  5
10B3
  8
2
 10
112.20702950069401
 20
43.304662512757652
 30
0.0
 11
115.10402850964751
 21
46.304662567938522
 31
0.0
  0
LINE
  5
10B4
  8
2
 10
115.00702846953359
 20
41.004662694551818
 30
0.0
 11
115.00702846953359
 21
44.304662676670489
 31
0.0
  0
LINE
  5
10B5
  8
2
 10
103.207028025479
 20
44.304662676670489
 30
0.0
 11
103.207028025479
 21
41.004662694551818
 31
0.0
  0
LINE
  5
10B6
  8
2
 10
112.20702950069401
 20
41.004662694551818
 30
0.0
 11
112.20702950069401
 21
43.304662512757652
 31
0.0
  0
LINE
  5
10B7
  8
2
 10
106.0070288569638
 20
43.304662512757652
 30
0.0
 11
106.0070288569638
 21
41.004662694551818
 31
0.0
  0
LINE
  5
10C5
  8
0
 10
51.478008371663002
 20
152.28325801823149
 30
0.0
 11
51.478008371663002
 21
151.98325759652869
 31
0.0
  0
LINE
  5
10C6
  8
0
 10
51.478008371663002
 20
137.18325775940531
 30
0.0
 11
51.478008371663002
 21
136.98325776445779
 31
0.0
  0
LINE
  5
10C7
  8
0
 10
51.478008371663002
 20
122.1832579273344
 30
0.0
 11
51.478008371663002
 21
121.8832575056316
 31
0.0
  0
LINE
  5
10C9
  8
0
 10
54.478008397740041
 20
137.18325775940531
 30
0.0
 11
45.228008278530751
 21
137.18325775940531
 31
0.0
  0
LINE
  5
10CC
  8
0
 10
50.478008207750229
 20
137.18325775940531
 30
0.0
 11
50.478008207750229
 21
151.98325759652869
 31
0.0
  0
LINE
  5
10CD
  8
0
 10
47.228008169798947
 20
151.9832575965286
 30
0.0
 11
54.478008397740041
 21
151.98325759652869
 31
0.0
  0
LINE
  5
10D1
  8
0
 10
47.228008169798947
 20
121.8832575056316
 30
0.0
 11
54.478008397740041
 21
121.8832575056316
 31
0.0
  0
LINE
  5
10D4
  8
0
 10
50.478008207750229
 20
107.0832584324838
 30
0.0
 11
50.478008207750229
 21
121.8832575056316
 31
0.0
  0
LINE
  5
10D7
  8
0
 10
54.478008397740041
 20
107.0832584324838
 30
0.0
 11
54.478008397740041
 21
121.8832575056316
 31
0.0
  0
LINE
  5
10D8
  8
0
 10
54.478008397740041
 20
137.18325775940531
 30
0.0
 11
54.478008397740041
 21
151.98325759652869
 31
0.0
  0
LINE
  5
10DA
  8
0
 10
54.478008397740041
 20
107.0832584324838
 30
0.0
 11
39.478007801693707
 21
107.0832584324838
 31
0.0
  0
LINE
  5
10DB
  8
0
 10
39.478007801693707
 20
107.0832584324838
 30
0.0
 11
39.478007801693707
 21
167.08325709137929
 31
0.0
  0
LINE
  5
10DF
  8
0
 10
54.478008397740041
 20
167.08325709137929
 30
0.0
 11
39.478007801693707
 21
167.08325709137929
 31
0.0
  0
LINE
  5
10E0
  8
0
 10
41.22800808854106
 20
107.0832584324838
 30
0.0
 11
41.22800808854106
 21
167.08325709137929
 31
0.0
  0
LINE
  5
10E1
  8
0
 10
45.228008278530858
 20
107.0832584324838
 30
0.0
 11
45.228008278530858
 21
167.08325709137929
 31
0.0
  0
LINE
  5
10E2
  8
0
 10
47.228008169798947
 20
152.28325801823149
 30
0.0
 11
54.478008397740041
 21
152.28325801823149
 31
0.0
  0
LINE
  5
10E4
  8
0
 10
47.228008169798947
 20
122.1832579273344
 30
0.0
 11
54.478008397740041
 21
122.1832579273344
 31
0.0
  0
LINE
  5
10E7
  8
0
 10
54.478008397740041
 20
136.98325776445779
 30
0.0
 11
45.228008278530751
 21
136.98325776445779
 31
0.0
  0
LINE
  5
10E8
  8
0
 10
50.478008207750229
 20
152.28325801823149
 30
0.0
 11
50.478008207750229
 21
167.08325709137929
 31
0.0
  0
LINE
  5
10E9
  8
0
 10
54.478008397740041
 20
167.08325709137929
 30
0.0
 11
54.478008397740041
 21
152.28325801823149
 31
0.0
  0
LINE
  5
10EA
  8
0
 10
50.478008207750229
 20
122.1832579273344
 30
0.0
 11
50.478008207750229
 21
136.98325776445779
 31
0.0
  0
LINE
  5
10EB
  8
0
 10
54.478008397740041
 20
122.1832579273344
 30
0.0
 11
54.478008397740041
 21
136.98325776445779
 31
0.0
  0
CIRCLE
  5
11D6
  8
0
 10
109.1070288957068
 20
154.08325776193161
 30
0.0
 40
10.49999999999998
  0
CIRCLE
  5
11D8
  8
0
 10
109.1070288957068
 20
120.08325776193161
 30
0.0
 40
10.49999999999998
  0
LINE
  5
11D9
  8
1
 10
109.1070288957068
 20
166.58325776193161
 30
0.0
 11
109.1070288957068
 21
141.58325776193161
 31
0.0
  0
LINE
  5
11DA
  8
1
 10
121.6070288957068
 20
154.08325776193161
 30
0.0
 11
96.607028895706847
 21
154.08325776193161
 31
0.0
  0
LINE
  5
11DB
  8
1
 10
121.6070288957068
 20
120.08325776193161
 30
0.0
 11
96.607028895706847
 21
120.08325776193161
 31
0.0
  0
LINE
  5
11E4
  8
1
 10
109.1070288957068
 20
132.58325776193161
 30
0.0
 11
109.1070288957068
 21
107.58325776193161
 31
0.0
  0
CIRCLE
  5
11E6
  8
0
 10
151.10702889570689
 20
154.08325776193161
 30
0.0
 40
5.9970000000000141
  0
CIRCLE
  5
11E7
  8
0
 10
151.10702889570689
 20
154.08325776193161
 30
0.0
 40
3.099999999999965
  0
CIRCLE
  5
11E8
  8
0
 10
151.10702889570689
 20
120.08325776193161
 30
0.0
 40
5.9970000000000141
  0
CIRCLE
  5
11E9
  8
0
 10
151.10702889570689
 20
120.08325776193161
 30
0.0
 40
3.099999999999965
  0
CIRCLE
  5
11EA
  8
0
 10
151.10702889570689
 20
154.08325776193161
 30
0.0
 40
10.49999999999998
  0
CIRCLE
  5
11EB
  8
0
 10
151.10702889570689
 20
120.08325776193161
 30
0.0
 40
10.49999999999998
  0
LINE
  5
11EC
  8
1
 10
151.10702889570689
 20
166.58325776193161
 30
0.0
 11
151.10702889570689
 21
141.58325776193161
 31
0.0
  0
LINE
  5
11ED
  8
1
 10
151.10702889570689
 20
132.58325776193161
 30
0.0
 11
151.10702889570689
 21
107.58325776193161
 31
0.0
  0
LINE
  5
11EE
  8
1
 10
163.60702889570689
 20
154.08325776193161
 30
0.0
 11
138.60702889570689
 21
154.08325776193161
 31
0.0
  0
LINE
  5
11EF
  8
1
 10
163.60702889570689
 20
120.08325776193161
 30
0.0
 11
138.60702889570689
 21
120.08325776193161
 31
0.0
  0
LINE
  5
11F1
  8
1
 10
130.10702889570689
 20
170.08325709137929
 30
0.0
 11
130.10702889570689
 21
104.0832584324838
 31
0.0
  0
LINE
  5
11FB
  8
0
 10
45.228008278530858
 20
143.58325776193161
 30
0.0
 11
46.428008219112478
 21
143.58325776193161
 31
0.0
  0
LINE
  5
11FC
  8
0
 10
46.428008219112478
 20
164.5832584101322
 30
0.0
 11
45.228008278530858
 21
164.5832584101322
 31
0.0
  0
ARC
  5
120C
  8
0
 10
46.428005966900507
 20
163.78325620723669
 30
0.0
 40
0.8000022028985981
 50
359.99998829672472
 51
89.999838697642318
  0
LINE
  5
120D
  8
0
 10
47.228008169798947
 20
163.7832579064729
 30
0.0
 11
47.228008169798947
 21
144.38325826559091
 31
0.0
  0
ARC
  5
120E
  8
0
 10
46.42800796238361
 20
144.3832579693478
 30
0.0
 40
0.8000002074162506
 50
270.00001838684261
 51
0.000087917893591
  0
LINE
  5
120F
  8
0
 10
46.428008219112478
 20
164.5832584101322
 30
0.0
 11
46.428008219112478
 21
143.58325776193161
 31
0.0
  0
LINE
  5
13C1
  8
0
 10
45.228008278530858
 20
109.58325711373099
 30
0.0
 11
46.428008219112478
 21
109.58325711373099
 31
0.0
  0
LINE
  5
13C2
  8
0
 10
46.428008219112478
 20
130.58325776193161
 30
0.0
 11
45.228008278530858
 21
130.58325776193161
 31
0.0
  0
ARC
  5
13C3
  8
0
 10
46.428005966900507
 20
129.78325555903609
 30
0.0
 40
0.8000022028985981
 50
359.99998829672472
 51
89.999838697642318
  0
LINE
  5
13C4
  8
0
 10
47.228008169798947
 20
129.7832572582723
 30
0.0
 11
47.228008169798947
 21
110.3832576173903
 31
0.0
  0
ARC
  5
13C5
  8
0
 10
46.42800796238361
 20
110.3832573211472
 30
0.0
 40
0.8000002074162506
 50
270.00001838684261
 51
0.000087917893591
  0
LINE
  5
13C6
  8
0
 10
46.428008219112478
 20
130.58325776193161
 30
0.0
 11
46.428008219112478
 21
109.58325711373099
 31
0.0
  0
LINE
  5
13C7
  8
1
 10
37.478007801693707
 20
154.08325776193169
 30
0.0
 11
49.228008169798947
 21
154.08325776193169
 31
0.0
  0
LINE
  5
13C8
  8
1
 10
37.478007801693707
 20
120.08325776193161
 30
0.0
 11
49.228008169798947
 21
120.08325776193161
 31
0.0
  0
CIRCLE
  5
1410
  8
0
 10
130.10702889570689
 20
46.554662579812941
 30
0.0
 40
4.049999998277201
  0
LINE
  5
1417
  8
0
 10
161.60702903726801
 20
44.304662676670432
 30
0.0
 11
161.60702903726801
 21
45.504662617252052
 31
0.0
  0
LINE
  5
1418
  8
0
 10
140.60702838906741
 20
45.504662617252052
 30
0.0
 11
140.60702838906741
 21
44.304662676670432
 31
0.0
  0
ARC
  5
1419
  8
0
 10
141.40703059196281
 20
45.504660365040067
 30
0.0
 40
0.8000022028985981
 50
89.999988296726372
 51
179.9998386976439
  0
LINE
  5
141A
  8
0
 10
141.4070288927266
 20
46.304662567938522
 30
0.0
 11
160.8070285336087
 21
46.304662567938522
 31
0.0
  0
ARC
  5
141B
  8
0
 10
160.80702882985179
 20
45.504662360523177
 30
0.0
 40
0.8000002074162506
 50
0.0000183868442197
 51
90.000087917893595
  0
LINE
  5
141C
  8
0
 10
140.60702838906741
 20
45.504662617252052
 30
0.0
 11
161.60702903726801
 21
45.504662617252052
 31
0.0
  0
LINE
  5
141D
  8
1
 10
109.1070288957068
 20
48.304662567938522
 30
0.0
 11
109.1070288957068
 21
36.554662199833331
 31
0.0
  0
LINE
  5
141E
  8
1
 10
151.10702889570689
 20
48.304662567938522
 30
0.0
 11
151.10702889570689
 21
36.554662199833331
 31
0.0
  0
LINE
  5
1D07
  8
2
 10
103.60702864238711
 20
38.55466219983353
 30
0.0
 11
103.60702864238721
 21
41.00466269455179
 31
0.0
  0
LINE
  5
1D10
  8
2
 10
101.1070288957069
 20
41.00466269455174
 30
0.0
 11
101.1070288957069
 21
44.304662676670489
 31
0.0
  0
LINE
  5
1D11
  8
2
 10
117.1070288957069
 20
41.004662694551882
 30
0.0
 11
117.1070288957069
 21
44.304662676670489
 31
0.0
  0
LINE
  5
1D14
  8
2
 10
148.00702885696381
 20
43.304662512757652
 30
0.0
 11
154.20702950069401
 21
43.304662512757652
 31
0.0
  0
LINE
  5
1D15
  8
2
 10
159.10702889570689
 20
41.004662694551882
 30
0.0
 11
143.10702889570689
 21
41.00466269455174
 31
0.0
  0
LINE
  5
1D16
  8
2
 10
156.6070291490266
 20
38.554662199833267
 30
0.0
 11
156.60702914902669
 21
41.00466269455179
 31
0.0
  0
LINE
  5
1D17
  8
2
 10
145.1100289166877
 20
46.304662567938522
 30
0.0
 11
148.00702885696381
 21
43.304662512757652
 31
0.0
  0
LINE
  5
1D18
  8
2
 10
154.20702950069401
 20
43.304662512757652
 30
0.0
 11
157.10402850964761
 21
46.304662567938522
 31
0.0
  0
LINE
  5
1D19
  8
2
 10
157.00702846953371
 20
41.004662694551818
 30
0.0
 11
157.00702846953371
 21
44.304662676670489
 31
0.0
  0
LINE
  5
1D1A
  8
2
 10
145.20702802547899
 20
44.304662676670489
 30
0.0
 11
145.20702802547899
 21
41.004662694551818
 31
0.0
  0
LINE
  5
1D1B
  8
2
 10
154.20702950069401
 20
41.004662694551818
 30
0.0
 11
154.20702950069401
 21
43.304662512757652
 31
0.0
  0
LINE
  5
1D1C
  8
2
 10
148.00702885696381
 20
43.304662512757652
 30
0.0
 11
148.00702885696381
 21
41.004662694551818
 31
0.0
  0
LINE
  5
1D1D
  8
2
 10
145.60702864238709
 20
38.55466219983353
 30
0.0
 11
145.60702864238721
 21
41.00466269455179
 31
0.0
  0
LINE
  5
1D1E
  8
2
 10
143.10702889570689
 20
41.00466269455174
 30
0.0
 11
143.10702889570689
 21
44.304662676670489
 31
0.0
  0
LINE
  5
1D1F
  8
2
 10
159.10702889570689
 20
41.004662694551882
 30
0.0
 11
159.10702889570689
 21
44.304662676670489
 31
0.0
  0
LINE
  5
1D64
  8
1
 10
130.10702889570689
 20
56.554662795879779
 30
0.0
 11
130.10702889570689
 21
36.054662747450948
 31
0.0
  0
LINE
  5
1D65
  8
1
 10
136.15702889398409
 20
46.554662579812941
 30
0.0
 11
124.0570288974297
 21
46.554662579812941
 31
0.0
  0
LINE
  5
1D7F
  8
2
 10
44.228008114618042
 20
157.18325780067471
 30
0.0
 11
44.228008114618042
 21
150.98325715694449
 31
0.0
  0
LINE
  5
1D80
  8
2
 10
41.928008296412258
 20
146.08325776193161
 30
0.0
 11
41.928008296412088
 21
162.08325776193161
 31
0.0
  0
LINE
  5
1D81
  8
2
 10
39.47800780169365
 20
148.58325750861189
 30
0.0
 11
41.928008296412202
 21
148.58325750861189
 31
0.0
  0
LINE
  5
1D82
  8
2
 10
47.228008169798898
 20
160.0802577409508
 30
0.0
 11
44.228008114618042
 21
157.18325780067471
 31
0.0
  0
LINE
  5
1D83
  8
2
 10
44.228008114618042
 20
150.98325715694449
 30
0.0
 11
47.228008169798898
 21
148.08625814799089
 31
0.0
  0
LINE
  5
1D84
  8
2
 10
41.928008296412202
 20
148.1832581881049
 30
0.0
 11
45.228008278530858
 21
148.1832581881049
 31
0.0
  0
LINE
  5
1D85
  8
2
 10
45.228008278530858
 20
159.9832586321595
 30
0.0
 11
41.928008296412202
 21
159.9832586321595
 31
0.0
  0
LINE
  5
1D86
  8
2
 10
41.928008296412202
 20
150.98325715694449
 30
0.0
 11
44.228008114618042
 21
150.98325715694449
 31
0.0
  0
LINE
  5
1D87
  8
2
 10
44.228008114618042
 20
157.18325780067471
 30
0.0
 11
41.928008296412202
 21
157.18325780067471
 31
0.0
  0
LINE
  5
1D91
  8
2
 10
39.478007801693877
 20
159.5832580152514
 30
0.0
 11
41.928008296412202
 21
159.58325801525129
 31
0.0
  0
LINE
  5
1D92
  8
2
 10
41.928008296412088
 20
162.08325776193161
 30
0.0
 11
45.228008278530858
 21
162.08325776193161
 31
0.0
  0
LINE
  5
1D93
  8
2
 10
41.928008296412258
 20
146.08325776193161
 30
0.0
 11
45.228008278530858
 21
146.08325776193161
 31
0.0
  0
LINE
  5
1D94
  8
2
 10
44.228008114618042
 20
123.1832578006746
 30
0.0
 11
44.228008114618042
 21
116.9832571569444
 31
0.0
  0
LINE
  5
1D95
  8
2
 10
41.928008296412258
 20
112.08325776193151
 30
0.0
 11
41.928008296412088
 21
128.08325776193149
 31
0.0
  0
LINE
  5
1D96
  8
2
 10
39.47800780169365
 20
114.58325750861179
 30
0.0
 11
41.928008296412202
 21
114.58325750861179
 31
0.0
  0
LINE
  5
1D97
  8
2
 10
47.228008169798898
 20
126.0802577409507
 30
0.0
 11
44.228008114618042
 21
123.1832578006746
 31
0.0
  0
LINE
  5
1D98
  8
2
 10
44.228008114618042
 20
116.9832571569444
 30
0.0
 11
47.228008169798898
 21
114.0862581479908
 31
0.0
  0
LINE
  5
1D99
  8
2
 10
41.928008296412202
 20
114.1832581881048
 30
0.0
 11
45.228008278530858
 21
114.1832581881048
 31
0.0
  0
LINE
  5
1D9A
  8
2
 10
45.228008278530858
 20
125.98325863215941
 30
0.0
 11
41.928008296412202
 21
125.98325863215941
 31
0.0
  0
LINE
  5
1D9B
  8
2
 10
41.928008296412202
 20
116.9832571569444
 30
0.0
 11
44.228008114618042
 21
116.9832571569444
 31
0.0
  0
LINE
  5
1D9C
  8
2
 10
44.228008114618042
 20
123.1832578006746
 30
0.0
 11
41.928008296412202
 21
123.1832578006746
 31
0.0
  0
LINE
  5
1D9D
  8
2
 10
39.478007801693877
 20
125.5832580152513
 30
0.0
 11
41.928008296412202
 21
125.5832580152512
 31
0.0
  0
LINE
  5
1D9E
  8
2
 10
41.928008296412088
 20
128.08325776193149
 30
0.0
 11
45.228008278530858
 21
128.08325776193149
 31
0.0
  0
LINE
  5
1D9F
  8
2
 10
41.928008296412258
 20
112.08325776193151
 30
0.0
 11
45.228008278530858
 21
112.08325776193151
 31
0.0
  0
ENDSEC
  0
EOF
