  0
SECTION
  2
HEADER
  9
$ACADVER
  1
AC1009
  9
$INSBASE
 10
0.0
 20
0.0
 30
0.0
  9
$EXTMIN
 10
0.0
 20
-2.960436562073669
 30
0.0
  9
$EXTMAX
 10
335.00056599999999
 20
253.60431700000001
 30
0.0
  9
$LIMMIN
 10
0.0
 20
0.0
  9
$LIMMAX
 10
375.0
 20
270.0
  9
$ORTHOMODE
 70
     1
  9
$REGENMODE
 70
     1
  9
$FILLMODE
 70
     1
  9
$QTEXTMODE
 70
     0
  9
$MIRRTEXT
 70
     0
  9
$DRAGMODE
 70
     2
  9
$LTSCALE
 40
10.0
  9
$OSMODE
 70
    55
  9
$ATTMODE
 70
     1
  9
$TEXTSIZE
 40
4.0
  9
$TRACEWID
 40
0.05
  9
$TEXTSTYLE
  7
STANDARD
  9
$CLAYER
  8
0
  9
$CELTYPE
  6
BYLAYER
  9
$CECOLOR
 62
   256
  9
$DIMSCALE
 40
1.0
  9
$DIMASZ
 40
3.0
  9
$DIMEXO
 40
2.0
  9
$DIMDLI
 40
0.38
  9
$DIMRND
 40
0.0
  9
$DIMDLE
 40
0.0
  9
$DIMEXE
 40
2.0
  9
$DIMTP
 40
0.0
  9
$DIMTM
 40
0.0
  9
$DIMTXT
 40
3.2000000000000002
  9
$DIMCEN
 40
0.0
  9
$DIMTSZ
 40
0.0
  9
$DIMTOL
 70
     0
  9
$DIMLIM
 70
     0
  9
$DIMTIH
 70
     0
  9
$DIMTOH
 70
     0
  9
$DIMSE1
 70
     0
  9
$DIMSE2
 70
     0
  9
$DIMTAD
 70
     1
  9
$DIMZIN
 70
     0
  9
$DIMBLK
  1

  9
$DIMASO
 70
     0
  9
$DIMSHO
 70
     0
  9
$DIMPOST
  1

  9
$DIMAPOST
  1

  9
$DIMALT
 70
     0
  9
$DIMALTD
 70
     2
  9
$DIMALTF
 40
25.399999999999999
  9
$DIMLFAC
 40
1.0
  9
$DIMTOFL
 70
     1
  9
$DIMTVP
 40
1.6000000000000001
  9
$DIMTIX
 70
     1
  9
$DIMSOXD
 70
     0
  9
$DIMSAH
 70
     0
  9
$DIMBLK1
  1

  9
$DIMBLK2
  1

  9
$DIMSTYLE
  2
STANDARD
  9
$DIMCLRD
 70
     0
  9
$DIMCLRE
 70
     0
  9
$DIMCLRT
 70
     0
  9
$DIMTFAC
 40
1.0
  9
$DIMGAP
 40
0.09
  9
$LUNITS
 70
     2
  9
$LUPREC
 70
     4
  9
$SKETCHINC
 40
0.1
  9
$FILLETRAD
 40
0.0
  9
$AUNITS
 70
     0
  9
$AUPREC
 70
     4
  9
$MENU
  1
E:\r13\win\SUPPORT\ACAD
  9
$ELEVATION
 40
0.0
  9
$PELEVATION
 40
0.0
  9
$THICKNESS
 40
0.0
  9
$LIMCHECK
 70
     0
  9
$BLIPMODE
 70
     0
  9
$CHAMFERA
 40
0.0
  9
$CHAMFERB
 40
0.0
  9
$SKPOLY
 70
     0
  9
$TDCREATE
 40
2449840.617233796
  9
$TDUPDATE
 40
2456598.668545648
  9
$TDINDWG
 40
0.0019361806
  9
$TDUSRTIMER
 40
0.0019361806
  9
$USRTIMER
 70
     1
  9
$ANGBASE
 50
0.0
  9
$ANGDIR
 70
     0
  9
$PDMODE
 70
     0
  9
$PDSIZE
 40
0.0
  9
$PLINEWID
 40
0.0
  9
$COORDS
 70
     1
  9
$SPLFRAME
 70
     0
  9
$SPLINETYPE
 70
     6
  9
$SPLINESEGS
 70
     8
  9
$ATTDIA
 70
     0
  9
$ATTREQ
 70
     1
  9
$HANDLING
 70
     1
  9
$HANDSEED
  5
254
  9
$SURFTAB1
 70
     6
  9
$SURFTAB2
 70
     6
  9
$SURFTYPE
 70
     6
  9
$SURFU
 70
     6
  9
$SURFV
 70
     6
  9
$UCSNAME
  2

  9
$UCSORG
 10
0.0
 20
0.0
 30
0.0
  9
$UCSXDIR
 10
1.0
 20
0.0
 30
0.0
  9
$UCSYDIR
 10
0.0
 20
1.0
 30
0.0
  9
$PUCSNAME
  2

  9
$PUCSORG
 10
0.0
 20
0.0
 30
0.0
  9
$PUCSXDIR
 10
1.0
 20
0.0
 30
0.0
  9
$PUCSYDIR
 10
0.0
 20
1.0
 30
0.0
  9
$USERI1
 70
     0
  9
$USERI2
 70
     1
  9
$USERI3
 70
     0
  9
$USERI4
 70
     0
  9
$USERI5
 70
     0
  9
$USERR1
 40
0.0
  9
$USERR2
 40
0.0
  9
$USERR3
 40
0.0
  9
$USERR4
 40
0.0
  9
$USERR5
 40
0.0
  9
$WORLDVIEW
 70
     1
  9
$SHADEDGE
 70
     3
  9
$SHADEDIF
 70
    70
  9
$TILEMODE
 70
     1
  9
$MAXACTVP
 70
    16
  9
$PLIMCHECK
 70
     0
  9
$PEXTMIN
 10
1.0000000000000000E+020
 20
1.0000000000000000E+020
 30
1.0000000000000000E+020
  9
$PEXTMAX
 10
-1.0000000000000000E+020
 20
-1.0000000000000000E+020
 30
-1.0000000000000000E+020
  9
$PLIMMIN
 10
0.0
 20
0.0
  9
$PLIMMAX
 10
12.0
 20
9.0
  9
$UNITMODE
 70
     0
  9
$VISRETAIN
 70
     0
  9
$PLINEGEN
 70
     0
  9
$PSLTSCALE
 70
     0
  0
ENDSEC
  0
SECTION
  2
TABLES
  0
TABLE
  2
VPORT
 70
     1
  0
VPORT
  2
*ACTIVE
 70
     0
 10
0.0
 20
0.0
 11
1.0
 21
1.0
 12
187.49427839065231
 22
174.91677254346851
 13
0.0
 23
0.0
 14
10.0
 24
10.0
 15
10.0
 25
10.0
 16
0.0
 26
0.0
 36
1.0
 17
0.0
 27
0.0
 37
0.0
 40
358.92027899574339
 41
1.7807262569832401
 42
50.0
 43
0.0
 44
0.0
 50
0.0
 51
0.0
 71
     0
 72
   100
 73
     1
 74
     0
 75
     0
 76
     0
 77
     0
 78
     2
  0
ENDTAB
  0
TABLE
  2
LTYPE
 70
     3
  0
LTYPE
  2
CONTINUOUS
 70
     0
  3
Solid Line
 72
    65
 73
     0
 40
0.0
  0
LTYPE
  2
CENTER
 70
     0
  3
____ _ ____ _ ____ _ ____ _ ____ _ ____ _ ____
 72
    65
 73
     4
 40
2.0
 49
1.25
 49
-0.25
 49
0.25
 49
-0.25
  0
LTYPE
  2
PHANTOM2
 70
     0
  3
___ _ _ ___ _ _ ___ _ _ ___ _ _
 72
    65
 73
     6
 40
1.25
 49
0.625
 49
-0.125
 49
0.125
 49
-0.125
 49
0.125
 49
-0.125
  0
ENDTAB
  0
TABLE
  2
LAYER
 70
     3
  0
LAYER
  2
0
 70
     0
 62
     7
  6
CONTINUOUS
  0
LAYER
  2
1
 70
     0
 62
     1
  6
CENTER
  0
LAYER
  2
3
 70
     0
 62
     3
  6
CONTINUOUS
  0
ENDTAB
  0
TABLE
  2
STYLE
 70
     3
  0
STYLE
  2
STANDARD
 70
     0
 40
0.0
 41
1.0
 50
0.0
 71
     0
 42
4.0
  3
TXT
  4
BIGFONT
  0
STYLE
  2
COMPLEX
 70
     0
 40
3.5
 41
0.4
 50
0.0
 71
     0
 42
3.0
  3
COMPLEX
  4

  0
STYLE
  2
STANDARD1
 70
     0
 40
0.0
 41
1.0
 50
0.0
 71
     0
 42
3.0
  3
txt
  4

  0
ENDTAB
  0
TABLE
  2
VIEW
 70
     1
  0
VIEW
  2
ALL
 70
     0
 40
270.0
 10
220.99159700000001
 20
135.0
 41
0.0
 11
0.0
 21
0.0
 31
1.0
 12
0.0
 22
0.0
 32
0.0
 42
0.0
 43
0.0
 44
0.0
 50
0.0
 71
     0
  0
ENDTAB
  0
TABLE
  2
UCS
 70
     0
  0
ENDTAB
  0
TABLE
  2
APPID
 70
     3
  0
APPID
  2
ACAD
 70
     0
  0
APPID
  2
ACAD_MLEADERVER
 70
     0
  0
APPID
  2
ACAD_NAV_VCDISPLAY
 70
     0
  0
ENDTAB
  0
TABLE
  2
DIMSTYLE
 70
     1
  0
DIMSTYLE
  2
STANDARD
 70
     0
  3

  4

  5

  6

  7

 40
1.0
 41
0.18
 42
0.0625
 43
0.38
 44
0.18
 45
0.0
 46
0.0
 47
0.0
 48
0.0
140
0.18
141
0.09
142
0.0
143
25.399999999999999
144
1.0
145
0.0
146
1.0
147
0.09
 71
     0
 72
     0
 73
     1
 74
     1
 75
     0
 76
     0
 77
     0
 78
     0
170
     0
171
     2
172
     0
173
     0
174
     0
175
     0
176
     0
177
     0
178
     0
  0
ENDTAB
  0
ENDSEC
  0
SECTION
  2
BLOCKS
  0
BLOCK
  8
0
  2
$MODEL_SPACE
 70
     0
 10
0.0
 20
0.0
 30
0.0
  3
$MODEL_SPACE
  1

  0
ENDBLK
  5
101
  8
0
  0
BLOCK
 67
     1
  8
0
  2
$PAPER_SPACE
 70
     0
 10
0.0
 20
0.0
 30
0.0
  3
$PAPER_SPACE
  1

  0
ENDBLK
  5
FF
 67
     1
  8
0
  0
ENDSEC
  0
SECTION
  2
ENTITIES
  0
LINE
  5
35
  8
0
 10
137.27349699999999
 20
93.301259000000002
 30
0.0
 11
138.47349700000001
 21
94.50125899999999
 31
0.0
  0
LINE
  5
36
  8
0
 10
138.47349700000001
 20
94.50125899999999
 30
0.0
 11
138.47349700000001
 21
142.90125900000001
 31
0.0
  0
ARC
  5
37
  8
0
 10
138.87349699999999
 20
142.90125900000001
 30
0.0
 40
0.4
 50
90.0
 51
180.0
  0
LINE
  5
38
  8
3
 10
138.47349700000001
 20
142.90126000000001
 30
0.0
 11
137.796997
 21
141.72952699999999
 31
0.0
  0
LINE
  5
39
  8
3
 10
137.796997
 20
141.72952699999999
 30
0.0
 11
137.796997
 21
93.824759000000014
 31
0.0
  0
LINE
  5
3A
  8
3
 10
131.14999700000001
 20
141.72952699999999
 30
0.0
 11
131.14999700000001
 21
93.824759000000014
 31
0.0
  0
LINE
  5
3B
  8
3
 10
130.47349700000001
 20
142.90126000000001
 30
0.0
 11
131.14999700000001
 21
141.72952699999999
 31
0.0
  0
ARC
  5
3C
  8
0
 10
130.073497
 20
142.90125900000001
 30
0.0
 40
0.4
 50
0.0
 51
90.0
  0
LINE
  5
3D
  8
0
 10
130.47349700000001
 20
94.50125899999999
 30
0.0
 11
130.47349700000001
 21
142.90125900000001
 31
0.0
  0
LINE
  5
3E
  8
0
 10
131.673497
 20
93.301259000000002
 30
0.0
 11
130.47349700000001
 21
94.50125899999999
 31
0.0
  0
LINE
  5
3F
  8
0
 10
131.673497
 20
93.301259000000002
 30
0.0
 11
137.27349699999999
 21
93.301259000000002
 31
0.0
  0
LINE
  5
40
  8
0
 10
130.47349700000001
 20
94.50125899999999
 30
0.0
 11
138.47349700000001
 21
94.50125899999999
 31
0.0
  0
LINE
  5
41
  8
0
 10
138.47349700000001
 20
141.72952699999999
 30
0.0
 11
130.47349700000001
 21
141.72952699999999
 31
0.0
  0
CIRCLE
  5
42
  8
0
 10
134.47349700000001
 20
232.10431700000001
 30
0.0
 40
16.5
  0
CIRCLE
  5
43
  8
0
 10
134.47349700000001
 20
232.10431700000001
 30
0.0
 40
15.0
  0
LINE
  5
44
  8
1
 10
112.97349699999999
 20
155.30125899999999
 30
0.0
 11
253.97349700000001
 21
155.30125899999999
 31
0.0
  0
LINE
  5
45
  8
1
 10
236.47349700000001
 20
172.80125899999999
 30
0.0
 11
236.47349700000001
 21
137.80125899999999
 31
0.0
  0
LINE
  5
46
  8
1
 10
112.97349699999999
 20
232.10431700000001
 30
0.0
 11
253.97349700000001
 21
232.10431700000001
 31
0.0
  0
LINE
  5
47
  8
1
 10
134.47349700000001
 20
253.60431700000001
 30
0.0
 11
134.47349700000001
 21
210.60431700000001
 31
0.0
  0
LINE
  5
48
  8
1
 10
236.47349700000001
 20
249.60431700000001
 30
0.0
 11
236.47349700000001
 21
214.60431700000001
 31
0.0
  0
ARC
  5
49
  8
0
 10
236.47349700000001
 20
232.10431700000001
 30
0.0
 40
12.5
 50
212.85988
 51
147.14012
  0
LINE
  5
4A
  8
0
 10
225.97349700000001
 20
225.32198700000001
 30
0.0
 11
225.97349700000001
 21
238.88664700000001
 31
0.0
  0
LINE
  5
4B
  8
0
 10
150.19768199999999
 20
237.10431700000001
 30
0.0
 11
225.97349700000001
 21
237.10431700000001
 31
0.0
  0
LINE
  5
4C
  8
0
 10
225.97349700000001
 20
227.10431700000001
 30
0.0
 11
150.19768199999999
 21
227.10431700000001
 31
0.0
  0
LINE
  5
4D
  8
0
 10
119.47349699999999
 20
162.30125899999999
 30
0.0
 11
117.97349699999999
 21
160.80125899999999
 31
0.0
  0
LINE
  5
4E
  8
0
 10
117.97349699999999
 20
160.80125899999999
 30
0.0
 11
117.97349699999999
 21
146.30125899999999
 31
0.0
  0
LINE
  5
4F
  8
0
 10
117.97349699999999
 20
146.30125899999999
 30
0.0
 11
118.97349699999999
 21
145.30125899999999
 31
0.0
  0
LINE
  5
50
  8
0
 10
127.72349699999999
 20
145.30125899999999
 30
0.0
 11
127.72349699999999
 21
143.80125899999999
 31
0.0
  0
LINE
  5
51
  8
0
 10
127.72349699999999
 20
143.80125899999999
 30
0.0
 11
128.22349700000001
 21
143.30125899999999
 31
0.0
  0
LINE
  5
52
  8
0
 10
141.22349700000001
 20
143.80125899999999
 30
0.0
 11
140.72349700000001
 21
143.30125899999999
 31
0.0
  0
LINE
  5
53
  8
0
 10
141.22349700000001
 20
145.30125899999999
 30
0.0
 11
141.22349700000001
 21
143.80125899999999
 31
0.0
  0
LINE
  5
54
  8
0
 10
150.97349700000001
 20
146.30125899999999
 30
0.0
 11
149.97349700000001
 21
145.30125899999999
 31
0.0
  0
LINE
  5
55
  8
0
 10
150.97349700000001
 20
160.80125899999999
 30
0.0
 11
150.97349700000001
 21
160.30125899999999
 31
0.0
  0
LINE
  5
56
  8
0
 10
149.47349700000001
 20
162.30125899999999
 30
0.0
 11
150.97349700000001
 21
160.80125899999999
 31
0.0
  0
LINE
  5
57
  8
0
 10
119.47349699999999
 20
162.30125899999999
 30
0.0
 11
149.47349700000001
 21
162.30125899999999
 31
0.0
  0
LINE
  5
58
  8
0
 10
118.97349699999999
 20
145.30125899999999
 30
0.0
 11
149.97349700000001
 21
145.30125899999999
 31
0.0
  0
LINE
  5
59
  8
0
 10
128.22349700000001
 20
143.30125899999999
 30
0.0
 11
140.72349700000001
 21
143.30125899999999
 31
0.0
  0
LINE
  5
5A
  8
0
 10
117.97349699999999
 20
160.80125899999999
 30
0.0
 11
150.97349700000001
 21
160.80125899999999
 31
0.0
  0
LINE
  5
5B
  8
0
 10
117.97349699999999
 20
146.30125899999999
 30
0.0
 11
150.97349700000001
 21
146.30125899999999
 31
0.0
  0
LINE
  5
5C
  8
0
 10
225.97349700000001
 20
148.51892900000001
 30
0.0
 11
225.97349700000001
 21
162.08358899999999
 31
0.0
  0
ARC
  5
5D
  8
0
 10
236.47349700000001
 20
155.30125899999999
 30
0.0
 40
12.5
 50
212.85988
 51
147.14012
  0
ARC
  5
5E
  8
0
 10
166.69768199999999
 20
155.30125899999999
 30
0.0
 40
16.5
 50
162.360299
 51
197.639701
  0
LINE
  5
5F
  8
0
 10
150.97349700000001
 20
150.30125899999999
 30
0.0
 11
150.97349700000001
 21
146.30125899999999
 31
0.0
  0
LINE
  5
60
  8
0
 10
150.97349700000001
 20
160.30125899999999
 30
0.0
 11
225.97349700000001
 21
160.30125899999999
 31
0.0
  0
LINE
  5
61
  8
0
 10
150.97349700000001
 20
150.30125899999999
 30
0.0
 11
225.97349700000001
 21
150.30125899999999
 31
0.0
  0
LINE
  5
62
  8
1
 10
134.47349700000001
 20
167.30125899999999
 30
0.0
 11
134.47349700000001
 21
88.301259000000002
 31
0.0
  0
CIRCLE
  5
63
  8
0
 10
134.47349700000001
 20
232.10431700000001
 30
0.0
 40
7.5
  0
CIRCLE
  5
64
  8
0
 10
134.47349700000001
 20
232.10431700000001
 30
0.0
 40
5.0
  0
LINE
  5
65
  8
1
 10
131.22349700000001
 20
238.10431700000001
 30
0.0
 11
137.72349700000001
 21
238.10431700000001
 31
0.0
  0
LINE
  5
66
  8
1
 10
131.22349700000001
 20
226.10431700000001
 30
0.0
 11
137.72349700000001
 21
226.10431700000001
 31
0.0
  0
CIRCLE
  5
67
  8
0
 10
134.47349700000001
 20
238.10431700000001
 30
0.0
 40
0.75
  0
CIRCLE
  5
68
  8
0
 10
134.47349700000001
 20
226.10431700000001
 30
0.0
 40
0.75
  0
TEXT
  5
69
  8
0
 10
133.14016366666661
 20
231.60431700000001
 30
0.0
 40
2.0
  1
Kipp
 41
0.4
  7
COMPLEX
 72
     1
 11
134.47349700000001
 21
231.60431700000001
 31
0.0
  0
ARC
  5
6A
  8
0
 10
137.50458499999999
 20
230.35431700000001
 30
0.0
 40
0.5
 50
270.0
 51
30.0
  0
ARC
  5
6B
  8
0
 10
131.442408
 20
230.35431700000001
 30
0.0
 40
0.5
 50
150.0
 51
270.0
  0
ARC
  5
6C
  8
0
 10
134.47349700000001
 20
235.60431700000001
 30
0.0
 40
0.5
 50
30.0
 51
150.0
  0
LINE
  5
6D
  8
0
 10
137.93759800000001
 20
230.60431700000001
 30
0.0
 11
134.906509
 21
235.85431700000001
 31
0.0
  0
LINE
  5
6E
  8
0
 10
131.442408
 20
229.85431700000001
 30
0.0
 11
137.50458499999999
 21
229.85431700000001
 31
0.0
  0
LINE
  5
6F
  8
0
 10
134.04048399999999
 20
235.85431700000001
 30
0.0
 11
131.00939500000001
 21
230.60431700000001
 31
0.0
  0
LINE
  5
70
  8
0
 10
127.72349699999999
 20
143.80125899999999
 30
0.0
 11
141.22349700000001
 21
143.80125899999999
 31
0.0
  0
LINE
  5
71
  8
0
 10
225.97349700000001
 20
34.721223000000002
 30
0.0
 11
150.19768199999999
 21
34.721223000000002
 31
0.0
  0
LINE
  5
72
  8
0
 10
150.19768199999999
 20
44.721222999999988
 30
0.0
 11
225.97349700000001
 21
44.721222999999988
 31
0.0
  0
LINE
  5
73
  8
0
 10
225.97349700000001
 20
32.938893
 30
0.0
 11
225.97349700000001
 21
46.503552999999997
 31
0.0
  0
ARC
  5
74
  8
0
 10
236.47349700000001
 20
39.721223000000002
 30
0.0
 40
12.5
 50
212.85988
 51
147.14012
  0
LINE
  5
75
  8
1
 10
236.47349700000001
 20
57.221222999999988
 30
0.0
 11
236.47349700000001
 21
22.221222999999998
 31
0.0
  0
LINE
  5
76
  8
1
 10
134.47349700000001
 20
61.221223000000002
 30
0.0
 11
134.47349700000001
 21
18.221222999999998
 31
0.0
  0
LINE
  5
77
  8
1
 10
112.97349699999999
 20
39.721223000000002
 30
0.0
 11
253.97349700000001
 21
39.721223000000002
 31
0.0
  0
CIRCLE
  5
78
  8
0
 10
134.47349700000001
 20
39.721223000000002
 30
0.0
 40
16.5
  0
CIRCLE
  5
79
  8
0
 10
134.47349700000001
 20
39.721223000000002
 30
0.0
 40
15.5
  0
CIRCLE
  5
7A
  8
0
 10
134.47349700000001
 20
39.721223000000002
 30
0.0
 40
6.75
  0
CIRCLE
  5
7B
  8
0
 10
134.47349700000001
 20
39.721223000000002
 30
0.0
 40
6.25
  0
CIRCLE
  5
7C
  8
0
 10
134.47349700000001
 20
39.721223000000002
 30
0.0
 40
4.0
  0
CIRCLE
  5
7D
  8
3
 10
134.47349700000001
 20
39.721223000000002
 30
0.0
 40
3.3235000000000001
  0
LINE
  5
7E
  8
0
 10
306.75056599999999
 20
143.80125899999999
 30
0.0
 11
308.601586
 21
143.80125899999999
 31
0.0
  0
LINE
  5
7F
  8
1
 10
313.50056599999999
 20
172.80125899999999
 30
0.0
 11
313.50056599999999
 21
88.301259000000002
 31
0.0
  0
LINE
  5
80
  8
0
 10
330.00056599999999
 20
160.80125899999999
 30
0.0
 11
330.00056599999999
 21
146.30125899999999
 31
0.0
  0
LINE
  5
81
  8
0
 10
297.00056599999999
 20
146.30125899999999
 30
0.0
 11
304.82589000000002
 21
146.30125899999999
 31
0.0
  0
LINE
  5
82
  8
0
 10
297.00056599999999
 20
160.80125899999999
 30
0.0
 11
302.27559300000001
 21
160.80125899999999
 31
0.0
  0
LINE
  5
83
  8
0
 10
307.25056599999999
 20
143.30125899999999
 30
0.0
 11
310.00056599999999
 21
143.30125899999999
 31
0.0
  0
LINE
  5
84
  8
0
 10
298.00056599999999
 20
145.30125899999999
 30
0.0
 11
306.00056599999999
 21
145.30125899999999
 31
0.0
  0
LINE
  5
85
  8
0
 10
298.50056599999999
 20
162.30125899999999
 30
0.0
 11
303.144408
 21
162.30125899999999
 31
0.0
  0
LINE
  5
86
  8
0
 10
328.50056599999999
 20
162.30125899999999
 30
0.0
 11
330.00056599999999
 21
160.80125899999999
 31
0.0
  0
LINE
  5
87
  8
0
 10
330.00056599999999
 20
146.30125899999999
 30
0.0
 11
329.00056599999999
 21
145.30125899999999
 31
0.0
  0
LINE
  5
88
  8
0
 10
320.25056599999999
 20
144.78044600000001
 30
0.0
 11
320.25056599999999
 21
143.80125899999999
 31
0.0
  0
LINE
  5
89
  8
0
 10
320.25056599999999
 20
143.80125899999999
 30
0.0
 11
319.75056599999999
 21
143.30125899999999
 31
0.0
  0
LINE
  5
8A
  8
0
 10
306.75056599999999
 20
143.80125899999999
 30
0.0
 11
307.25056599999999
 21
143.30125899999999
 31
0.0
  0
LINE
  5
8B
  8
0
 10
306.75056599999999
 20
144.78044600000001
 30
0.0
 11
306.75056599999999
 21
143.80125899999999
 31
0.0
  0
LINE
  5
8C
  8
0
 10
297.00056599999999
 20
146.30125899999999
 30
0.0
 11
298.00056599999999
 21
145.30125899999999
 31
0.0
  0
LINE
  5
8D
  8
0
 10
297.00056599999999
 20
160.80125899999999
 30
0.0
 11
297.00056599999999
 21
146.30125899999999
 31
0.0
  0
LINE
  5
8E
  8
0
 10
298.50056599999999
 20
162.30125899999999
 30
0.0
 11
297.00056599999999
 21
160.80125899999999
 31
0.0
  0
LINE
  5
8F
  8
1
 10
292.00056599999999
 20
155.30125899999999
 30
0.0
 11
335.00056599999999
 21
155.30125899999999
 31
0.0
  0
CIRCLE
  5
90
  8
0
 10
313.50056599999999
 20
155.30125899999999
 30
0.0
 40
12.5
  0
LINE
  5
91
  8
0
 10
323.85672299999999
 20
162.30125899999999
 30
0.0
 11
328.50056599999999
 21
162.30125899999999
 31
0.0
  0
LINE
  5
92
  8
0
 10
324.72553799999997
 20
160.80125899999999
 30
0.0
 11
330.00056599999999
 21
160.80125899999999
 31
0.0
  0
LINE
  5
93
  8
0
 10
322.17524100000009
 20
146.30125899999999
 30
0.0
 11
330.00056599999999
 21
146.30125899999999
 31
0.0
  0
LINE
  5
94
  8
0
 10
321.00056599999999
 20
145.30125899999999
 30
0.0
 11
329.00056599999999
 21
145.30125899999999
 31
0.0
  0
LINE
  5
95
  8
0
 10
318.3995450000001
 20
143.80125899999999
 30
0.0
 11
320.25056599999999
 21
143.80125899999999
 31
0.0
  0
LINE
  5
96
  8
0
 10
317.00056599999999
 20
143.30125899999999
 30
0.0
 11
319.75056599999999
 21
143.30125899999999
 31
0.0
  0
LINE
  5
97
  8
1
 10
34.264715000000002
 20
155.30125899999999
 30
0.0
 11
77.264714999999995
 21
155.30125899999999
 31
0.0
  0
LINE
  5
98
  8
0
 10
40.764715000000002
 20
162.30125899999999
 30
0.0
 11
39.264715000000002
 21
160.80125899999999
 31
0.0
  0
LINE
  5
99
  8
0
 10
39.264715000000002
 20
160.80125899999999
 30
0.0
 11
39.264715000000002
 21
146.30125899999999
 31
0.0
  0
LINE
  5
9A
  8
0
 10
39.264715000000002
 20
146.30125899999999
 30
0.0
 11
40.264715000000002
 21
145.30125899999999
 31
0.0
  0
LINE
  5
9B
  8
0
 10
49.014715000000002
 20
145.30125899999999
 30
0.0
 11
49.014715000000002
 21
143.80125899999999
 31
0.0
  0
LINE
  5
9C
  8
0
 10
49.014715000000002
 20
143.80125899999999
 30
0.0
 11
49.514715000000002
 21
143.30125899999999
 31
0.0
  0
LINE
  5
9D
  8
0
 10
62.514715000000002
 20
143.80125899999999
 30
0.0
 11
62.014715000000002
 21
143.30125899999999
 31
0.0
  0
LINE
  5
9E
  8
0
 10
62.514715000000002
 20
145.30125899999999
 30
0.0
 11
62.514715000000002
 21
143.80125899999999
 31
0.0
  0
LINE
  5
9F
  8
0
 10
72.264714999999995
 20
146.30125899999999
 30
0.0
 11
71.264714999999995
 21
145.30125899999999
 31
0.0
  0
LINE
  5
A0
  8
0
 10
70.764714999999995
 20
162.30125899999999
 30
0.0
 11
72.264714999999995
 21
160.80125899999999
 31
0.0
  0
LINE
  5
A1
  8
0
 10
40.764715000000002
 20
162.30125899999999
 30
0.0
 11
70.764714999999995
 21
162.30125899999999
 31
0.0
  0
LINE
  5
A2
  8
0
 10
40.264715000000002
 20
145.30125899999999
 30
0.0
 11
71.264714999999995
 21
145.30125899999999
 31
0.0
  0
LINE
  5
A3
  8
0
 10
49.514715000000002
 20
143.30125899999999
 30
0.0
 11
62.014715000000002
 21
143.30125899999999
 31
0.0
  0
LINE
  5
A4
  8
0
 10
39.264715000000002
 20
160.80125899999999
 30
0.0
 11
72.264714999999995
 21
160.80125899999999
 31
0.0
  0
LINE
  5
A5
  8
0
 10
39.264715000000002
 20
146.30125899999999
 30
0.0
 11
72.264714999999995
 21
146.30125899999999
 31
0.0
  0
LINE
  5
A6
  8
0
 10
72.264714999999995
 20
160.80125899999999
 30
0.0
 11
72.264714999999995
 21
146.30125899999999
 31
0.0
  0
LINE
  5
A7
  8
1
 10
55.764715000000002
 20
172.80125899999999
 30
0.0
 11
55.764715000000002
 21
88.301259000000002
 31
0.0
  0
LINE
  5
A8
  8
0
 10
49.014715000000002
 20
143.80125899999999
 30
0.0
 11
62.514715000000002
 21
143.80125899999999
 31
0.0
  0
ARC
  5
A9
  8
0
 10
55.764715000000002
 20
155.30125899999999
 30
0.0
 40
12.5
 50
34.055798000000003
 51
145.94420199999999
  0
ARC
  5
AA
  8
0
 10
51.364714999999997
 20
142.90125900000001
 30
0.0
 40
0.4
 50
0.0
 51
90.0
  0
LINE
  5
AB
  8
0
 10
59.764715000000002
 20
141.72952699999999
 30
0.0
 11
51.764715000000002
 21
141.72952699999999
 31
0.0
  0
LINE
  5
AC
  8
0
 10
51.764715000000002
 20
94.50125899999999
 30
0.0
 11
59.764715000000002
 21
94.50125899999999
 31
0.0
  0
LINE
  5
AD
  8
0
 10
52.964714999999998
 20
93.301259000000002
 30
0.0
 11
58.564715
 21
93.301259000000002
 31
0.0
  0
LINE
  5
AE
  8
0
 10
52.964714999999998
 20
93.301259000000002
 30
0.0
 11
51.764715000000002
 21
94.50125899999999
 31
0.0
  0
LINE
  5
AF
  8
0
 10
51.764715000000002
 20
94.50125899999999
 30
0.0
 11
51.764715000000002
 21
142.90125900000001
 31
0.0
  0
ARC
  5
B0
  8
0
 10
51.364714999999997
 20
142.90125900000001
 30
0.0
 40
0.4
 50
0.0
 51
90.0
  0
LINE
  5
B1
  8
3
 10
51.764715000000002
 20
142.90126000000001
 30
0.0
 11
52.441215
 21
141.72952699999999
 31
0.0
  0
LINE
  5
B2
  8
3
 10
52.441215
 20
141.72952699999999
 30
0.0
 11
52.441215
 21
93.824759000000014
 31
0.0
  0
LINE
  5
B3
  8
3
 10
59.088215000000012
 20
141.72952699999999
 30
0.0
 11
59.088215000000012
 21
93.824759000000014
 31
0.0
  0
LINE
  5
B4
  8
3
 10
59.764715000000002
 20
142.90126000000001
 30
0.0
 11
59.088215000000012
 21
141.72952699999999
 31
0.0
  0
ARC
  5
B5
  8
0
 10
60.164715000000001
 20
142.90125900000001
 30
0.0
 40
0.4
 50
90.0
 51
180.0
  0
LINE
  5
B6
  8
0
 10
59.764715000000002
 20
94.50125899999999
 30
0.0
 11
59.764715000000002
 21
142.90125900000001
 31
0.0
  0
LINE
  5
B7
  8
0
 10
58.564715
 20
93.301259000000002
 30
0.0
 11
59.764715000000002
 21
94.50125899999999
 31
0.0
  0
LINE
  5
B8
  8
0
 10
317.50056599999999
 20
141.72952699999999
 30
0.0
 11
309.50056599999999
 21
141.72952699999999
 31
0.0
  0
LINE
  5
B9
  8
0
 10
309.50056599999999
 20
94.50125899999999
 30
0.0
 11
317.50056599999999
 21
94.50125899999999
 31
0.0
  0
LINE
  5
BA
  8
0
 10
310.70056599999998
 20
93.301259000000002
 30
0.0
 11
316.300566
 21
93.301259000000002
 31
0.0
  0
LINE
  5
BB
  8
0
 10
310.70056599999998
 20
93.301259000000002
 30
0.0
 11
309.50056599999999
 21
94.50125899999999
 31
0.0
  0
LINE
  5
BC
  8
0
 10
309.50056599999999
 20
94.50125899999999
 30
0.0
 11
309.50056599999999
 21
142.90125900000001
 31
0.0
  0
ARC
  5
BD
  8
0
 10
309.10056600000001
 20
142.90125900000001
 30
0.0
 40
0.4
 50
0.0
 51
90.0
  0
LINE
  5
BE
  8
3
 10
309.50056599999999
 20
142.90126000000001
 30
0.0
 11
310.17706600000002
 21
141.72952699999999
 31
0.0
  0
LINE
  5
BF
  8
3
 10
310.17706600000002
 20
141.72952699999999
 30
0.0
 11
310.17706600000002
 21
93.824759000000014
 31
0.0
  0
LINE
  5
C0
  8
3
 10
316.82406600000002
 20
141.72952699999999
 30
0.0
 11
316.82406600000002
 21
93.824759000000014
 31
0.0
  0
LINE
  5
C1
  8
3
 10
317.50056599999999
 20
142.90126000000001
 30
0.0
 11
316.82406600000002
 21
141.72952699999999
 31
0.0
  0
ARC
  5
C2
  8
0
 10
317.90056600000003
 20
142.90125900000001
 30
0.0
 40
0.4
 50
90.0
 51
180.0
  0
LINE
  5
C3
  8
0
 10
317.50056599999999
 20
94.50125899999999
 30
0.0
 11
317.50056599999999
 21
142.90125900000001
 31
0.0
  0
LINE
  5
C4
  8
0
 10
316.300566
 20
93.301259000000002
 30
0.0
 11
317.50056599999999
 21
94.50125899999999
 31
0.0
  0
TEXT
  5
1C2
  8
0
 62
     3
 10
0.0
 20
0.0
 30
0.0
 40
10.0
  1
FT8X50-SUS
  7
STANDARD1
  0
ENDSEC
  0
EOF
