  0
SECTION
  2
HEADER
  9
$ACADVER
  1
AC1009
  9
$INSBASE
 10
0.0
 20
0.0
 30
0.0
  9
$EXTMIN
 10
0.0
 20
-2.960436562073669
 30
0.0
  9
$EXTMAX
 10
389.10030272334848
 20
303.95409541960902
 30
0.0
  9
$LIMMIN
 10
0.0
 20
0.0
  9
$LIMMAX
 10
375.0
 20
270.0
  9
$ORTHOMODE
 70
     1
  9
$REGENMODE
 70
     1
  9
$FILLMODE
 70
     1
  9
$QTEXTMODE
 70
     0
  9
$MIRRTEXT
 70
     0
  9
$DRAGMODE
 70
     2
  9
$LTSCALE
 40
10.0
  9
$OSMODE
 70
    55
  9
$ATTMODE
 70
     1
  9
$TEXTSIZE
 40
4.0
  9
$TRACEWID
 40
0.05
  9
$TEXTSTYLE
  7
STANDARD
  9
$CLAYER
  8
0
  9
$CELTYPE
  6
BYLAYER
  9
$CECOLOR
 62
   256
  9
$DIMSCALE
 40
1.0
  9
$DIMASZ
 40
3.0
  9
$DIMEXO
 40
2.0
  9
$DIMDLI
 40
0.38
  9
$DIMRND
 40
0.0
  9
$DIMDLE
 40
0.0
  9
$DIMEXE
 40
2.0
  9
$DIMTP
 40
0.0
  9
$DIMTM
 40
0.0
  9
$DIMTXT
 40
3.2000000000000002
  9
$DIMCEN
 40
0.0
  9
$DIMTSZ
 40
0.0
  9
$DIMTOL
 70
     0
  9
$DIMLIM
 70
     0
  9
$DIMTIH
 70
     0
  9
$DIMTOH
 70
     0
  9
$DIMSE1
 70
     0
  9
$DIMSE2
 70
     0
  9
$DIMTAD
 70
     1
  9
$DIMZIN
 70
     0
  9
$DIMBLK
  1

  9
$DIMASO
 70
     0
  9
$DIMSHO
 70
     0
  9
$DIMPOST
  1

  9
$DIMAPOST
  1

  9
$DIMALT
 70
     0
  9
$DIMALTD
 70
     2
  9
$DIMALTF
 40
25.399999999999999
  9
$DIMLFAC
 40
1.0
  9
$DIMTOFL
 70
     1
  9
$DIMTVP
 40
1.6000000000000001
  9
$DIMTIX
 70
     1
  9
$DIMSOXD
 70
     0
  9
$DIMSAH
 70
     0
  9
$DIMBLK1
  1

  9
$DIMBLK2
  1

  9
$DIMSTYLE
  2
STANDARD
  9
$DIMCLRD
 70
     0
  9
$DIMCLRE
 70
     0
  9
$DIMCLRT
 70
     0
  9
$DIMTFAC
 40
1.0
  9
$DIMGAP
 40
0.09
  9
$LUNITS
 70
     2
  9
$LUPREC
 70
     4
  9
$SKETCHINC
 40
0.1
  9
$FILLETRAD
 40
0.0
  9
$AUNITS
 70
     0
  9
$AUPREC
 70
     4
  9
$MENU
  1
E:\r13\win\SUPPORT\ACAD
  9
$ELEVATION
 40
0.0
  9
$PELEVATION
 40
0.0
  9
$THICKNESS
 40
0.0
  9
$LIMCHECK
 70
     0
  9
$BLIPMODE
 70
     0
  9
$CHAMFERA
 40
0.0
  9
$CHAMFERB
 40
0.0
  9
$SKPOLY
 70
     0
  9
$TDCREATE
 40
2449840.6174652781
  9
$TDUPDATE
 40
2456598.6682640738
  9
$TDINDWG
 40
0.0034335995
  9
$TDUSRTIMER
 40
0.0034335995
  9
$USRTIMER
 70
     1
  9
$ANGBASE
 50
0.0
  9
$ANGDIR
 70
     0
  9
$PDMODE
 70
     0
  9
$PDSIZE
 40
0.0
  9
$PLINEWID
 40
0.0
  9
$COORDS
 70
     1
  9
$SPLFRAME
 70
     0
  9
$SPLINETYPE
 70
     6
  9
$SPLINESEGS
 70
     8
  9
$ATTDIA
 70
     0
  9
$ATTREQ
 70
     1
  9
$HANDLING
 70
     1
  9
$HANDSEED
  5
31B
  9
$SURFTAB1
 70
     6
  9
$SURFTAB2
 70
     6
  9
$SURFTYPE
 70
     6
  9
$SURFU
 70
     6
  9
$SURFV
 70
     6
  9
$UCSNAME
  2

  9
$UCSORG
 10
0.0
 20
0.0
 30
0.0
  9
$UCSXDIR
 10
1.0
 20
0.0
 30
0.0
  9
$UCSYDIR
 10
0.0
 20
1.0
 30
0.0
  9
$PUCSNAME
  2

  9
$PUCSORG
 10
0.0
 20
0.0
 30
0.0
  9
$PUCSXDIR
 10
1.0
 20
0.0
 30
0.0
  9
$PUCSYDIR
 10
0.0
 20
1.0
 30
0.0
  9
$USERI1
 70
     0
  9
$USERI2
 70
     1
  9
$USERI3
 70
     0
  9
$USERI4
 70
     0
  9
$USERI5
 70
     0
  9
$USERR1
 40
0.0
  9
$USERR2
 40
0.0
  9
$USERR3
 40
0.0
  9
$USERR4
 40
0.0
  9
$USERR5
 40
0.0
  9
$WORLDVIEW
 70
     1
  9
$SHADEDGE
 70
     3
  9
$SHADEDIF
 70
    70
  9
$TILEMODE
 70
     1
  9
$MAXACTVP
 70
    16
  9
$PLIMCHECK
 70
     0
  9
$PEXTMIN
 10
1.0000000000000000E+020
 20
1.0000000000000000E+020
 30
1.0000000000000000E+020
  9
$PEXTMAX
 10
-1.0000000000000000E+020
 20
-1.0000000000000000E+020
 30
-1.0000000000000000E+020
  9
$PLIMMIN
 10
0.0
 20
0.0
  9
$PLIMMAX
 10
12.0
 20
9.0
  9
$UNITMODE
 70
     0
  9
$VISRETAIN
 70
     0
  9
$PLINEGEN
 70
     0
  9
$PSLTSCALE
 70
     0
  0
ENDSEC
  0
SECTION
  2
TABLES
  0
TABLE
  2
VPORT
 70
     1
  0
VPORT
  2
*ACTIVE
 70
     0
 10
0.0
 20
0.0
 11
1.0
 21
1.0
 12
194.5501522676189
 22
197.04887650307131
 13
0.0
 23
0.0
 14
10.0
 24
10.0
 15
10.0
 25
10.0
 16
0.0
 26
0.0
 36
1.0
 17
0.0
 27
0.0
 37
0.0
 40
403.58096379485869
 41
1.7807262569832401
 42
50.0
 43
0.0
 44
0.0
 50
0.0
 51
0.0
 71
     0
 72
   100
 73
     1
 74
     0
 75
     0
 76
     0
 77
     0
 78
     2
  0
ENDTAB
  0
TABLE
  2
LTYPE
 70
     3
  0
LTYPE
  2
CONTINUOUS
 70
     0
  3
Solid Line
 72
    65
 73
     0
 40
0.0
  0
LTYPE
  2
CENTER
 70
     0
  3
____ _ ____ _ ____ _ ____ _ ____ _ ____ _ ____
 72
    65
 73
     4
 40
2.0
 49
1.25
 49
-0.25
 49
0.25
 49
-0.25
  0
LTYPE
  2
PHANTOM2
 70
     0
  3
___ _ _ ___ _ _ ___ _ _ ___ _ _
 72
    65
 73
     6
 40
1.25
 49
0.625
 49
-0.125
 49
0.125
 49
-0.125
 49
0.125
 49
-0.125
  0
ENDTAB
  0
TABLE
  2
LAYER
 70
     3
  0
LAYER
  2
0
 70
     0
 62
     7
  6
CONTINUOUS
  0
LAYER
  2
1
 70
     0
 62
     1
  6
CENTER
  0
LAYER
  2
3
 70
     0
 62
     3
  6
CONTINUOUS
  0
ENDTAB
  0
TABLE
  2
STYLE
 70
     3
  0
STYLE
  2
STANDARD
 70
     0
 40
0.0
 41
1.0
 50
0.0
 71
     0
 42
4.0
  3
TXT
  4
BIGFONT
  0
STYLE
  2
COMPLEX
 70
     0
 40
3.5
 41
0.4
 50
0.0
 71
     0
 42
3.0
  3
COMPLEX
  4

  0
STYLE
  2
STANDARD1
 70
     0
 40
0.0
 41
1.0
 50
0.0
 71
     0
 42
3.0
  3
txt
  4

  0
ENDTAB
  0
TABLE
  2
VIEW
 70
     1
  0
VIEW
  2
ALL
 70
     0
 40
270.0
 10
220.99159700000001
 20
135.0
 41
0.0
 11
0.0
 21
0.0
 31
1.0
 12
0.0
 22
0.0
 32
0.0
 42
0.0
 43
0.0
 44
0.0
 50
0.0
 71
     0
  0
ENDTAB
  0
TABLE
  2
UCS
 70
     0
  0
ENDTAB
  0
TABLE
  2
APPID
 70
     3
  0
APPID
  2
ACAD
 70
     0
  0
APPID
  2
ACAD_MLEADERVER
 70
     0
  0
APPID
  2
ACAD_NAV_VCDISPLAY
 70
     0
  0
ENDTAB
  0
TABLE
  2
DIMSTYLE
 70
     1
  0
DIMSTYLE
  2
STANDARD
 70
     0
  3

  4

  5

  6

  7

 40
1.0
 41
0.18
 42
0.0625
 43
0.38
 44
0.18
 45
0.0
 46
0.0
 47
0.0
 48
0.0
140
0.18
141
0.09
142
0.0
143
25.399999999999999
144
1.0
145
0.0
146
1.0
147
0.09
 71
     0
 72
     0
 73
     1
 74
     1
 75
     0
 76
     0
 77
     0
 78
     0
170
     0
171
     2
172
     0
173
     0
174
     0
175
     0
176
     0
177
     0
178
     0
  0
ENDTAB
  0
ENDSEC
  0
SECTION
  2
BLOCKS
  0
BLOCK
  8
0
  2
$MODEL_SPACE
 70
     0
 10
0.0
 20
0.0
 30
0.0
  3
$MODEL_SPACE
  1

  0
ENDBLK
  5
100
  8
0
  0
BLOCK
 67
     1
  8
0
  2
$PAPER_SPACE
 70
     0
 10
0.0
 20
0.0
 30
0.0
  3
$PAPER_SPACE
  1

  0
ENDBLK
  5
FE
 67
     1
  8
0
  0
ENDSEC
  0
SECTION
  2
ENTITIES
  0
LINE
  5
35
  8
0
 10
127.3515817233484
 20
125.3668654196089
 30
0.0
 11
139.3515817233484
 21
125.3668654196089
 31
0.0
  0
LINE
  5
36
  8
0
 10
125.3515817233484
 20
127.3668654196089
 30
0.0
 11
141.3515817233484
 21
127.3668654196089
 31
0.0
  0
LINE
  5
37
  8
0
 10
125.3515817233485
 20
172.89192041960891
 30
0.0
 11
141.35158172334849
 21
172.89192041960891
 31
0.0
  0
LINE
  5
38
  8
0
 10
127.3515817233484
 20
125.3668654196089
 30
0.0
 11
125.3515817233484
 21
127.3668654196089
 31
0.0
  0
LINE
  5
39
  8
0
 10
125.3515817233484
 20
127.3668654196089
 30
0.0
 11
125.3515817233485
 21
174.76686541960899
 31
0.0
  0
ARC
  5
3A
  8
0
 10
124.75158172334849
 20
174.76686541960899
 30
0.0
 40
0.6
 50
0.0
 51
90.0
  0
LINE
  5
3B
  8
3
 10
125.3515817233485
 20
174.76686541960899
 30
0.0
 11
126.4340817233485
 21
172.89192041960891
 31
0.0
  0
LINE
  5
3C
  8
3
 10
126.4340817233485
 20
172.89192041960891
 30
0.0
 11
126.4340817233484
 21
126.2843654196089
 31
0.0
  0
LINE
  5
3D
  8
3
 10
140.26908172334851
 20
172.89192041960891
 30
0.0
 11
140.26908172334839
 21
126.2843654196089
 31
0.0
  0
LINE
  5
3E
  8
3
 10
141.35158172334849
 20
174.76686541960899
 30
0.0
 11
140.26908172334851
 21
172.89192041960891
 31
0.0
  0
ARC
  5
3F
  8
0
 10
141.9515817233484
 20
174.76686541960899
 30
0.0
 40
0.6
 50
90.0
 51
180.0
  0
LINE
  5
40
  8
0
 10
141.3515817233484
 20
127.3668654196089
 30
0.0
 11
141.35158172334849
 21
174.76686541960899
 31
0.0
  0
LINE
  5
41
  8
0
 10
139.3515817233484
 20
125.3668654196089
 30
0.0
 11
141.3515817233484
 21
127.3668654196089
 31
0.0
  0
CIRCLE
  5
42
  8
0
 10
133.35158172334849
 20
276.4540954196089
 30
0.0
 40
22.5
  0
LINE
  5
44
  8
1
 10
306.00082085032949
 20
276.4540954196089
 30
0.0
 11
105.8515817233484
 21
276.4540954196089
 31
0.0
  0
LINE
  5
45
  8
1
 10
133.35158172334849
 20
303.95409541960902
 30
0.0
 11
133.35158172334849
 21
248.95409541960899
 31
0.0
  0
CIRCLE
  5
48
  8
0
 10
133.35158172334849
 20
276.4540954196089
 30
0.0
 40
20.0
  0
LINE
  5
49
  8
0
 10
265.85158172334837
 20
283.45409541960902
 30
0.0
 11
154.73498672334841
 21
283.45409541960902
 31
0.0
  0
LINE
  5
4A
  8
0
 10
154.73498672334841
 20
269.45409541960902
 30
0.0
 11
265.85158172334837
 21
269.45409541960902
 31
0.0
  0
CIRCLE
  5
4B
  8
0
 10
133.35158172334849
 20
276.4540954196089
 30
0.0
 40
12.0
  0
CIRCLE
  5
4C
  8
0
 10
133.35158172334849
 20
276.4540954196089
 30
0.0
 40
9.0
  0
CIRCLE
  5
4D
  8
0
 10
133.35158172334849
 20
286.70409541960902
 30
0.0
 40
0.75
  0
LINE
  5
4E
  8
1
 10
130.10158172334849
 20
286.70409541960902
 30
0.0
 11
136.60158172334849
 21
286.70409541960902
 31
0.0
  0
LINE
  5
4F
  8
1
 10
130.10158172334849
 20
266.20409541960902
 30
0.0
 11
136.60158172334849
 21
266.20409541960902
 31
0.0
  0
CIRCLE
  5
50
  8
0
 10
133.35158172334849
 20
266.20409541960902
 30
0.0
 40
0.75
  0
TEXT
  5
51
  8
0
 10
130.01824839001509
 20
274.4540954196089
 30
0.0
 40
4.0
  1
Kipp
 41
0.5
  7
COMPLEX
 72
     1
 11
133.35158172334849
 21
274.4540954196089
 31
0.0
  0
ARC
  5
52
  8
0
 10
139.8467717233485
 20
272.70409541960902
 30
0.0
 40
0.5
 50
270.0
 51
30.0
  0
ARC
  5
53
  8
0
 10
126.8563907233484
 20
272.70409541960902
 30
0.0
 40
0.5
 50
150.0
 51
270.0
  0
ARC
  5
54
  8
0
 10
133.35158172334849
 20
283.95409541960902
 30
0.0
 40
0.5
 50
30.0
 51
150.0
  0
LINE
  5
55
  8
0
 10
140.2797847233484
 20
272.95409541960902
 30
0.0
 11
133.78459472334839
 21
284.20409541960902
 31
0.0
  0
LINE
  5
56
  8
0
 10
126.8563907233484
 20
272.2040954196089
 30
0.0
 11
139.8467717233485
 21
272.2040954196089
 31
0.0
  0
LINE
  5
57
  8
0
 10
132.9185687233485
 20
284.20409541960902
 30
0.0
 11
126.42337872334851
 21
272.95409541960902
 31
0.0
  0
LINE
  5
58
  8
0
 10
155.85158172334849
 20
185.3668654196089
 30
0.0
 11
265.85158172334837
 21
185.3668654196089
 31
0.0
  0
LINE
  5
59
  8
0
 10
265.85158172334837
 20
199.3668654196089
 30
0.0
 11
155.85158172334849
 21
199.3668654196089
 31
0.0
  0
LINE
  5
5A
  8
0
 10
265.85158172334849
 20
202.46637035797099
 30
0.0
 11
265.85158172334849
 21
182.2673604812469
 31
0.0
  0
LINE
  5
5C
  8
1
 10
281.35158172334849
 20
217.01610454658999
 30
0.0
 11
281.35158172334849
 21
167.7176262926279
 31
0.0
  0
LINE
  5
5D
  8
0
 10
113.3515817233484
 20
203.36686541960901
 30
0.0
 11
110.8515817233485
 21
200.8668654196089
 31
0.0
  0
LINE
  5
5E
  8
0
 10
110.8515817233485
 20
200.8668654196089
 30
0.0
 11
110.8515817233485
 21
178.3668654196089
 31
0.0
  0
LINE
  5
5F
  8
0
 10
110.8515817233485
 20
178.3668654196089
 30
0.0
 11
111.8515817233485
 21
177.3668654196089
 31
0.0
  0
LINE
  5
60
  8
0
 10
121.8515817233484
 20
177.3668654196089
 30
0.0
 11
121.8515817233484
 21
176.066865419609
 31
0.0
  0
LINE
  5
61
  8
0
 10
121.8515817233484
 20
176.066865419609
 30
0.0
 11
122.55158172334851
 21
175.3668654196089
 31
0.0
  0
LINE
  5
62
  8
0
 10
144.85158172334849
 20
176.066865419609
 30
0.0
 11
144.1515817233485
 21
175.3668654196089
 31
0.0
  0
LINE
  5
63
  8
0
 10
144.85158172334849
 20
177.3668654196089
 30
0.0
 11
144.85158172334849
 21
176.066865419609
 31
0.0
  0
LINE
  5
64
  8
0
 10
155.85158172334849
 20
178.3668654196089
 30
0.0
 11
154.85158172334849
 21
177.3668654196089
 31
0.0
  0
LINE
  5
65
  8
0
 10
155.85158172334849
 20
200.8668654196089
 30
0.0
 11
155.85158172334849
 21
199.3668654196089
 31
0.0
  0
LINE
  5
66
  8
0
 10
153.35158172334849
 20
203.36686541960901
 30
0.0
 11
155.85158172334849
 21
200.8668654196089
 31
0.0
  0
LINE
  5
67
  8
0
 10
113.3515817233484
 20
203.36686541960901
 30
0.0
 11
153.35158172334849
 21
203.36686541960901
 31
0.0
  0
LINE
  5
68
  8
0
 10
155.85158172334849
 20
200.8668654196089
 30
0.0
 11
110.8515817233485
 21
200.8668654196089
 31
0.0
  0
LINE
  5
69
  8
0
 10
110.8515817233485
 20
178.3668654196089
 30
0.0
 11
155.85158172334849
 21
178.3668654196089
 31
0.0
  0
LINE
  5
6A
  8
0
 10
154.85158172334849
 20
177.3668654196089
 30
0.0
 11
111.8515817233485
 21
177.3668654196089
 31
0.0
  0
LINE
  5
6B
  8
0
 10
122.55158172334851
 20
175.3668654196089
 30
0.0
 11
144.1515817233485
 21
175.3668654196089
 31
0.0
  0
ARC
  5
6C
  8
0
 10
177.24220672334849
 20
192.3668654196089
 30
0.0
 40
22.506862000000002
 50
161.8795139999998
 51
198.1204860000002
  0
LINE
  5
6D
  8
0
 10
155.85158172334849
 20
185.3668654196089
 30
0.0
 11
155.85158172334849
 21
178.3668654196089
 31
0.0
  0
LINE
  5
6E
  8
1
 10
133.35158172334849
 20
208.36686541960901
 30
0.0
 11
133.3515817233484
 21
120.3668654196089
 31
0.0
  0
LINE
  5
6F
  8
1
 10
306.00082085032949
 20
192.3668654196089
 30
0.0
 11
105.8515817233484
 21
192.3668654196089
 31
0.0
  0
LINE
  5
70
  8
0
 10
121.8515817233484
 20
176.066865419609
 30
0.0
 11
144.85158172334849
 21
176.066865419609
 31
0.0
  0
LINE
  5
71
  8
0
 10
154.73498672334841
 20
65.681613419608951
 30
0.0
 11
265.85158172334837
 21
65.681613419608951
 31
0.0
  0
LINE
  5
72
  8
0
 10
265.85158172334837
 20
79.681613419608951
 30
0.0
 11
154.73498672334841
 21
79.681613419608951
 31
0.0
  0
LINE
  5
75
  8
1
 10
133.3515817233484
 20
100.18161341960889
 30
0.0
 11
133.3515817233484
 21
45.181613419608951
 31
0.0
  0
LINE
  5
76
  8
1
 10
306.00082085032949
 20
72.681613419608951
 30
0.0
 11
105.8515817233484
 21
72.681613419608951
 31
0.0
  0
CIRCLE
  5
78
  8
0
 10
133.3515817233484
 20
72.681613419608951
 30
0.0
 40
22.5
  0
CIRCLE
  5
79
  8
0
 10
133.3515817233484
 20
72.681613419608951
 30
0.0
 40
21.5
  0
CIRCLE
  5
7A
  8
0
 10
133.3515817233484
 20
72.681613419608951
 30
0.0
 40
11.5
  0
CIRCLE
  5
7B
  8
0
 10
133.3515817233484
 20
72.681613419608951
 30
0.0
 40
10.800000000000001
  0
CIRCLE
  5
7C
  8
0
 10
133.3515817233484
 20
72.681613419608951
 30
0.0
 40
8.0
  0
CIRCLE
  5
7D
  8
3
 10
133.3515817233484
 20
72.681613419608951
 30
0.0
 40
6.9175000000000004
  0
LINE
  5
7E
  8
0
 10
350.10030272334848
 20
176.066865419609
 30
0.0
 11
355.23162972334848
 21
176.066865419609
 31
0.0
  0
LINE
  5
7F
  8
1
 10
361.60030272334848
 20
217.01610454658999
 30
0.0
 11
361.60030272334848
 21
120.3668654196089
 31
0.0
  0
LINE
  5
80
  8
0
 10
384.10030272334848
 20
200.8668654196089
 30
0.0
 11
384.10030272334848
 21
178.3668654196089
 31
0.0
  0
LINE
  5
81
  8
0
 10
350.80030272334852
 20
175.3668654196089
 30
0.0
 11
357.44699172334839
 21
175.3668654196089
 31
0.0
  0
LINE
  5
82
  8
0
 10
383.10030272334848
 20
177.3668654196089
 30
0.0
 11
370.61418172334851
 21
177.3668654196089
 31
0.0
  0
LINE
  5
83
  8
0
 10
339.10030272334848
 20
178.3668654196089
 30
0.0
 11
351.10030272334848
 21
178.3668654196089
 31
0.0
  0
LINE
  5
84
  8
0
 10
384.10030272334848
 20
200.8668654196089
 30
0.0
 11
376.89736172334852
 21
200.8668654196089
 31
0.0
  0
LINE
  5
85
  8
0
 10
341.60030272334848
 20
203.36686541960901
 30
0.0
 11
347.98964572334847
 21
203.36686541960901
 31
0.0
  0
LINE
  5
86
  8
0
 10
381.60030272334848
 20
203.36686541960901
 30
0.0
 11
384.10030272334848
 21
200.8668654196089
 31
0.0
  0
LINE
  5
87
  8
0
 10
384.10030272334848
 20
178.3668654196089
 30
0.0
 11
383.10030272334848
 21
177.3668654196089
 31
0.0
  0
LINE
  5
88
  8
0
 10
373.10030272334848
 20
177.3668654196089
 30
0.0
 11
373.10030272334848
 21
176.066865419609
 31
0.0
  0
LINE
  5
89
  8
0
 10
373.10030272334848
 20
176.066865419609
 30
0.0
 11
372.40030272334837
 21
175.3668654196089
 31
0.0
  0
LINE
  5
8A
  8
0
 10
350.10030272334848
 20
176.066865419609
 30
0.0
 11
350.80030272334852
 21
175.3668654196089
 31
0.0
  0
LINE
  5
8B
  8
0
 10
350.10030272334848
 20
177.3668654196089
 30
0.0
 11
350.10030272334848
 21
176.066865419609
 31
0.0
  0
LINE
  5
8C
  8
0
 10
339.10030272334848
 20
178.3668654196089
 30
0.0
 11
340.10030272334848
 21
177.3668654196089
 31
0.0
  0
LINE
  5
8D
  8
0
 10
339.10030272334848
 20
200.8668654196089
 30
0.0
 11
339.10030272334848
 21
178.3668654196089
 31
0.0
  0
LINE
  5
8E
  8
0
 10
341.60030272334848
 20
203.36686541960901
 30
0.0
 11
339.10030272334848
 21
200.8668654196089
 31
0.0
  0
LINE
  5
8F
  8
1
 10
334.10030272334848
 20
192.3668654196089
 30
0.0
 11
389.10030272334848
 21
192.3668654196089
 31
0.0
  0
CIRCLE
  5
90
  8
0
 10
361.60030272334848
 20
192.3668654196089
 30
0.0
 40
17.5
  0
LINE
  5
91
  8
0
 10
375.21096072334859
 20
203.36686541960901
 30
0.0
 11
381.60030272334848
 21
203.36686541960901
 31
0.0
  0
LINE
  5
92
  8
0
 10
346.30324472334848
 20
200.8668654196089
 30
0.0
 11
339.10030272334848
 21
200.8668654196089
 31
0.0
  0
LINE
  5
93
  8
0
 10
372.10030272334848
 20
178.3668654196089
 30
0.0
 11
384.10030272334848
 21
178.3668654196089
 31
0.0
  0
LINE
  5
94
  8
0
 10
352.5864247233485
 20
177.3668654196089
 30
0.0
 11
340.10030272334848
 21
177.3668654196089
 31
0.0
  0
LINE
  5
95
  8
0
 10
367.96897672334842
 20
176.066865419609
 30
0.0
 11
373.10030272334848
 21
176.066865419609
 31
0.0
  0
LINE
  5
96
  8
0
 10
365.75361472334851
 20
175.3668654196089
 30
0.0
 11
372.40030272334837
 21
175.3668654196089
 31
0.0
  0
LINE
  5
97
  8
0
 10
84.047400723348488
 20
177.3668654196089
 30
0.0
 11
41.047400723348467
 21
177.3668654196089
 31
0.0
  0
LINE
  5
98
  8
0
 10
85.047400723348488
 20
200.8668654196089
 30
0.0
 11
40.047400723348481
 21
200.8668654196089
 31
0.0
  0
LINE
  5
99
  8
1
 10
35.047400723348481
 20
192.3668654196089
 30
0.0
 11
90.047400723348488
 21
192.3668654196089
 31
0.0
  0
LINE
  5
9A
  8
0
 10
42.547400723348481
 20
203.36686541960901
 30
0.0
 11
40.047400723348481
 21
200.8668654196089
 31
0.0
  0
LINE
  5
9B
  8
0
 10
40.047400723348481
 20
200.8668654196089
 30
0.0
 11
40.047400723348481
 21
178.3668654196089
 31
0.0
  0
LINE
  5
9C
  8
0
 10
40.047400723348481
 20
178.3668654196089
 30
0.0
 11
41.047400723348467
 21
177.3668654196089
 31
0.0
  0
LINE
  5
9D
  8
0
 10
51.047400723348481
 20
177.3668654196089
 30
0.0
 11
51.047400723348481
 21
176.066865419609
 31
0.0
  0
LINE
  5
9E
  8
0
 10
51.047400723348481
 20
176.066865419609
 30
0.0
 11
51.747400723348477
 21
175.3668654196089
 31
0.0
  0
LINE
  5
9F
  8
0
 10
74.047400723348474
 20
176.066865419609
 30
0.0
 11
73.347400723348471
 21
175.3668654196089
 31
0.0
  0
LINE
  5
A0
  8
0
 10
74.047400723348474
 20
177.3668654196089
 30
0.0
 11
74.047400723348474
 21
176.066865419609
 31
0.0
  0
LINE
  5
A1
  8
0
 10
85.047400723348488
 20
178.3668654196089
 30
0.0
 11
84.047400723348488
 21
177.3668654196089
 31
0.0
  0
LINE
  5
A2
  8
0
 10
82.547400723348488
 20
203.36686541960901
 30
0.0
 11
85.047400723348488
 21
200.8668654196089
 31
0.0
  0
LINE
  5
A3
  8
0
 10
42.547400723348481
 20
203.36686541960901
 30
0.0
 11
82.547400723348488
 21
203.36686541960901
 31
0.0
  0
LINE
  5
A4
  8
0
 10
40.047400723348481
 20
178.3668654196089
 30
0.0
 11
85.047400723348488
 21
178.3668654196089
 31
0.0
  0
LINE
  5
A5
  8
0
 10
51.747400723348477
 20
175.3668654196089
 30
0.0
 11
73.347400723348471
 21
175.3668654196089
 31
0.0
  0
LINE
  5
A6
  8
0
 10
85.047400723348488
 20
200.8668654196089
 30
0.0
 11
85.047400723348488
 21
178.3668654196089
 31
0.0
  0
LINE
  5
A7
  8
1
 10
62.547400723348467
 20
217.01610454658999
 30
0.0
 11
62.547400723348439
 21
120.3668654196089
 31
0.0
  0
LINE
  5
A8
  8
0
 10
51.047400723348481
 20
176.066865419609
 30
0.0
 11
74.047400723348474
 21
176.066865419609
 31
0.0
  0
LINE
  5
AA
  8
0
 10
68.547400723348446
 20
125.3668654196089
 30
0.0
 11
70.547400723348446
 21
127.3668654196089
 31
0.0
  0
LINE
  5
AB
  8
0
 10
70.547400723348446
 20
127.3668654196089
 30
0.0
 11
70.547400723348474
 21
174.76686541960899
 31
0.0
  0
ARC
  5
AC
  8
0
 10
71.147400723348483
 20
174.76686541960899
 30
0.0
 40
0.6
 50
90.0
 51
180.0
  0
LINE
  5
AD
  8
3
 10
70.547400723348474
 20
174.76686541960899
 30
0.0
 11
69.464900723348478
 21
172.89192041960891
 31
0.0
  0
LINE
  5
AE
  8
3
 10
69.464900723348478
 20
172.89192041960891
 30
0.0
 11
69.46490072334845
 21
126.2843654196089
 31
0.0
  0
LINE
  5
AF
  8
3
 10
55.629900723348477
 20
172.89192041960891
 30
0.0
 11
55.629900723348442
 21
126.2843654196089
 31
0.0
  0
LINE
  5
B0
  8
3
 10
54.547400723348467
 20
174.76686541960899
 30
0.0
 11
55.629900723348477
 21
172.89192041960891
 31
0.0
  0
ARC
  5
B1
  8
0
 10
53.947400723348473
 20
174.76686541960899
 30
0.0
 40
0.6
 50
0.0
 51
90.0
  0
LINE
  5
B2
  8
0
 10
54.547400723348439
 20
127.3668654196089
 30
0.0
 11
54.547400723348467
 21
174.76686541960899
 31
0.0
  0
LINE
  5
B3
  8
0
 10
56.547400723348453
 20
125.3668654196089
 30
0.0
 11
54.547400723348439
 21
127.3668654196089
 31
0.0
  0
LINE
  5
B4
  8
0
 10
54.547400723348467
 20
172.89192041960891
 30
0.0
 11
70.547400723348474
 21
172.89192041960891
 31
0.0
  0
LINE
  5
B5
  8
0
 10
54.547400723348439
 20
127.3668654196089
 30
0.0
 11
70.547400723348446
 21
127.3668654196089
 31
0.0
  0
LINE
  5
B6
  8
0
 10
56.547400723348453
 20
125.3668654196089
 30
0.0
 11
68.547400723348446
 21
125.3668654196089
 31
0.0
  0
LINE
  5
B7
  8
0
 10
367.60030272334848
 20
125.3668654196089
 30
0.0
 11
369.60030272334848
 21
127.3668654196089
 31
0.0
  0
LINE
  5
B8
  8
0
 10
369.60030272334848
 20
127.3668654196089
 30
0.0
 11
369.60030272334848
 21
174.76686541960899
 31
0.0
  0
ARC
  5
B9
  8
0
 10
370.2003027233485
 20
174.76686541960899
 30
0.0
 40
0.6
 50
90.0
 51
180.0
  0
LINE
  5
BA
  8
3
 10
369.60030272334848
 20
174.76686541960899
 30
0.0
 11
368.5178027233485
 21
172.89192041960891
 31
0.0
  0
LINE
  5
BB
  8
3
 10
368.5178027233485
 20
172.89192041960891
 30
0.0
 11
368.51780272334838
 21
126.2843654196089
 31
0.0
  0
LINE
  5
BC
  8
3
 10
354.6828027233484
 20
172.89192041960891
 30
0.0
 11
354.6828027233484
 21
126.2843654196089
 31
0.0
  0
LINE
  5
BD
  8
3
 10
353.60030272334848
 20
174.76686541960899
 30
0.0
 11
354.6828027233484
 21
172.89192041960891
 31
0.0
  0
ARC
  5
BE
  8
0
 10
353.00030272334851
 20
174.76686541960899
 30
0.0
 40
0.6
 50
0.0
 51
90.0
  0
LINE
  5
BF
  8
0
 10
353.60030272334848
 20
127.3668654196089
 30
0.0
 11
353.60030272334848
 21
174.76686541960899
 31
0.0
  0
LINE
  5
C0
  8
0
 10
355.60030272334848
 20
125.3668654196089
 30
0.0
 11
353.60030272334848
 21
127.3668654196089
 31
0.0
  0
LINE
  5
C1
  8
0
 10
353.60030272334848
 20
172.89192041960891
 30
0.0
 11
369.60030272334848
 21
172.89192041960891
 31
0.0
  0
LINE
  5
C2
  8
0
 10
353.60030272334848
 20
127.3668654196089
 30
0.0
 11
369.60030272334848
 21
127.3668654196089
 31
0.0
  0
LINE
  5
C3
  8
0
 10
355.60030272334848
 20
125.3668654196089
 30
0.0
 11
367.60030272334848
 21
125.3668654196089
 31
0.0
  0
ARC
  5
16B
  8
0
 10
62.547400723348481
 20
192.3668654196089
 30
0.0
 40
18.5
 50
36.483737061367357
 51
143.51626293863259
  0
ARC
  5
16C
  8
0
 10
281.35158172334849
 20
192.3668654196089
 30
0.0
 40
18.5
 50
213.08749998019729
 51
146.91250001980271
  0
LINE
  5
170
  8
0
 10
265.85158172334849
 20
286.55360035797099
 30
0.0
 11
265.85158172334849
 21
266.35459048124687
 31
0.0
  0
LINE
  5
171
  8
1
 10
281.35158172334849
 20
301.10333454659008
 30
0.0
 11
281.35158172334849
 21
251.8048562926279
 31
0.0
  0
ARC
  5
172
  8
0
 10
281.35158172334849
 20
276.4540954196089
 30
0.0
 40
18.5
 50
213.08749998019681
 51
146.91250001980319
  0
LINE
  5
173
  8
0
 10
265.85158172334849
 20
82.781118357971025
 30
0.0
 11
265.85158172334849
 21
62.582108481246891
 31
0.0
  0
LINE
  5
174
  8
1
 10
281.35158172334849
 20
97.330852546590023
 30
0.0
 11
281.35158172334849
 21
48.032374292627892
 31
0.0
  0
ARC
  5
175
  8
0
 10
281.35158172334849
 20
72.681613419608951
 30
0.0
 40
18.5
 50
213.08749998019681
 51
146.91250001980319
  0
TEXT
  5
2B3
  8
0
 62
     3
 10
0.0
 20
0.0
 30
0.0
 40
10.0
  1
FT16X50-SUS
  7
STANDARD1
  0
ENDSEC
  0
EOF
