  0
SECTION
  2
HEADER
  9
$ACADVER
  1
AC1009
  9
$INSBASE
 10
0.0
 20
0.0
 30
0.0
  9
$EXTMIN
 10
0.0
 20
-2.960436562073669
 30
0.0
  9
$EXTMAX
 10
697.25957811827345
 20
503.6388388116888
 30
0.0
  9
$LIMMIN
 10
0.0
 20
0.0
  9
$LIMMAX
 10
750.0
 20
540.0
  9
$ORTHOMODE
 70
     1
  9
$REGENMODE
 70
     1
  9
$FILLMODE
 70
     1
  9
$QTEXTMODE
 70
     0
  9
$MIRRTEXT
 70
     0
  9
$DRAGMODE
 70
     2
  9
$LTSCALE
 40
20.0
  9
$OSMODE
 70
    37
  9
$ATTMODE
 70
     1
  9
$TEXTSIZE
 40
0.2
  9
$TRACEWID
 40
0.05
  9
$TEXTSTYLE
  7
STANDARD
  9
$CLAYER
  8
0
  9
$CELTYPE
  6
BYLAYER
  9
$CECOLOR
 62
   256
  9
$DIMSCALE
 40
2.0
  9
$DIMASZ
 40
3.0
  9
$DIMEXO
 40
2.0
  9
$DIMDLI
 40
0.38
  9
$DIMRND
 40
0.0
  9
$DIMDLE
 40
0.0
  9
$DIMEXE
 40
2.0
  9
$DIMTP
 40
0.0
  9
$DIMTM
 40
0.0
  9
$DIMTXT
 40
3.2000000000000002
  9
$DIMCEN
 40
0.0
  9
$DIMTSZ
 40
0.0
  9
$DIMTOL
 70
     0
  9
$DIMLIM
 70
     0
  9
$DIMTIH
 70
     0
  9
$DIMTOH
 70
     0
  9
$DIMSE1
 70
     0
  9
$DIMSE2
 70
     0
  9
$DIMTAD
 70
     1
  9
$DIMZIN
 70
     0
  9
$DIMBLK
  1

  9
$DIMASO
 70
     1
  9
$DIMSHO
 70
     0
  9
$DIMPOST
  1

  9
$DIMAPOST
  1

  9
$DIMALT
 70
     0
  9
$DIMALTD
 70
     2
  9
$DIMALTF
 40
25.399999999999999
  9
$DIMLFAC
 40
1.0
  9
$DIMTOFL
 70
     0
  9
$DIMTVP
 40
1.6000000000000001
  9
$DIMTIX
 70
     1
  9
$DIMSOXD
 70
     0
  9
$DIMSAH
 70
     0
  9
$DIMBLK1
  1

  9
$DIMBLK2
  1

  9
$DIMSTYLE
  2
STANDARD
  9
$DIMCLRD
 70
     0
  9
$DIMCLRE
 70
     0
  9
$DIMCLRT
 70
     0
  9
$DIMTFAC
 40
1.0
  9
$DIMGAP
 40
0.09
  9
$LUNITS
 70
     2
  9
$LUPREC
 70
     1
  9
$SKETCHINC
 40
0.1
  9
$FILLETRAD
 40
0.0
  9
$AUNITS
 70
     0
  9
$AUPREC
 70
     0
  9
$MENU
  1
E:\r13\win\SUPPORT\ACAD
  9
$ELEVATION
 40
0.0
  9
$PELEVATION
 40
0.0
  9
$THICKNESS
 40
0.0
  9
$LIMCHECK
 70
     0
  9
$BLIPMODE
 70
     0
  9
$CHAMFERA
 40
0.0
  9
$CHAMFERB
 40
0.0
  9
$SKPOLY
 70
     0
  9
$TDCREATE
 40
2449840.6014236109
  9
$TDUPDATE
 40
2456689.4365479862
  9
$TDINDWG
 40
0.0055558218
  9
$TDUSRTIMER
 40
2456687.3323585419
  9
$USRTIMER
 70
     1
  9
$ANGBASE
 50
0.0
  9
$ANGDIR
 70
     0
  9
$PDMODE
 70
     0
  9
$PDSIZE
 40
0.0
  9
$PLINEWID
 40
0.0
  9
$COORDS
 70
     1
  9
$SPLFRAME
 70
     0
  9
$SPLINETYPE
 70
     6
  9
$SPLINESEGS
 70
     8
  9
$ATTDIA
 70
     0
  9
$ATTREQ
 70
     1
  9
$HANDLING
 70
     1
  9
$HANDSEED
  5
575
  9
$SURFTAB1
 70
     6
  9
$SURFTAB2
 70
     6
  9
$SURFTYPE
 70
     6
  9
$SURFU
 70
     6
  9
$SURFV
 70
     6
  9
$UCSNAME
  2

  9
$UCSORG
 10
0.0
 20
0.0
 30
0.0
  9
$UCSXDIR
 10
1.0
 20
0.0
 30
0.0
  9
$UCSYDIR
 10
0.0
 20
1.0
 30
0.0
  9
$PUCSNAME
  2

  9
$PUCSORG
 10
0.0
 20
0.0
 30
0.0
  9
$PUCSXDIR
 10
1.0
 20
0.0
 30
0.0
  9
$PUCSYDIR
 10
0.0
 20
1.0
 30
0.0
  9
$USERI1
 70
     0
  9
$USERI2
 70
     1
  9
$USERI3
 70
     1
  9
$USERI4
 70
     0
  9
$USERI5
 70
     0
  9
$USERR1
 40
0.0
  9
$USERR2
 40
0.0
  9
$USERR3
 40
0.0
  9
$USERR4
 40
0.0
  9
$USERR5
 40
0.0
  9
$WORLDVIEW
 70
     1
  9
$SHADEDGE
 70
     3
  9
$SHADEDIF
 70
    70
  9
$TILEMODE
 70
     1
  9
$MAXACTVP
 70
    16
  9
$PLIMCHECK
 70
     0
  9
$PEXTMIN
 10
1.0000000000000000E+020
 20
1.0000000000000000E+020
 30
1.0000000000000000E+020
  9
$PEXTMAX
 10
-1.0000000000000000E+020
 20
-1.0000000000000000E+020
 30
-1.0000000000000000E+020
  9
$PLIMMIN
 10
0.0
 20
0.0
  9
$PLIMMAX
 10
12.0
 20
9.0
  9
$UNITMODE
 70
     0
  9
$VISRETAIN
 70
     0
  9
$PLINEGEN
 70
     0
  9
$PSLTSCALE
 70
     0
  0
ENDSEC
  0
SECTION
  2
TABLES
  0
TABLE
  2
VPORT
 70
     1
  0
VPORT
  2
*ACTIVE
 70
     0
 10
0.0
 20
0.0
 11
1.0
 21
1.0
 12
451.76416384020177
 22
250.32554704152341
 13
0.0
 23
0.0
 14
20.0
 24
20.0
 15
20.0
 25
20.0
 16
0.0
 26
0.0
 36
1.0
 17
0.0
 27
0.0
 37
0.0
 40
511.02472080205928
 41
2.3805970149253728
 42
50.0
 43
0.0
 44
0.0
 50
0.0
 51
0.0
 71
    16
 72
   500
 73
     1
 74
     0
 75
     0
 76
     0
 77
     0
 78
     2
  0
ENDTAB
  0
TABLE
  2
LTYPE
 70
     4
  0
LTYPE
  2
CONTINUOUS
 70
     0
  3
Solid Line
 72
    65
 73
     0
 40
0.0
  0
LTYPE
  2
CENTER
 70
     0
  3
____ _ ____ _ ____ _ ____ _ ____ _ ____ _ ____
 72
    65
 73
     4
 40
2.0
 49
1.25
 49
-0.25
 49
0.25
 49
-0.25
  0
LTYPE
  2
HIDDEN
 70
     0
  3
_ _ _ _ _ _ _ _ _ _ _ _ _ _ _ _ _ _ _ _ _ _ _
 72
    65
 73
     2
 40
0.375
 49
0.25
 49
-0.125
  0
LTYPE
  2
PHANTOM2
 70
     0
  3
___ _ _ ___ _ _ ___ _ _ ___ _ _
 72
    65
 73
     6
 40
1.25
 49
0.625
 49
-0.125
 49
0.125
 49
-0.125
 49
0.125
 49
-0.125
  0
ENDTAB
  0
TABLE
  2
LAYER
 70
     4
  0
LAYER
  2
0
 70
     0
 62
     7
  6
CONTINUOUS
  0
LAYER
  2
1
 70
     0
 62
     1
  6
CENTER
  0
LAYER
  2
2
 70
     0
 62
     2
  6
HIDDEN
  0
LAYER
  2
3
 70
     0
 62
     3
  6
CONTINUOUS
  0
ENDTAB
  0
TABLE
  2
STYLE
 70
     2
  0
STYLE
  2
STANDARD
 70
     0
 40
0.0
 41
1.0
 50
0.0
 71
     0
 42
0.2
  3
TXT
  4
BIGFONT
  0
STYLE
  2
STANDARD1
 70
     0
 40
0.0
 41
1.0
 50
0.0
 71
     0
 42
3.0
  3
txt
  4

  0
ENDTAB
  0
TABLE
  2
VIEW
 70
     1
  0
VIEW
  2
ALL
 70
     0
 40
540.0
 10
441.98319327731082
 20
270.0
 41
0.0
 11
0.0
 21
0.0
 31
1.0
 12
0.0
 22
0.0
 32
0.0
 42
50.0
 43
0.0
 44
0.0
 50
0.0
 71
     0
  0
ENDTAB
  0
TABLE
  2
UCS
 70
     0
  0
ENDTAB
  0
TABLE
  2
APPID
 70
    39
  0
APPID
  2
ACAD
 70
     0
  0
APPID
  2
ACAD_MLEADERVER
 70
     0
  0
APPID
  2
DCO15
 70
     0
  0
APPID
  2
GENIUS_GENOREF_13
 70
     0
  0
APPID
  2
GENIUS_GENOENT_13
 70
     0
  0
APPID
  2
GENIUS_GENBH_13
 70
     0
  0
APPID
  2
GENIUS_GENOBJ_13
 70
     0
  0
APPID
  2
GENIUS_GENODEF_13
 70
     0
  0
APPID
  2
GENIUS_GENOLIS_13
 70
     0
  0
APPID
  2
GENIUS_GENOBJ-NBEHI-BHF_13
 70
     0
  0
APPID
  2
GENIUS_GENOBJ-NBEHI-BHB_13
 70
     0
  0
APPID
  2
GENIUS_GENOBJ-F-PART_13
 70
     0
  0
APPID
  2
GENIUS_GEFSTDP_13
 70
     0
  0
APPID
  2
GENIUS_GENOBJ-N-RSSYM_13
 70
     0
  0
APPID
  2
GENIUS_GENSYMENT_13
 70
     0
  0
APPID
  2
GENIUS_GENOBJ-N-TIT_13
 70
     0
  0
APPID
  2
GENIUS_GENTITLE_13
 70
     0
  0
APPID
  2
GENIUS_GENZVEED_13
 70
     0
  0
APPID
  2
GENIUS_GENOBJ-N-LEADER_13
 70
     0
  0
APPID
  2
GENIUS_GENOBJ-N-FIL_13
 70
     0
  0
APPID
  2
GENIUS_GENOBJ-N-SEC_13
 70
     0
  0
APPID
  2
GENIUS_GENOBJ-N-CRS_13
 70
     0
  0
APPID
  2
GENIUS_GENOBJ-N-ZOO_13
 70
     0
  0
APPID
  2
GENIUS_GENZOO_13
 70
     0
  0
APPID
  2
GENIUS_GENOBJ-F-TOL_13
 70
     0
  0
APPID
  2
GENIUS_GENFIL_13
 70
     0
  0
APPID
  2
GENIUS_GENOBJ-N-CHA_13
 70
     0
  0
APPID
  2
_CALL_MAC$
 70
     0
  0
APPID
  2
ASM_BASE
 70
     0
  0
APPID
  2
ASM_EXPLO_VER_2_00
 70
     0
  0
APPID
  2
ASM_CADM_VER_12_00
 70
     0
  0
APPID
  2
ASM_BASEFORO
 70
     0
  0
APPID
  2
ASM_BASETRAVI
 70
     0
  0
APPID
  2
ASM_BASETRAVI1
 70
     0
  0
APPID
  2
ASM_GRUPPI
 70
     0
  0
APPID
  2
ASM_CADM_ALBERO
 70
     0
  0
APPID
  2
ASM_GOLE
 70
     0
  0
APPID
  2
ACAD_NAV_VCDISPLAY
 70
     0
  0
APPID
  2
ACAD_EXEMPT_FROM_CAD_STANDARDS
 70
     0
  0
ENDTAB
  0
TABLE
  2
DIMSTYLE
 70
     1
  0
DIMSTYLE
  2
STANDARD
 70
     0
  3

  4

  5

  6

  7

 40
1.0
 41
0.18
 42
0.0625
 43
0.38
 44
0.18
 45
0.0
 46
0.0
 47
0.0
 48
0.0
140
0.18
141
0.09
142
0.0
143
25.399999999999999
144
1.0
145
0.0
146
1.0
147
0.09
 71
     0
 72
     0
 73
     1
 74
     1
 75
     0
 76
     0
 77
     0
 78
     0
170
     0
171
     2
172
     0
173
     0
174
     0
175
     0
176
     0
177
     0
178
     0
  0
ENDTAB
  0
ENDSEC
  0
SECTION
  2
BLOCKS
  0
BLOCK
  8
0
  2
$MODEL_SPACE
 70
     0
 10
0.0
 20
0.0
 30
0.0
  3
$MODEL_SPACE
  1

  0
ENDBLK
  5
16D
  8
0
  0
BLOCK
 67
     1
  8
0
  2
$PAPER_SPACE
 70
     0
 10
0.0
 20
0.0
 30
0.0
  3
$PAPER_SPACE
  1

  0
ENDBLK
  5
16B
 67
     1
  8
0
  0
ENDSEC
  0
SECTION
  2
ENTITIES
  0
LINE
  5
36
  8
1
 10
88.654182270007354
 20
275.06968806708068
 30
0.0
 11
135.15418227000779
 21
275.06968806708068
 31
0.0
  0
LINE
  5
37
  8
1
 10
121.15418227000779
 20
290.06968806708068
 30
0.0
 11
121.15418227000779
 21
183.56968806708059
 31
0.0
  0
ARC
  5
38
  8
0
 10
128.65418227000771
 20
268.06968806708079
 30
0.0
 40
1.5
 50
270.0
 51
0.0
  0
LINE
  5
39
  8
0
 10
116.65418227000769
 20
285.06968806708079
 30
0.0
 11
116.65418227000779
 21
283.56968806708068
 31
0.0
  0
LINE
  5
3A
  8
0
 10
107.65418227000779
 20
283.56968806708068
 30
0.0
 11
107.65418227000779
 21
266.56968806708068
 31
0.0
  0
LINE
  5
3B
  8
0
 10
116.65418227000779
 20
283.56968806708068
 30
0.0
 11
107.65418227000779
 21
283.56968806708068
 31
0.0
  0
LINE
  5
3C
  8
0
 10
130.15418227000779
 20
285.06968806708079
 30
0.0
 11
116.65418227000769
 21
285.06968806708079
 31
0.0
  0
LINE
  5
3D
  8
0
 10
128.65418227000771
 20
266.56968806708068
 30
0.0
 11
107.65418227000779
 21
266.56968806708068
 31
0.0
  0
LINE
  5
3E
  8
2
 10
98.654182270007723
 20
277.06968806708068
 30
0.0
 11
99.808882808386997
 21
275.06968806708079
 31
0.0
  0
LINE
  5
3F
  8
2
 10
98.654182270007723
 20
277.06968806708079
 30
0.0
 11
97.654182270007723
 21
277.06968806708079
 31
0.0
  0
LINE
  5
40
  8
2
 10
98.654182270007723
 20
273.06968806708068
 30
0.0
 11
97.654182270007723
 21
273.06968806708068
 31
0.0
  0
LINE
  5
41
  8
2
 10
98.654182270007723
 20
273.06968806708068
 30
0.0
 11
99.808882808386997
 21
275.06968806708079
 31
0.0
  0
LINE
  5
42
  8
2
 10
98.654182270007723
 20
273.06968806708068
 30
0.0
 11
98.654182270007723
 21
277.06968806707943
 31
0.0
  0
LINE
  5
43
  8
2
 10
97.654182270007723
 20
273.06968806707852
 30
0.0
 11
97.654182270007723
 21
277.06968806708079
 31
0.0
  0
LINE
  5
44
  8
2
 10
93.654182270007709
 20
277.06968806708079
 30
0.0
 11
97.654182270007723
 21
277.06968806708079
 31
0.0
  0
LINE
  5
47
  8
2
 10
93.654182270007766
 20
273.06968806707852
 30
0.0
 11
97.654182270007723
 21
273.06968806707852
 31
0.0
  0
LINE
  5
48
  8
0
 10
106.45418227000771
 20
271.06968806708068
 30
0.0
 11
106.45418227000771
 21
279.06968806708068
 31
0.0
  0
LINE
  5
49
  8
3
 10
94.177682270007764
 20
271.74618806708071
 30
0.0
 11
106.45418227000771
 21
271.74618806708071
 31
0.0
  0
LINE
  5
4A
  8
0
 10
94.854182270007726
 20
271.06968806708079
 30
0.0
 11
94.854182270007726
 21
279.06968806708068
 31
0.0
  0
LINE
  5
4B
  8
0
 10
94.85418227000774
 20
271.06968806708068
 30
0.0
 11
107.65418227000769
 21
271.06968806708068
 31
0.0
  0
LINE
  5
4C
  8
0
 10
94.85418227000774
 20
279.06968806708068
 30
0.0
 11
107.65418227000769
 21
279.06968806708068
 31
0.0
  0
LINE
  5
4E
  8
0
 10
93.654182270007709
 20
272.26968806708078
 30
0.0
 11
94.85418227000774
 21
271.06968806708068
 31
0.0
  0
LINE
  5
4F
  8
0
 10
93.654182270007709
 20
277.86968806708069
 30
0.0
 11
94.85418227000774
 21
279.06968806708068
 31
0.0
  0
LINE
  5
50
  8
3
 10
94.177682270007764
 20
278.39318806708081
 30
0.0
 11
106.45418227000771
 21
278.39318806708081
 31
0.0
  0
LINE
  5
51
  8
0
 10
111.65418227000799
 20
263.56968806708068
 30
0.0
 11
111.65418227000799
 21
266.56968806708068
 31
0.0
  0
LINE
  5
5B
  8
0
 10
130.65418227000799
 20
263.56968806708068
 30
0.0
 11
130.65418227000799
 21
266.56968806708068
 31
0.0
  0
LINE
  5
5C
  8
0
 10
130.65418227000799
 20
263.56968806708068
 30
0.0
 11
111.65418227000799
 21
263.56968806708068
 31
0.0
  0
LINE
  5
5D
  8
0
 10
128.65418227000771
 20
266.56968806708068
 30
0.0
 11
130.65418227000799
 21
266.56968806708068
 31
0.0
  0
LINE
  5
63
  8
1
 10
285.54352124076138
 20
290.06968806707931
 30
0.0
 11
285.54352124076138
 21
183.56968806708059
 31
0.0
  0
LINE
  5
66
  8
0
 10
295.04352124076172
 20
263.56968806708068
 30
0.0
 11
295.04352124076172
 21
266.56968806708068
 31
0.0
  0
LINE
  5
69
  8
0
 10
295.04352124076172
 20
263.56968806708068
 30
0.0
 11
276.04352124076161
 21
263.56968806708068
 31
0.0
  0
LINE
  5
6A
  8
0
 10
276.04352124076161
 20
263.56968806708068
 30
0.0
 11
276.04352124076161
 21
266.56968806708068
 31
0.0
  0
LINE
  5
6D
  8
1
 10
270.5435212407624
 20
275.06968806708068
 30
0.0
 11
300.54352124076053
 21
275.06968806708068
 31
0.0
  0
ARC
  5
6E
  8
0
 10
285.54352124076138
 20
275.06968806708068
 30
0.0
 40
3.0
 50
0.0
 51
180.0
  0
ARC
  5
6F
  8
0
 10
285.54352124076138
 20
275.06968806708068
 30
0.0
 40
10.0
 50
301.7883306170516
 51
238.2116693829484
  0
LINE
  5
70
  8
0
 10
276.04352124076161
 20
266.56968806708068
 30
0.0
 11
295.04352124076172
 21
266.56968806708068
 31
0.0
  0
LINE
  5
71
  8
2
 10
280.27569436433549
 20
283.56968806708068
 30
0.0
 11
290.81134811718772
 21
283.56968806708068
 31
0.0
  0
LINE
  5
72
  8
0
 10
288.54352124076138
 20
275.06968806708068
 30
0.0
 11
288.54352124076138
 21
266.56968806708068
 31
0.0
  0
LINE
  5
73
  8
0
 10
282.54352124076138
 20
275.06968806708068
 30
0.0
 11
282.54352124076138
 21
266.56968806708068
 31
0.0
  0
LINE
  5
74
  8
0
 10
288.54352124076138
 20
270.45991583843431
 30
0.0
 11
282.54352124076149
 21
270.45991583843448
 31
0.0
  0
LINE
  5
76
  8
0
 10
655.75957811827311
 20
285.06968806708079
 30
0.0
 11
655.75957811827311
 21
265.5696880670809
 31
0.0
  0
LINE
  5
80
  8
0
 10
652.75957811827311
 20
284.56968806708102
 30
0.0
 11
655.75957811827311
 21
284.56968806708102
 31
0.0
  0
LINE
  5
81
  8
0
 10
652.75957811827311
 20
265.5696880670809
 30
0.0
 11
655.75957811827311
 21
265.5696880670809
 31
0.0
  0
LINE
  5
82
  8
0
 10
652.75957811827311
 20
265.5696880670809
 30
0.0
 11
652.75957811827311
 21
284.56968806708102
 31
0.0
  0
LINE
  5
83
  8
3
 10
691.73607811827333
 20
278.39318806708081
 30
0.0
 11
679.45957811827316
 21
278.39318806708081
 31
0.0
  0
LINE
  5
84
  8
0
 10
692.25957811827334
 20
277.86968806708069
 30
0.0
 11
691.05957811827329
 21
279.06968806708068
 31
0.0
  0
LINE
  5
85
  8
0
 10
692.25957811827334
 20
272.26968806708078
 30
0.0
 11
691.05957811827329
 21
271.06968806708068
 31
0.0
  0
LINE
  5
86
  8
0
 10
692.25957811827334
 20
272.26968806708078
 30
0.0
 11
692.25957811827334
 21
277.86968806708069
 31
0.0
  0
LINE
  5
87
  8
0
 10
691.05957811827329
 20
279.06968806708068
 30
0.0
 11
678.25957811827323
 21
279.06968806708068
 31
0.0
  0
LINE
  5
88
  8
0
 10
691.05957811827329
 20
271.06968806708068
 30
0.0
 11
678.25957811827323
 21
271.06968806708068
 31
0.0
  0
LINE
  5
89
  8
0
 10
691.05957811827329
 20
271.06968806708079
 30
0.0
 11
691.05957811827329
 21
279.06968806708068
 31
0.0
  0
LINE
  5
8A
  8
3
 10
691.73607811827333
 20
271.74618806708071
 30
0.0
 11
679.45957811827316
 21
271.74618806708071
 31
0.0
  0
LINE
  5
8B
  8
0
 10
679.45957811827316
 20
271.06968806708068
 30
0.0
 11
679.45957811827304
 21
279.06968806708068
 31
0.0
  0
LINE
  5
8C
  8
2
 10
692.25957811827334
 20
273.06968806707852
 30
0.0
 11
688.25957811827334
 21
273.06968806707852
 31
0.0
  0
LINE
  5
8E
  8
2
 10
692.25957811827334
 20
275.06968806708068
 30
0.0
 11
688.25957811827334
 21
275.06968806708068
 31
0.0
  0
LINE
  5
8F
  8
2
 10
692.25957811827334
 20
277.06968806708079
 30
0.0
 11
688.25957811827334
 21
277.06968806708079
 31
0.0
  0
LINE
  5
90
  8
2
 10
688.25957811827334
 20
273.06968806707852
 30
0.0
 11
688.25957811827334
 21
277.06968806708079
 31
0.0
  0
LINE
  5
91
  8
2
 10
687.25957811827334
 20
273.06968806708068
 30
0.0
 11
687.25957811827334
 21
277.06968806707943
 31
0.0
  0
LINE
  5
92
  8
2
 10
687.25957811827334
 20
273.06968806708068
 30
0.0
 11
686.10487757989404
 21
275.06968806708079
 31
0.0
  0
LINE
  5
93
  8
2
 10
687.25957811827334
 20
273.06968806708068
 30
0.0
 11
688.25957811827334
 21
273.06968806708068
 31
0.0
  0
LINE
  5
94
  8
2
 10
687.25957811827334
 20
277.06968806708079
 30
0.0
 11
688.25957811827334
 21
277.06968806708079
 31
0.0
  0
LINE
  5
95
  8
2
 10
687.25957811827334
 20
277.06968806708068
 30
0.0
 11
686.10487757989404
 21
275.06968806708079
 31
0.0
  0
LINE
  5
96
  8
0
 10
657.25957811827311
 20
266.56968806708068
 30
0.0
 11
678.25957811827311
 21
266.56968806708068
 31
0.0
  0
LINE
  5
97
  8
0
 10
655.75957811827311
 20
285.06968806708079
 30
0.0
 11
669.25957811827323
 21
285.06968806708079
 31
0.0
  0
LINE
  5
98
  8
0
 10
669.25957811827311
 20
283.56968806708068
 30
0.0
 11
678.25957811827311
 21
283.56968806708068
 31
0.0
  0
LINE
  5
99
  8
0
 10
678.25957811827311
 20
283.56968806708068
 30
0.0
 11
678.25957811827311
 21
266.56968806708068
 31
0.0
  0
LINE
  5
9A
  8
0
 10
669.25957811827323
 20
285.06968806708079
 30
0.0
 11
669.25957811827311
 21
283.56968806708068
 31
0.0
  0
ARC
  5
9B
  8
0
 10
657.25957811827311
 20
268.06968806708079
 30
0.0
 40
1.5
 50
180.0
 51
270.00000000000011
  0
LINE
  5
9C
  8
1
 10
664.75957811827288
 20
290.06968806708068
 30
0.0
 11
664.75957811827288
 21
261.56968806708068
 31
0.0
  0
LINE
  5
9D
  8
1
 10
697.25957811827345
 20
275.06968806708068
 30
0.0
 11
572.759578118273
 21
275.06968806708068
 31
0.0
  0
LINE
  5
9E
  8
0
 10
130.15418227000779
 20
285.06968806708079
 30
0.0
 11
130.15418227000771
 21
268.06968806708079
 31
0.0
  0
CIRCLE
  5
9F
  8
0
 10
450.5063004678475
 20
275.06968806708068
 30
0.0
 40
11.0
  0
LINE
  5
A0
  8
1
 10
466.5063004678475
 20
275.06968806708068
 30
0.0
 11
434.5063004678475
 21
275.06968806708068
 31
0.0
  0
LINE
  5
A1
  8
1
 10
450.5063004678475
 20
291.06968806708079
 30
0.0
 11
450.5063004678475
 21
259.06968806708068
 31
0.0
  0
LINE
  5
A2
  8
0
 10
295.54352124076138
 20
88.000537322473107
 30
0.0
 11
291.86807656109818
 21
88.000537322473107
 31
0.0
  0
LINE
  5
A3
  8
3
 10
288.86702124076152
 20
52.024037322473042
 30
0.0
 11
288.86702124076152
 21
64.300537322473005
 31
0.0
  0
LINE
  5
A4
  8
0
 10
288.3435212407615
 20
51.500537322473022
 30
0.0
 11
289.54352124076149
 21
52.700537322473039
 31
0.0
  0
LINE
  5
A5
  8
0
 10
282.74352124076148
 20
51.500537322473022
 30
0.0
 11
281.54352124076138
 21
52.700537322473039
 31
0.0
  0
LINE
  5
A6
  8
0
 10
282.74352124076148
 20
51.500537322473022
 30
0.0
 11
288.3435212407615
 21
51.500537322473022
 31
0.0
  0
LINE
  5
A7
  8
0
 10
289.54352124076149
 20
52.700537322473039
 30
0.0
 11
289.54352124076149
 21
65.500537322473022
 31
0.0
  0
LINE
  5
A8
  8
0
 10
281.54352124076138
 20
52.700537322473039
 30
0.0
 11
281.54352124076138
 21
65.500537322473022
 31
0.0
  0
LINE
  5
A9
  8
0
 10
281.54352124076149
 20
52.700537322473011
 30
0.0
 11
289.54352124076149
 21
52.700537322473011
 31
0.0
  0
LINE
  5
AA
  8
3
 10
282.22002124076153
 20
52.024037322473042
 30
0.0
 11
282.22002124076153
 21
64.300537322473005
 31
0.0
  0
LINE
  5
AB
  8
0
 10
281.54352124076138
 20
64.300537322473005
 30
0.0
 11
289.54352124076149
 21
64.300537322473033
 31
0.0
  0
LINE
  5
AC
  8
2
 10
283.2341201658827
 20
51.50053732247305
 30
0.0
 11
283.2341201658827
 21
55.500537322473022
 31
0.0
  0
LINE
  5
AD
  8
2
 10
284.38882070332272
 20
51.500537322473022
 30
0.0
 11
284.38882070332272
 21
55.500537322473022
 31
0.0
  0
LINE
  5
AE
  8
2
 10
286.69822177820049
 20
51.500537322473022
 30
0.0
 11
286.69822177820049
 21
55.500537322473022
 31
0.0
  0
LINE
  5
AF
  8
2
 10
287.85292231564011
 20
51.500537322473022
 30
0.0
 11
287.85292231564011
 21
55.500537322473022
 31
0.0
  0
LINE
  5
B0
  8
2
 10
283.2341201658827
 20
55.500537322473022
 30
0.0
 11
287.85292231564011
 21
55.500537322473022
 31
0.0
  0
LINE
  5
B1
  8
2
 10
283.54352124076149
 20
56.500537322473022
 30
0.0
 11
287.54352124076013
 21
56.500537322473022
 31
0.0
  0
LINE
  5
B2
  8
2
 10
283.54352124076149
 20
56.500537322473022
 30
0.0
 11
285.54352124076149
 21
57.655237860852282
 31
0.0
  0
LINE
  5
B3
  8
2
 10
283.54352124076149
 20
56.500537322473022
 30
0.0
 11
283.54352124076149
 21
55.500537322473022
 31
0.0
  0
LINE
  5
B4
  8
2
 10
287.54352124076149
 20
56.500537322473022
 30
0.0
 11
287.54352124076149
 21
55.500537322473022
 31
0.0
  0
LINE
  5
B5
  8
2
 10
287.54352124076138
 20
56.500537322473022
 30
0.0
 11
285.54352124076149
 21
57.655237860852282
 31
0.0
  0
LINE
  5
B6
  8
0
 10
295.54352124076138
 20
88.000537322473107
 30
0.0
 11
295.54352124076138
 21
83.583113017429127
 31
0.0
  0
LINE
  5
B7
  8
0
 10
295.54352124076138
 20
65.500537322473079
 30
0.0
 11
275.54352124076149
 21
65.500537322473093
 31
0.0
  0
LINE
  5
B8
  8
1
 10
300.54352124076138
 20
79.000537322473093
 30
0.0
 11
270.54352124076138
 21
79.000537322473065
 31
0.0
  0
LINE
  5
B9
  8
1
 10
285.54352124076138
 20
46.500537322472638
 30
0.0
 11
285.54352124076138
 21
93.000537322473107
 31
0.0
  0
LINE
  5
BA
  8
0
 10
275.54352124076138
 20
88.000537322473065
 30
0.0
 11
275.54352124076138
 21
83.583113017429326
 31
0.0
  0
CIRCLE
  5
BB
  8
0
 10
285.54352124076138
 20
79.000537322473107
 30
0.0
 40
11.0
  0
LINE
  5
BC
  8
0
 10
279.21896592042469
 20
88.000537322473065
 30
0.0
 11
275.54352124076138
 21
88.000537322473065
 31
0.0
  0
LINE
  5
BD
  8
0
 10
295.54352124076138
 20
74.417961627517059
 30
0.0
 11
295.54352124076138
 21
65.500537322473079
 31
0.0
  0
LINE
  5
BE
  8
0
 10
275.54352124076149
 20
74.417961627516846
 30
0.0
 11
275.54352124076149
 21
65.500537322473093
 31
0.0
  0
LINE
  5
BF
  8
1
 10
450.5063004678475
 20
46.500537322472809
 30
0.0
 11
450.5063004678475
 21
171.00053732247329
 31
0.0
  0
LINE
  5
C0
  8
1
 10
465.50630046784732
 20
79.000537322473321
 30
0.0
 11
437.0063004678475
 21
79.000537322473264
 31
0.0
  0
LINE
  5
C1
  8
0
 10
460.50630046784732
 20
65.500537322473264
 30
0.0
 11
440.50630046784732
 21
65.500537322473264
 31
0.0
  0
LINE
  5
C2
  8
0
 10
460.50630046784732
 20
88.000537322473264
 30
0.0
 11
460.50630046784732
 21
65.500537322473264
 31
0.0
  0
LINE
  5
C3
  8
2
 10
452.50630046784732
 20
56.500537322473143
 30
0.0
 11
450.5063004678475
 21
57.655237860852452
 31
0.0
  0
LINE
  5
C4
  8
2
 10
452.50630046784738
 20
56.500537322473143
 30
0.0
 11
452.50630046784738
 21
55.500537322473143
 31
0.0
  0
LINE
  5
C5
  8
2
 10
448.50630046784732
 20
56.500537322473143
 30
0.0
 11
448.50630046784732
 21
55.500537322473143
 31
0.0
  0
LINE
  5
C6
  8
2
 10
448.50630046784732
 20
56.500537322473143
 30
0.0
 11
450.5063004678475
 21
57.655237860852452
 31
0.0
  0
LINE
  5
C7
  8
2
 10
448.50630046784732
 20
56.500537322473143
 30
0.0
 11
452.50630046784607
 21
56.500537322473143
 31
0.0
  0
LINE
  5
C8
  8
2
 10
448.19689939296882
 20
55.500537322473143
 30
0.0
 11
452.81570154272612
 21
55.500537322473143
 31
0.0
  0
LINE
  5
C9
  8
2
 10
452.81570154272612
 20
51.500537322473143
 30
0.0
 11
452.81570154272612
 21
55.500537322473143
 31
0.0
  0
LINE
  5
CA
  8
2
 10
451.66100100528661
 20
51.500537322473143
 30
0.0
 11
451.66100100528661
 21
55.500537322473143
 31
0.0
  0
LINE
  5
CB
  8
2
 10
449.35159993040872
 20
51.500537322473143
 30
0.0
 11
449.35159993040872
 21
55.500537322473143
 31
0.0
  0
LINE
  5
CC
  8
2
 10
448.19689939296882
 20
51.500537322473143
 30
0.0
 11
448.19689939296882
 21
55.500537322473143
 31
0.0
  0
LINE
  5
CD
  8
0
 10
446.5063004678475
 20
64.300537322473147
 30
0.0
 11
454.5063004678475
 21
64.300537322473218
 31
0.0
  0
LINE
  5
CE
  8
3
 10
447.18280046784753
 20
52.024037322473148
 30
0.0
 11
447.18280046784753
 21
64.300537322473147
 31
0.0
  0
LINE
  5
CF
  8
0
 10
446.50630046784761
 20
52.700537322473188
 30
0.0
 11
454.5063004678475
 21
52.700537322473188
 31
0.0
  0
LINE
  5
D0
  8
0
 10
446.5063004678475
 20
52.700537322473188
 30
0.0
 11
446.5063004678475
 21
65.50053732247315
 31
0.0
  0
LINE
  5
D1
  8
0
 10
454.5063004678475
 20
52.700537322473188
 30
0.0
 11
454.5063004678475
 21
65.50053732247315
 31
0.0
  0
LINE
  5
D2
  8
0
 10
447.70630046784748
 20
51.500537322473143
 30
0.0
 11
453.30630046784728
 21
51.500537322473143
 31
0.0
  0
LINE
  5
D3
  8
0
 10
447.70630046784748
 20
51.500537322473143
 30
0.0
 11
446.5063004678475
 21
52.700537322473188
 31
0.0
  0
LINE
  5
D4
  8
0
 10
453.30630046784728
 20
51.500537322473143
 30
0.0
 11
454.5063004678475
 21
52.700537322473188
 31
0.0
  0
LINE
  5
D5
  8
3
 10
453.82980046784752
 20
52.024037322473148
 30
0.0
 11
453.82980046784752
 21
64.300537322473147
 31
0.0
  0
LINE
  5
D6
  8
0
 10
441.00630046784761
 20
91.000537322473264
 30
0.0
 11
460.00630046784761
 21
91.000537322473321
 31
0.0
  0
LINE
  5
D7
  8
0
 10
441.00630046784761
 20
91.000537322473264
 30
0.0
 11
441.00630046784761
 21
88.000537322473264
 31
0.0
  0
LINE
  5
D8
  8
0
 10
460.00630046784761
 20
91.000537322473264
 30
0.0
 11
460.00630046784761
 21
88.000537322473264
 31
0.0
  0
LINE
  5
E2
  8
0
 10
460.50630046784732
 20
88.000537322473264
 30
0.0
 11
440.50630046784738
 21
88.000537322473264
 31
0.0
  0
LINE
  5
E4
  8
0
 10
440.50630046784738
 20
88.000537322473264
 30
0.0
 11
440.50630046784732
 21
65.500537322473264
 31
0.0
  0
LINE
  5
E5
  8
0
 10
440.50630046784738
 20
462.13883881168817
 30
0.0
 11
440.50630046784732
 21
484.63883881168812
 31
0.0
  0
LINE
  5
E7
  8
0
 10
460.50630046784732
 20
462.13883881168817
 30
0.0
 11
440.50630046784738
 21
462.13883881168817
 31
0.0
  0
LINE
  5
F1
  8
0
 10
460.00630046784761
 20
459.13883881168812
 30
0.0
 11
460.00630046784761
 21
462.13883881168817
 31
0.0
  0
LINE
  5
F2
  8
0
 10
441.00630046784761
 20
459.13883881168812
 30
0.0
 11
441.00630046784761
 21
462.13883881168817
 31
0.0
  0
LINE
  5
F3
  8
0
 10
441.00630046784761
 20
459.13883881168812
 30
0.0
 11
460.00630046784761
 21
459.13883881168812
 31
0.0
  0
LINE
  5
F4
  8
3
 10
453.82980046784752
 20
498.1153388116881
 30
0.0
 11
453.82980046784752
 21
485.83883881168828
 31
0.0
  0
LINE
  5
F5
  8
0
 10
453.30630046784728
 20
498.63883881168829
 30
0.0
 11
454.5063004678475
 21
497.43883881168807
 31
0.0
  0
LINE
  5
F6
  8
0
 10
447.70630046784748
 20
498.63883881168829
 30
0.0
 11
446.5063004678475
 21
497.43883881168807
 31
0.0
  0
LINE
  5
F7
  8
0
 10
447.70630046784748
 20
498.63883881168829
 30
0.0
 11
453.30630046784728
 21
498.63883881168829
 31
0.0
  0
LINE
  5
F8
  8
0
 10
454.5063004678475
 20
497.43883881168807
 30
0.0
 11
454.5063004678475
 21
484.63883881168812
 31
0.0
  0
LINE
  5
F9
  8
0
 10
446.5063004678475
 20
497.43883881168807
 30
0.0
 11
446.5063004678475
 21
484.63883881168812
 31
0.0
  0
LINE
  5
FA
  8
0
 10
446.50630046784761
 20
497.43883881168807
 30
0.0
 11
454.5063004678475
 21
497.43883881168807
 31
0.0
  0
LINE
  5
FB
  8
3
 10
447.18280046784753
 20
498.1153388116881
 30
0.0
 11
447.18280046784753
 21
485.83883881168828
 31
0.0
  0
LINE
  5
FC
  8
0
 10
446.5063004678475
 20
485.83883881168828
 30
0.0
 11
454.5063004678475
 21
485.83883881168811
 31
0.0
  0
LINE
  5
FD
  8
2
 10
448.19689939296882
 20
498.63883881168829
 30
0.0
 11
448.19689939296882
 21
494.63883881168829
 31
0.0
  0
LINE
  5
FE
  8
2
 10
449.35159993040872
 20
498.63883881168829
 30
0.0
 11
449.35159993040872
 21
494.63883881168829
 31
0.0
  0
LINE
  5
FF
  8
2
 10
451.66100100528661
 20
498.63883881168829
 30
0.0
 11
451.66100100528661
 21
494.63883881168829
 31
0.0
  0
LINE
  5
100
  8
2
 10
452.81570154272612
 20
498.63883881168829
 30
0.0
 11
452.81570154272612
 21
494.63883881168829
 31
0.0
  0
LINE
  5
101
  8
2
 10
448.19689939296882
 20
494.63883881168829
 30
0.0
 11
452.81570154272612
 21
494.63883881168829
 31
0.0
  0
LINE
  5
102
  8
2
 10
448.50630046784732
 20
493.63883881168812
 30
0.0
 11
452.50630046784607
 21
493.63883881168812
 31
0.0
  0
LINE
  5
103
  8
2
 10
448.50630046784732
 20
493.63883881168812
 30
0.0
 11
450.5063004678475
 21
492.48413827330899
 31
0.0
  0
LINE
  5
104
  8
2
 10
448.50630046784732
 20
493.63883881168812
 30
0.0
 11
448.50630046784732
 21
494.63883881168829
 31
0.0
  0
LINE
  5
105
  8
2
 10
452.50630046784738
 20
493.63883881168812
 30
0.0
 11
452.50630046784738
 21
494.63883881168829
 31
0.0
  0
LINE
  5
106
  8
2
 10
452.50630046784732
 20
493.63883881168812
 30
0.0
 11
450.5063004678475
 21
492.48413827330899
 31
0.0
  0
LINE
  5
107
  8
0
 10
460.50630046784732
 20
462.13883881168817
 30
0.0
 11
460.50630046784732
 21
484.63883881168812
 31
0.0
  0
LINE
  5
108
  8
0
 10
460.50630046784732
 20
484.63883881168812
 30
0.0
 11
440.50630046784732
 21
484.63883881168812
 31
0.0
  0
LINE
  5
109
  8
1
 10
465.50630046784732
 20
471.13883881168817
 30
0.0
 11
437.0063004678475
 21
471.13883881168817
 31
0.0
  0
LINE
  5
10A
  8
1
 10
450.5063004678475
 20
503.63883881168857
 30
0.0
 11
450.5063004678475
 21
379.15347429033051
 31
0.0
  0
LINE
  5
10B
  8
0
 10
275.54352124076149
 20
462.1388388116884
 30
0.0
 11
275.54352124076149
 21
484.6388388116884
 31
0.0
  0
LINE
  5
10C
  8
0
 10
295.54352124076138
 20
462.1388388116884
 30
0.0
 11
275.54352124076138
 21
462.1388388116884
 31
0.0
  0
ARC
  5
10D
  8
0
 10
285.54352124076138
 20
471.13883881168817
 30
0.0
 40
11.0
 50
335.38002267134311
 51
24.619977328656962
  0
LINE
  5
10E
  8
1
 10
285.54352124076138
 20
503.6388388116888
 30
0.0
 11
285.54352124076138
 21
457.13883881168829
 31
0.0
  0
LINE
  5
10F
  8
1
 10
300.54352124076138
 20
471.13883881168817
 30
0.0
 11
270.54352124076138
 21
471.13883881168817
 31
0.0
  0
LINE
  5
110
  8
0
 10
295.54352124076138
 20
484.6388388116884
 30
0.0
 11
275.54352124076149
 21
484.6388388116884
 31
0.0
  0
LINE
  5
111
  8
0
 10
295.54352124076138
 20
462.13883881168829
 30
0.0
 11
295.54352124076149
 21
484.6388388116884
 31
0.0
  0
LINE
  5
112
  8
2
 10
287.54352124076138
 20
493.6388388116884
 30
0.0
 11
285.54352124076149
 21
492.4841382733091
 31
0.0
  0
LINE
  5
113
  8
2
 10
287.54352124076149
 20
493.6388388116884
 30
0.0
 11
287.54352124076149
 21
494.63883881168852
 31
0.0
  0
LINE
  5
114
  8
2
 10
283.54352124076149
 20
493.6388388116884
 30
0.0
 11
283.54352124076149
 21
494.63883881168852
 31
0.0
  0
LINE
  5
115
  8
2
 10
283.54352124076149
 20
493.6388388116884
 30
0.0
 11
285.54352124076149
 21
492.4841382733091
 31
0.0
  0
LINE
  5
116
  8
2
 10
283.54352124076149
 20
493.6388388116884
 30
0.0
 11
287.54352124076013
 21
493.6388388116884
 31
0.0
  0
LINE
  5
117
  8
2
 10
283.2341201658827
 20
494.63883881168852
 30
0.0
 11
287.85292231564011
 21
494.63883881168852
 31
0.0
  0
LINE
  5
118
  8
2
 10
287.85292231564011
 20
498.63883881168852
 30
0.0
 11
287.85292231564011
 21
494.63883881168852
 31
0.0
  0
LINE
  5
119
  8
2
 10
286.69822177820049
 20
498.63883881168852
 30
0.0
 11
286.69822177820049
 21
494.63883881168852
 31
0.0
  0
LINE
  5
11A
  8
2
 10
284.38882070332272
 20
498.63883881168852
 30
0.0
 11
284.38882070332272
 21
494.63883881168852
 31
0.0
  0
LINE
  5
11B
  8
2
 10
283.2341201658827
 20
498.6388388116884
 30
0.0
 11
283.2341201658827
 21
494.63883881168852
 31
0.0
  0
LINE
  5
11C
  8
0
 10
281.54352124076138
 20
485.8388388116885
 30
0.0
 11
289.54352124076149
 21
485.8388388116885
 31
0.0
  0
LINE
  5
11D
  8
3
 10
282.22002124076153
 20
498.11533881168839
 30
0.0
 11
282.22002124076153
 21
485.8388388116885
 31
0.0
  0
LINE
  5
11E
  8
0
 10
281.54352124076149
 20
497.43883881168841
 30
0.0
 11
289.54352124076149
 21
497.43883881168841
 31
0.0
  0
LINE
  5
11F
  8
0
 10
281.54352124076138
 20
497.43883881168841
 30
0.0
 11
281.54352124076138
 21
484.6388388116884
 31
0.0
  0
LINE
  5
120
  8
0
 10
289.54352124076149
 20
497.43883881168841
 30
0.0
 11
289.54352124076149
 21
484.6388388116884
 31
0.0
  0
LINE
  5
121
  8
0
 10
282.74352124076148
 20
498.63883881168852
 30
0.0
 11
288.3435212407615
 21
498.63883881168852
 31
0.0
  0
LINE
  5
122
  8
0
 10
282.74352124076148
 20
498.63883881168852
 30
0.0
 11
281.54352124076138
 21
497.43883881168841
 31
0.0
  0
LINE
  5
123
  8
0
 10
288.3435212407615
 20
498.63883881168852
 30
0.0
 11
289.54352124076149
 21
497.43883881168841
 31
0.0
  0
LINE
  5
124
  8
3
 10
288.86702124076152
 20
498.11533881168839
 30
0.0
 11
288.86702124076152
 21
485.8388388116885
 31
0.0
  0
ARC
  5
125
  8
0
 10
285.54352124076149
 20
471.13883881168817
 30
0.0
 40
11.0
 50
234.90319877241049
 51
305.09680122758948
  0
ARC
  5
126
  8
0
 10
285.54352124076149
 20
471.13883881168817
 30
0.0
 40
11.0
 50
155.38002267132779
 51
204.61997732867221
  0
LINE
  5
127
  8
0
 10
280.2756943643364
 20
475.63883881168829
 30
0.0
 11
290.81134811718641
 21
475.63883881168829
 31
0.0
  0
LINE
  5
128
  8
0
 10
280.2756943643364
 20
475.63883881168829
 30
0.0
 11
280.27569436433652
 21
484.6388388116884
 31
0.0
  0
LINE
  5
129
  8
0
 10
290.81134811718641
 20
475.63883881168829
 30
0.0
 11
290.81134811718641
 21
484.6388388116884
 31
0.0
  0
LINE
  5
12A
  8
0
 10
445.23847359142252
 20
475.63883881168829
 30
0.0
 11
455.7741273442723
 21
475.63883881168829
 31
0.0
  0
LINE
  5
12B
  8
0
 10
445.23847359142252
 20
475.63883881168829
 30
0.0
 11
445.23847359142252
 21
484.6388388116884
 31
0.0
  0
LINE
  5
12C
  8
0
 10
455.7741273442723
 20
475.63883881168829
 30
0.0
 11
455.7741273442723
 21
484.6388388116884
 31
0.0
  0
LINE
  5
135
  8
3
 10
280.27569436433652
 20
484.6388388116884
 30
0.0
 11
290.81134811718641
 21
475.63883881168829
 31
0.0
  0
LINE
  5
136
  8
3
 10
280.2756943643364
 20
475.63883881168829
 30
0.0
 11
290.81134811718641
 21
484.6388388116884
 31
0.0
  0
LINE
  5
137
  8
3
 10
445.23847359142252
 20
484.63883881168812
 30
0.0
 11
455.7741273442723
 21
475.63883881168817
 31
0.0
  0
LINE
  5
138
  8
3
 10
445.23847359142252
 20
475.63883881168817
 30
0.0
 11
455.7741273442723
 21
484.63883881168812
 31
0.0
  0
TEXT
  5
261
  8
0
 62
     3
 10
0.0
 20
0.0
 30
0.0
 40
10.0
  1
FR22A
  7
STANDARD1
  0
LINE
  5
412
  8
0
 10
461.5063004678471
 20
435.15347429033062
 30
0.0
 11
461.5063004678471
 21
388.84058712431118
 31
0.0
  0
ARC
  5
413
  8
0
 10
457.5063004678471
 20
388.84058712431118
 30
0.0
 40
4.0
 50
281.21227141765041
 51
0.0
  0
ARC
  5
414
  8
0
 10
450.50630046784721
 20
424.15347429033028
 30
0.0
 40
40.0
 50
258.78772858235038
 51
281.21227141764979
  0
LINE
  5
415
  8
0
 10
439.50630046784732
 20
435.15347429033051
 30
0.0
 11
461.5063004678471
 21
435.15347429033011
 31
0.0
  0
ARC
  5
416
  8
0
 10
458.58789844293659
 20
457.15347429033028
 30
0.0
 40
2.0
 50
2.38594403038854
 51
90.0
  0
LINE
  5
417
  8
0
 10
460.58616458912138
 20
457.2367353797548
 30
0.0
 11
461.5063004678471
 21
435.15347429033028
 31
0.0
  0
ARC
  5
418
  8
0
 10
443.50630046784732
 20
388.84058712431118
 30
0.0
 40
4.0
 50
180.0
 51
258.78772858235129
  0
LINE
  5
419
  8
0
 10
439.50630046784732
 20
435.15347429033091
 30
0.0
 11
439.50630046784732
 21
388.84058712431118
 31
0.0
  0
ARC
  5
41A
  8
0
 10
442.42470249275812
 20
457.15347429033028
 30
0.0
 40
2.0
 50
90.0
 51
177.6140559696114
  0
LINE
  5
41B
  8
0
 10
439.50630046784732
 20
435.15347429033028
 30
0.0
 11
440.42643634657338
 21
457.2367353797548
 31
0.0
  0
ARC
  5
41C
  8
0
 10
128.15418227000779
 20
193.2568009010615
 30
0.0
 40
4.0
 50
281.21227141765041
 51
0.0
  0
ARC
  5
41D
  8
0
 10
121.15418227000779
 20
228.56968806708079
 30
0.0
 40
40.0
 50
258.78772858235038
 51
281.21227141764979
  0
LINE
  5
41E
  8
0
 10
110.15418227000779
 20
239.56968806708079
 30
0.0
 11
132.15418227000779
 21
239.56968806708039
 31
0.0
  0
LINE
  5
41F
  8
0
 10
131.23404639128191
 20
261.65294915650509
 30
0.0
 11
132.15418227000779
 21
239.5696880670807
 31
0.0
  0
LINE
  5
420
  8
0
 10
132.15418227000779
 20
239.56968806708099
 30
0.0
 11
132.15418227000779
 21
193.2568009010615
 31
0.0
  0
ARC
  5
421
  8
0
 10
114.15418227000779
 20
193.2568009010615
 30
0.0
 40
4.0
 50
180.0
 51
258.78772858235129
  0
LINE
  5
422
  8
0
 10
110.15418227000779
 20
239.56968806708119
 30
0.0
 11
110.15418227000779
 21
193.2568009010615
 31
0.0
  0
LINE
  5
423
  8
0
 10
110.15418227000779
 20
239.5696880670807
 30
0.0
 11
111.07431814873389
 21
261.65294915650509
 31
0.0
  0
ARC
  5
424
  8
0
 10
113.0725842949186
 20
261.56968806708068
 30
0.0
 40
2.0
 50
90.0
 51
177.6140559696114
  0
ARC
  5
425
  8
0
 10
129.2357802450972
 20
261.56968806708068
 30
0.0
 40
2.0
 50
2.38594403038854
 51
90.0
  0
ARC
  5
426
  8
0
 10
292.54352124076138
 20
193.2568009010615
 30
0.0
 40
4.0
 50
281.21227141765041
 51
0.0
  0
ARC
  5
427
  8
0
 10
285.54352124076138
 20
228.56968806708079
 30
0.0
 40
40.0
 50
258.78772858235038
 51
281.21227141764979
  0
LINE
  5
428
  8
0
 10
274.54352124076138
 20
239.56968806708079
 30
0.0
 11
296.54352124076138
 21
239.56968806708039
 31
0.0
  0
LINE
  5
429
  8
0
 10
295.62338536203549
 20
261.65294915650509
 30
0.0
 11
296.54352124076138
 21
239.5696880670807
 31
0.0
  0
LINE
  5
42A
  8
0
 10
296.54352124076138
 20
239.56968806708099
 30
0.0
 11
296.54352124076138
 21
193.2568009010615
 31
0.0
  0
ARC
  5
42B
  8
0
 10
278.54352124076138
 20
193.2568009010615
 30
0.0
 40
4.0
 50
180.0
 51
258.78772858235129
  0
LINE
  5
42C
  8
0
 10
274.54352124076138
 20
239.56968806708119
 30
0.0
 11
274.54352124076138
 21
193.2568009010615
 31
0.0
  0
LINE
  5
42D
  8
0
 10
274.54352124076138
 20
239.5696880670807
 30
0.0
 11
275.46365711948749
 21
261.65294915650509
 31
0.0
  0
ARC
  5
42E
  8
0
 10
277.46192326567223
 20
261.56968806708068
 30
0.0
 40
2.0
 50
90.0
 51
177.6140559696114
  0
ARC
  5
42F
  8
0
 10
293.62511921585082
 20
261.56968806708068
 30
0.0
 40
2.0
 50
2.38594403038854
 51
90.0
  0
LINE
  5
430
  8
0
 10
628.75957811827323
 20
264.06968806708102
 30
0.0
 11
582.4466909522539
 21
264.06968806708102
 31
0.0
  0
ARC
  5
431
  8
0
 10
582.4466909522539
 20
268.06968806708102
 30
0.0
 40
4.0
 50
191.2122714176503
 51
270.0
  0
LINE
  5
432
  8
0
 10
628.75957811827323
 20
286.0696880670809
 30
0.0
 11
628.75957811827266
 21
264.06968806708102
 31
0.0
  0
ARC
  5
433
  8
0
 10
650.75957811827311
 20
266.98809009199158
 30
0.0
 40
2.0
 50
272.38594403039178
 51
0.0
  0
LINE
  5
434
  8
0
 10
650.84283920769747
 20
264.98982394580679
 30
0.0
 11
628.75957811827311
 21
264.06968806708102
 31
0.0
  0
ARC
  5
435
  8
0
 10
617.75957811827311
 20
275.06968806708102
 30
0.0
 40
40.0
 50
168.78772858235041
 51
191.2122714176497
  0
ARC
  5
436
  8
0
 10
650.75957811827311
 20
283.15128604217023
 30
0.0
 40
2.0
 50
0.0
 51
87.614055969608117
  0
LINE
  5
437
  8
0
 10
628.75957811827345
 20
286.0696880670809
 30
0.0
 11
582.4466909522539
 21
286.0696880670809
 31
0.0
  0
LINE
  5
438
  8
0
 10
628.75957811827311
 20
286.0696880670809
 30
0.0
 11
650.84283920769747
 21
285.1495521883549
 31
0.0
  0
ARC
  5
439
  8
0
 10
582.4466909522539
 20
282.0696880670809
 30
0.0
 40
4.0
 50
90.0
 51
168.78772858235109
  0
LINE
  5
43A
  8
0
 10
461.50630046784789
 20
115.00053732247279
 30
0.0
 11
461.50630046784789
 21
161.3134244884925
 31
0.0
  0
LINE
  5
43B
  8
0
 10
461.50630046784789
 20
115.00053732247309
 30
0.0
 11
439.50630046784789
 21
115.00053732247351
 31
0.0
  0
ARC
  5
43C
  8
0
 10
458.5878984429371
 20
93.000537322473264
 30
0.0
 40
2.0
 50
270.0
 51
357.61405596960822
  0
LINE
  5
43D
  8
0
 10
461.50630046784789
 20
115.00053732247331
 30
0.0
 11
460.58616458912172
 21
92.917276233048838
 31
0.0
  0
LINE
  5
43E
  8
0
 10
439.50630046784789
 20
115.00053732247299
 30
0.0
 11
439.50630046784789
 21
161.3134244884925
 31
0.0
  0
LINE
  5
43F
  8
0
 10
440.42643634657372
 20
92.917276233048838
 30
0.0
 11
439.50630046784789
 21
115.00053732247331
 31
0.0
  0
ARC
  5
440
  8
0
 10
442.4247024927584
 20
93.000537322473264
 30
0.0
 40
2.0
 50
182.38594403039181
 51
270.0
  0
ARC
  5
441
  8
0
 10
457.50630046784789
 20
161.3134244884925
 30
0.0
 40
4.0
 50
0.0
 51
78.787728582349601
  0
ARC
  5
442
  8
0
 10
450.50630046784778
 20
126.00053732247331
 30
0.0
 40
40.0
 50
78.78772858235024
 51
101.2122714176497
  0
ARC
  5
443
  8
0
 10
443.50630046784789
 20
161.3134244884925
 30
0.0
 40
4.0
 50
101.2122714176504
 51
180.0
  0
LINE
  5
470
  8
0
 10
93.654182270007709
 20
272.26968806708078
 30
0.0
 11
93.654182270007709
 21
277.86968806708069
 31
0.0
  0
LINE
  5
471
  8
2
 10
93.654182270007709
 20
275.06968806708068
 30
0.0
 11
97.654182270007723
 21
275.06968806708068
 31
0.0
  0
ENDSEC
  0
EOF
