  0
SECTION
  2
HEADER
  9
$ACADVER
  1
AC1009
  9
$INSBASE
 10
0.0
 20
0.0
 30
0.0
  9
$EXTMIN
 10
0.0
 20
-2.960436562073669
 30
0.0
  9
$EXTMAX
 10
539.66059099999995
 20
413.12377400000003
 30
0.0
  9
$LIMMIN
 10
0.0
 20
0.0
  9
$LIMMAX
 10
780.0
 20
540.0
  9
$ORTHOMODE
 70
     1
  9
$REGENMODE
 70
     1
  9
$FILLMODE
 70
     1
  9
$QTEXTMODE
 70
     0
  9
$MIRRTEXT
 70
     0
  9
$DRAGMODE
 70
     2
  9
$LTSCALE
 40
20.0
  9
$OSMODE
 70
    55
  9
$ATTMODE
 70
     1
  9
$TEXTSIZE
 40
10.0
  9
$TRACEWID
 40
0.05
  9
$TEXTSTYLE
  7
STANDARD
  9
$CLAYER
  8
0
  9
$CELTYPE
  6
BYLAYER
  9
$CECOLOR
 62
   256
  9
$DIMSCALE
 40
2.0
  9
$DIMASZ
 40
3.0
  9
$DIMEXO
 40
2.0
  9
$DIMDLI
 40
0.38
  9
$DIMRND
 40
0.0
  9
$DIMDLE
 40
0.0
  9
$DIMEXE
 40
2.0
  9
$DIMTP
 40
0.0
  9
$DIMTM
 40
0.0
  9
$DIMTXT
 40
3.0
  9
$DIMCEN
 40
0.09
  9
$DIMTSZ
 40
0.0
  9
$DIMTOL
 70
     0
  9
$DIMLIM
 70
     0
  9
$DIMTIH
 70
     0
  9
$DIMTOH
 70
     0
  9
$DIMSE1
 70
     0
  9
$DIMSE2
 70
     0
  9
$DIMTAD
 70
     1
  9
$DIMZIN
 70
     0
  9
$DIMBLK
  1

  9
$DIMASO
 70
     0
  9
$DIMSHO
 70
     0
  9
$DIMPOST
  1

  9
$DIMAPOST
  1

  9
$DIMALT
 70
     0
  9
$DIMALTD
 70
     2
  9
$DIMALTF
 40
25.399999999999999
  9
$DIMLFAC
 40
1.0
  9
$DIMTOFL
 70
     0
  9
$DIMTVP
 40
0.0
  9
$DIMTIX
 70
     0
  9
$DIMSOXD
 70
     0
  9
$DIMSAH
 70
     0
  9
$DIMBLK1
  1

  9
$DIMBLK2
  1

  9
$DIMSTYLE
  2
STANDARD
  9
$DIMCLRD
 70
     0
  9
$DIMCLRE
 70
     0
  9
$DIMCLRT
 70
     0
  9
$DIMTFAC
 40
1.0
  9
$DIMGAP
 40
0.09
  9
$LUNITS
 70
     2
  9
$LUPREC
 70
     4
  9
$SKETCHINC
 40
0.2
  9
$FILLETRAD
 40
20.0
  9
$AUNITS
 70
     0
  9
$AUPREC
 70
     0
  9
$MENU
  1
E:\r13\win\SUPPORT\ACAD
  9
$ELEVATION
 40
0.0
  9
$PELEVATION
 40
0.0
  9
$THICKNESS
 40
0.0
  9
$LIMCHECK
 70
     0
  9
$BLIPMODE
 70
     0
  9
$CHAMFERA
 40
0.0
  9
$CHAMFERB
 40
0.0
  9
$SKPOLY
 70
     0
  9
$TDCREATE
 40
2449840.6558680562
  9
$TDUPDATE
 40
2456598.6673759841
  9
$TDINDWG
 40
0.0001255324
  9
$TDUSRTIMER
 40
0.0001255324
  9
$USRTIMER
 70
     1
  9
$ANGBASE
 50
0.0
  9
$ANGDIR
 70
     0
  9
$PDMODE
 70
     0
  9
$PDSIZE
 40
0.0
  9
$PLINEWID
 40
0.0
  9
$COORDS
 70
     1
  9
$SPLFRAME
 70
     0
  9
$SPLINETYPE
 70
     6
  9
$SPLINESEGS
 70
     8
  9
$ATTDIA
 70
     0
  9
$ATTREQ
 70
     1
  9
$HANDLING
 70
     1
  9
$HANDSEED
  5
264
  9
$SURFTAB1
 70
     6
  9
$SURFTAB2
 70
     6
  9
$SURFTYPE
 70
     6
  9
$SURFU
 70
     6
  9
$SURFV
 70
     6
  9
$UCSNAME
  2

  9
$UCSORG
 10
0.0
 20
0.0
 30
0.0
  9
$UCSXDIR
 10
1.0
 20
0.0
 30
0.0
  9
$UCSYDIR
 10
0.0
 20
1.0
 30
0.0
  9
$PUCSNAME
  2

  9
$PUCSORG
 10
0.0
 20
0.0
 30
0.0
  9
$PUCSXDIR
 10
1.0
 20
0.0
 30
0.0
  9
$PUCSYDIR
 10
0.0
 20
1.0
 30
0.0
  9
$USERI1
 70
     3
  9
$USERI2
 70
     1
  9
$USERI3
 70
     0
  9
$USERI4
 70
     0
  9
$USERI5
 70
     0
  9
$USERR1
 40
2.0
  9
$USERR2
 40
3.0
  9
$USERR3
 40
3.0
  9
$USERR4
 40
3.0
  9
$USERR5
 40
10.0
  9
$WORLDVIEW
 70
     1
  9
$SHADEDGE
 70
     3
  9
$SHADEDIF
 70
    70
  9
$TILEMODE
 70
     1
  9
$MAXACTVP
 70
    16
  9
$PLIMCHECK
 70
     0
  9
$PEXTMIN
 10
1.0000000000000000E+020
 20
1.0000000000000000E+020
 30
1.0000000000000000E+020
  9
$PEXTMAX
 10
-1.0000000000000000E+020
 20
-1.0000000000000000E+020
 30
-1.0000000000000000E+020
  9
$PLIMMIN
 10
0.0
 20
0.0
  9
$PLIMMAX
 10
12.0
 20
9.0
  9
$UNITMODE
 70
     0
  9
$VISRETAIN
 70
     0
  9
$PLINEGEN
 70
     0
  9
$PSLTSCALE
 70
     0
  0
ENDSEC
  0
SECTION
  2
TABLES
  0
TABLE
  2
VPORT
 70
     1
  0
VPORT
  2
*ACTIVE
 70
     0
 10
0.0
 20
0.0
 11
1.0
 21
1.0
 12
389.98809905255689
 22
350.86677766270412
 13
0.0
 23
0.0
 14
20.0
 24
20.0
 15
20.0
 25
20.0
 16
0.0
 26
0.0
 36
1.0
 17
0.0
 27
0.0
 37
0.0
 40
713.9403104474975
 41
1.7807262569832401
 42
50.0
 43
0.0
 44
0.0
 50
0.0
 51
0.0
 71
     0
 72
   100
 73
     1
 74
     0
 75
     0
 76
     0
 77
     0
 78
     0
  0
ENDTAB
  0
TABLE
  2
LTYPE
 70
     3
  0
LTYPE
  2
CONTINUOUS
 70
     0
  3
Solid Line
 72
    65
 73
     0
 40
0.0
  0
LTYPE
  2
CENTER
 70
     0
  3
____ _ ____ _ ____ _ ____ _ ____ _ ____ _ ____
 72
    65
 73
     4
 40
2.0
 49
1.25
 49
-0.25
 49
0.25
 49
-0.25
  0
LTYPE
  2
PHANTOM2
 70
     0
  3
___ _ _ ___ _ _ ___ _ _ ___ _ _
 72
    65
 73
     6
 40
1.25
 49
0.625
 49
-0.125
 49
0.125
 49
-0.125
 49
0.125
 49
-0.125
  0
ENDTAB
  0
TABLE
  2
LAYER
 70
     3
  0
LAYER
  2
0
 70
     0
 62
     7
  6
CONTINUOUS
  0
LAYER
  2
1
 70
     0
 62
     1
  6
CENTER
  0
LAYER
  2
3
 70
     0
 62
     3
  6
CONTINUOUS
  0
ENDTAB
  0
TABLE
  2
STYLE
 70
     2
  0
STYLE
  2
STANDARD
 70
     0
 40
0.0
 41
1.0
 50
0.0
 71
     0
 42
10.0
  3
TXT
  4
BIGFONT
  0
STYLE
  2
STANDARD1
 70
     0
 40
0.0
 41
1.0
 50
0.0
 71
     0
 42
3.0
  3
txt
  4

  0
ENDTAB
  0
TABLE
  2
VIEW
 70
     1
  0
VIEW
  2
ALL
 70
     0
 40
540.0
 10
441.98319299999991
 20
270.0
 41
0.0
 11
0.0
 21
0.0
 31
1.0
 12
0.0
 22
0.0
 32
0.0
 42
0.0
 43
0.0
 44
0.0
 50
0.0
 71
     0
  0
ENDTAB
  0
TABLE
  2
UCS
 70
     0
  0
ENDTAB
  0
TABLE
  2
APPID
 70
     3
  0
APPID
  2
ACAD
 70
     0
  0
APPID
  2
ACAD_MLEADERVER
 70
     0
  0
APPID
  2
ACAD_NAV_VCDISPLAY
 70
     0
  0
ENDTAB
  0
TABLE
  2
DIMSTYLE
 70
     1
  0
DIMSTYLE
  2
STANDARD
 70
     0
  3

  4

  5

  6

  7

 40
1.0
 41
0.18
 42
0.0625
 43
0.38
 44
0.18
 45
0.0
 46
0.0
 47
0.0
 48
0.0
140
0.18
141
0.09
142
0.0
143
25.399999999999999
144
1.0
145
0.0
146
1.0
147
0.09
 71
     0
 72
     0
 73
     1
 74
     1
 75
     0
 76
     0
 77
     0
 78
     0
170
     0
171
     2
172
     0
173
     0
174
     0
175
     0
176
     0
177
     0
178
     0
  0
ENDTAB
  0
ENDSEC
  0
SECTION
  2
BLOCKS
  0
BLOCK
  8
0
  2
$MODEL_SPACE
 70
     0
 10
0.0
 20
0.0
 30
0.0
  3
$MODEL_SPACE
  1

  0
ENDBLK
  5
118
  8
0
  0
BLOCK
 67
     1
  8
0
  2
$PAPER_SPACE
 70
     0
 10
0.0
 20
0.0
 30
0.0
  3
$PAPER_SPACE
  1

  0
ENDBLK
  5
116
 67
     1
  8
0
  0
BLOCK
  8
0
  2
STDGX5
 70
     0
 10
0.0
 20
0.0
 30
0.0
  3
STDGX5
  1

  0
ENDBLK
  5
49
  8
0
  0
ENDSEC
  0
SECTION
  2
ENTITIES
  0
INSERT
  5
71
  8
0
  2
STDGX5
 10
0.0
 20
0.0
 30
0.0
  0
LINE
  5
72
  8
0
 10
416.321347
 20
399.023774
 30
0.0
 11
416.321347
 21
387.22377399999999
 31
0.0
  0
LINE
  5
73
  8
0
 10
393.321347
 20
399.023774
 30
0.0
 11
393.321347
 21
387.22377399999999
 31
0.0
  0
LINE
  5
74
  8
0
 10
416.321347
 20
387.22377399999999
 30
0.0
 11
425.82135299999999
 21
387.22377399999999
 31
0.0
  0
LINE
  5
75
  8
0
 10
425.82135299999999
 20
381.12377400000003
 30
0.0
 11
425.82135299999999
 21
405.12377400000003
 31
0.0
  0
LINE
  5
76
  8
0
 10
425.82135299999999
 20
405.12377400000003
 30
0.0
 11
267.18679300000002
 21
405.12377400000003
 31
0.0
  0
LINE
  5
77
  8
0
 10
267.18679300000002
 20
405.12377400000003
 30
0.0
 11
267.18679300000002
 21
397.023774
 31
0.0
  0
LINE
  5
78
  8
0
 10
267.18679300000002
 20
381.12377400000003
 30
0.0
 11
425.82135299999999
 21
381.12377400000003
 31
0.0
  0
LINE
  5
79
  8
0
 10
342.5453720000001
 20
405.12377400000003
 30
0.0
 11
342.5453720000001
 21
399.023774
 31
0.0
  0
LINE
  5
7A
  8
0
 10
342.5453720000001
 20
381.12377400000003
 30
0.0
 11
342.5453720000001
 21
387.22377399999999
 31
0.0
  0
LINE
  5
7B
  8
0
 10
425.82135299999999
 20
399.023774
 30
0.0
 11
416.321347
 21
399.023774
 31
0.0
  0
LINE
  5
7C
  8
0
 10
342.5453720000001
 20
399.023774
 30
0.0
 11
393.321347
 21
399.023774
 31
0.0
  0
LINE
  5
7D
  8
0
 10
393.321347
 20
387.22377399999999
 30
0.0
 11
342.5453720000001
 21
387.22377399999999
 31
0.0
  0
LINE
  5
7E
  8
0
 10
346.88679300000001
 20
388.97377400000011
 30
0.0
 11
346.88679300000001
 21
397.273774
 31
0.0
  0
ARC
  5
7F
  8
0
 10
345.13679300000001
 20
397.273774
 30
0.0
 40
1.75
 50
0.0
 51
90.0
  0
ARC
  5
80
  8
0
 10
345.13679300000001
 20
388.97377400000011
 30
0.0
 40
1.75
 50
270.0
 51
0.0
  0
LINE
  5
81
  8
0
 10
267.18679300000002
 20
397.023774
 30
0.0
 11
264.93679300000002
 21
397.023774
 31
0.0
  0
LINE
  5
82
  8
0
 10
263.18679300000002
 20
395.273774
 30
0.0
 11
263.18679300000002
 21
390.97377399999999
 31
0.0
  0
LINE
  5
83
  8
0
 10
264.93679300000002
 20
389.22377399999999
 30
0.0
 11
267.18679300000002
 21
389.22377399999999
 31
0.0
  0
ARC
  5
84
  8
0
 10
264.93679300000002
 20
395.273774
 30
0.0
 40
1.75
 50
90.0
 51
180.0
  0
ARC
  5
85
  8
0
 10
264.93679300000002
 20
390.97377399999999
 30
0.0
 40
1.75
 50
180.0
 51
270.0
  0
LINE
  5
86
  8
0
 10
267.18679300000002
 20
389.22377399999999
 30
0.0
 11
267.18679300000002
 21
381.12377400000003
 31
0.0
  0
LINE
  5
87
  8
1
 10
361.60533599999991
 20
413.12377400000003
 30
0.0
 11
361.60533599999991
 21
373.12377400000003
 31
0.0
  0
LINE
  5
88
  8
1
 10
312.10786100000001
 20
413.12377400000003
 30
0.0
 11
312.10786100000001
 21
373.12377400000003
 31
0.0
  0
LINE
  5
89
  8
1
 10
244.38679300000001
 20
393.12012299999998
 30
0.0
 11
440.82135299999999
 21
393.12012299999998
 31
0.0
  0
LINE
  5
8A
  8
0
 10
505.658298
 20
322.02352500000001
 30
0.0
 11
505.658298
 21
163.38896500000001
 31
0.0
  0
LINE
  5
8B
  8
0
 10
513.76559999999995
 20
322.02352500000001
 30
0.0
 11
505.658298
 21
322.02352500000001
 31
0.0
  0
ARC
  5
8C
  8
0
 10
515.51559999999995
 20
324.27352500000001
 30
0.0
 40
1.75
 50
90.0
 51
180.0
  0
ARC
  5
8D
  8
0
 10
519.8155999999999
 20
324.27352500000001
 30
0.0
 40
1.75
 50
0.0
 51
90.0
  0
LINE
  5
8E
  8
0
 10
513.76559999999995
 20
324.27352500000001
 30
0.0
 11
513.76559999999995
 21
322.02352500000001
 31
0.0
  0
LINE
  5
8F
  8
0
 10
519.8155999999999
 20
326.02352500000001
 30
0.0
 11
515.51559999999995
 21
326.02352500000001
 31
0.0
  0
LINE
  5
90
  8
0
 10
521.56560000000002
 20
322.02352500000001
 30
0.0
 11
521.56560000000002
 21
324.27352500000001
 31
0.0
  0
LINE
  5
91
  8
0
 10
529.65829800000006
 20
322.02352500000001
 30
0.0
 11
521.56560000000002
 21
322.02352500000001
 31
0.0
  0
LINE
  5
92
  8
0
 10
505.658298
 20
163.38896500000001
 30
0.0
 11
529.65829800000006
 21
163.38896500000001
 31
0.0
  0
LINE
  5
93
  8
0
 10
529.65829800000006
 20
163.38896500000001
 30
0.0
 11
529.65829800000006
 21
322.02352500000001
 31
0.0
  0
LINE
  5
94
  8
1
 10
497.658298
 20
227.604983
 30
0.0
 11
539.65829799999995
 21
227.604983
 31
0.0
  0
LINE
  5
95
  8
1
 10
497.6605909999999
 20
277.10245700000002
 30
0.0
 11
539.66059099999995
 21
277.10245700000002
 31
0.0
  0
LINE
  5
96
  8
1
 10
353.82716099999999
 20
269.32428299999998
 30
0.0
 11
369.38351
 21
284.88063199999999
 31
0.0
  0
LINE
  5
97
  8
1
 10
302.56191899999999
 20
218.05904100000001
 30
0.0
 11
321.65380199999998
 21
237.150924
 31
0.0
  0
LINE
  5
98
  8
0
 10
263.18679300000002
 20
163.38896500000001
 30
0.0
 11
263.18679300000002
 21
180.38896500000001
 31
0.0
  0
LINE
  5
99
  8
0
 10
425.82135299999999
 20
326.02352500000001
 30
0.0
 11
408.82135299999987
 21
326.02352500000001
 31
0.0
  0
LINE
  5
9A
  8
0
 10
425.82135299999999
 20
322.02352500000001
 30
0.0
 11
342.88679300000001
 21
322.02352500000001
 31
0.0
  0
LINE
  5
9B
  8
0
 10
267.18679300000002
 20
163.38896500000001
 30
0.0
 11
267.18679300000002
 21
246.32352499999999
 31
0.0
  0
LINE
  5
9C
  8
0
 10
263.18679300000002
 20
180.38896500000001
 30
0.0
 11
267.18679300000002
 21
180.38896500000001
 31
0.0
  0
LINE
  5
9D
  8
0
 10
408.82135299999987
 20
326.02352500000001
 30
0.0
 11
408.82135299999987
 21
322.02352500000001
 31
0.0
  0
LINE
  5
9E
  8
0
 10
263.18679300000002
 20
196.38896500000001
 30
0.0
 11
267.18679300000002
 21
196.38896500000001
 31
0.0
  0
LINE
  5
9F
  8
0
 10
392.82135299999999
 20
326.02352500000001
 30
0.0
 11
392.82135299999999
 21
322.02352500000001
 31
0.0
  0
LINE
  5
A0
  8
0
 10
263.18679300000002
 20
196.38896500000001
 30
0.0
 11
263.18679300000002
 21
242.32352499999999
 31
0.0
  0
LINE
  5
A1
  8
0
 10
392.82135299999999
 20
326.02352500000001
 30
0.0
 11
346.88679300000001
 21
326.02352500000001
 31
0.0
  0
CIRCLE
  5
A2
  8
0
 10
312.10786100000001
 20
227.604983
 30
0.0
 40
8.5
  0
CIRCLE
  5
A3
  8
3
 10
361.60533599999991
 20
277.10245700000002
 30
0.0
 40
6.0
  0
LINE
  5
A4
  8
0
 10
263.18679300000002
 20
163.38896500000001
 30
0.0
 11
297.389318
 21
163.38896500000001
 31
0.0
  0
LINE
  5
A5
  8
0
 10
425.82135299999999
 20
326.02352500000001
 30
0.0
 11
425.82135299999999
 21
291.82100000000003
 31
0.0
  0
CIRCLE
  5
A6
  8
0
 10
361.60533599999991
 20
277.10245700000002
 30
0.0
 40
5.052999999999999
  0
LINE
  5
A7
  8
1
 10
302.56191899999999
 20
237.150924
 30
0.0
 11
321.65380199999998
 21
218.05904100000001
 31
0.0
  0
LINE
  5
A8
  8
1
 10
353.82716099999999
 20
284.88063199999999
 30
0.0
 11
369.38351
 21
269.32428299999998
 31
0.0
  0
LINE
  5
A9
  8
1
 10
517.65829799999995
 20
307.71340099999998
 30
0.0
 11
517.65829799999995
 21
289.71340099999998
 31
0.0
  0
LINE
  5
AA
  8
1
 10
249.38679300000001
 20
393.12012299999998
 30
0.0
 11
267.38679300000001
 21
393.12012299999998
 31
0.0
  0
LINE
  5
AB
  8
0
 10
346.88679300000001
 20
326.02352500000001
 30
0.0
 11
263.18679300000002
 21
242.32352499999999
 31
0.0
  0
LINE
  5
AC
  8
0
 10
425.82135299999999
 20
291.82100000000003
 30
0.0
 11
297.389318
 21
163.38896500000001
 31
0.0
  0
LINE
  5
AD
  8
0
 10
505.658298
 20
291.82100000000003
 30
0.0
 11
529.65829800000006
 21
291.82100000000003
 31
0.0
  0
LINE
  5
AE
  8
0
 10
512.15829799999995
 20
288.63901900000002
 30
0.0
 11
523.15829799999995
 21
288.63901900000002
 31
0.0
  0
LINE
  5
AF
  8
0
 10
514.38852099999986
 20
254.47504000000001
 30
0.0
 11
520.92807500000004
 21
254.47504000000001
 31
0.0
  0
LINE
  5
B0
  8
0
 10
514.45546899999988
 20
250.93950599999999
 30
0.0
 11
520.86112700000001
 21
250.93950599999999
 31
0.0
  0
LINE
  5
B1
  8
0
 10
514.45546899999988
 20
204.27045899999999
 30
0.0
 11
520.86112700000001
 21
204.27045899999999
 31
0.0
  0
LINE
  5
B2
  8
0
 10
514.38852099999986
 20
200.734925
 30
0.0
 11
520.92807500000004
 21
200.734925
 31
0.0
  0
LINE
  5
B3
  8
0
 10
512.15829799999995
 20
166.57094599999999
 30
0.0
 11
523.15829799999995
 21
166.57094599999999
 31
0.0
  0
LINE
  5
B4
  8
0
 10
525.15829800000006
 20
168.57094599999999
 30
0.0
 11
525.15829800000006
 21
182.095069
 31
0.0
  0
LINE
  5
B5
  8
0
 10
510.158298
 20
286.63901900000002
 30
0.0
 11
510.158298
 21
273.11489599999999
 31
0.0
  0
LINE
  5
B6
  8
0
 10
524.95016799999985
 20
184.97289599999999
 30
0.0
 11
522.90726200000006
 21
199.02270799999999
 31
0.0
  0
LINE
  5
B7
  8
0
 10
512.40933399999994
 20
199.02270799999999
 30
0.0
 11
510.36642799999998
 21
184.97289599999999
 31
0.0
  0
LINE
  5
B8
  8
0
 10
522.84974699999987
 20
249.15256199999999
 30
0.0
 11
524.93003600000009
 21
229.73553799999999
 31
0.0
  0
LINE
  5
B9
  8
0
 10
524.93003600000009
 20
225.47442799999999
 30
0.0
 11
522.84974699999987
 21
206.05740299999999
 31
0.0
  0
LINE
  5
BA
  8
0
 10
512.46685000000002
 20
249.15256199999999
 30
0.0
 11
510.38655999999992
 21
229.73553799999999
 31
0.0
  0
LINE
  5
BB
  8
0
 10
510.38655999999992
 20
225.47442799999999
 30
0.0
 11
512.46685000000002
 21
206.05740299999999
 31
0.0
  0
LINE
  5
BC
  8
0
 10
522.90726200000006
 20
256.18725799999999
 30
0.0
 11
524.95016799999985
 21
270.23706900000002
 31
0.0
  0
LINE
  5
BD
  8
0
 10
510.36642799999998
 20
270.23706900000002
 30
0.0
 11
512.40933399999994
 21
256.18725799999999
 31
0.0
  0
LINE
  5
BE
  8
0
 10
525.15829800000006
 20
273.11489599999999
 30
0.0
 11
525.15829800000006
 21
286.63901900000002
 31
0.0
  0
LINE
  5
BF
  8
0
 10
510.158298
 20
182.095069
 30
0.0
 11
510.158298
 21
168.57094599999999
 31
0.0
  0
ARC
  5
C0
  8
0
 10
523.15829799999995
 20
286.63901900000002
 30
0.0
 40
2.0
 50
0.0
 51
90.0
  0
ARC
  5
C1
  8
0
 10
512.15829799999995
 20
286.63901900000002
 30
0.0
 40
2.0
 50
90.0
 51
180.0
  0
ARC
  5
C2
  8
0
 10
520.92807500000004
 20
256.47503999999998
 30
0.0
 40
2.0
 50
270.0
 51
351.72691500000002
  0
ARC
  5
C3
  8
0
 10
514.38852099999986
 20
256.47503999999998
 30
0.0
 40
2.0
 50
188.27308500000001
 51
270.0
  0
ARC
  5
C4
  8
0
 10
520.86112700000001
 20
248.93950599999999
 30
0.0
 40
2.0
 50
6.1151939999999989
 51
90.0
  0
ARC
  5
C5
  8
0
 10
514.45546899999988
 20
248.93950599999999
 30
0.0
 40
2.0
 50
90.0
 51
173.884806
  0
ARC
  5
C6
  8
0
 10
520.86112700000001
 20
206.27045899999999
 30
0.0
 40
2.0
 50
270.0
 51
353.88480600000003
  0
ARC
  5
C7
  8
0
 10
514.45546899999988
 20
206.27045899999999
 30
0.0
 40
2.0
 50
186.115194
 51
270.0
  0
ARC
  5
C8
  8
0
 10
520.92807500000004
 20
198.734925
 30
0.0
 40
2.0
 50
8.273085
 51
90.0
  0
ARC
  5
C9
  8
0
 10
514.38852099999986
 20
198.734925
 30
0.0
 40
2.0
 50
90.0
 51
171.72691499999999
  0
ARC
  5
CA
  8
0
 10
523.15829799999995
 20
168.57094599999999
 30
0.0
 40
2.0
 50
270.0
 51
0.0
  0
ARC
  5
CB
  8
0
 10
512.15829799999995
 20
168.57094599999999
 30
0.0
 40
2.0
 50
180.0
 51
270.0
  0
ARC
  5
CC
  8
0
 10
505.04384199999993
 20
227.604983
 30
0.0
 40
20.0
 50
353.88480600000003
 51
6.1151939999999989
  0
ARC
  5
CD
  8
0
 10
530.27275499999985
 20
227.604983
 30
0.0
 40
20.0
 50
173.884806
 51
186.115194
  0
ARC
  5
CE
  8
0
 10
505.158298
 20
273.11489599999999
 30
0.0
 40
20.0
 50
351.72691500000002
 51
0.0
  0
ARC
  5
CF
  8
0
 10
530.15829799999995
 20
273.11489599999999
 30
0.0
 40
20.0
 50
180.0
 51
188.27308500000001
  0
ARC
  5
D0
  8
0
 10
505.158298
 20
182.095069
 30
0.0
 40
20.0
 50
360.0
 51
8.273085
  0
ARC
  5
D1
  8
0
 10
530.15829799999995
 20
182.095069
 30
0.0
 40
20.0
 50
171.72691499999999
 51
180.0
  0
LINE
  5
D2
  8
1
 10
517.65829799999995
 20
344.82352200000003
 30
0.0
 11
517.65829799999995
 21
148.38896500000001
 31
0.0
  0
TEXT
  5
1D3
  8
0
 62
     3
 10
0.0
 20
0.0
 30
0.0
 40
10.0
  1
FPT230-01
  7
STANDARD1
  0
ENDSEC
  0
EOF
