  0
SECTION
  2
HEADER
  9
$ACADVER
  1
AC1009
  9
$INSBASE
 10
0.0
 20
0.0
 30
0.0
  9
$EXTMIN
 10
0.0
 20
-2.960436562073669
 30
0.0
  9
$EXTMAX
 10
217.4210049060793
 20
189.1240728318478
 30
0.0
  9
$LIMMIN
 10
0.0
 20
0.0
  9
$LIMMAX
 10
375.0
 20
270.0
  9
$ORTHOMODE
 70
     1
  9
$REGENMODE
 70
     1
  9
$FILLMODE
 70
     1
  9
$QTEXTMODE
 70
     0
  9
$MIRRTEXT
 70
     0
  9
$DRAGMODE
 70
     2
  9
$LTSCALE
 40
10.0
  9
$OSMODE
 70
    55
  9
$ATTMODE
 70
     1
  9
$TEXTSIZE
 40
0.2
  9
$TRACEWID
 40
0.05
  9
$TEXTSTYLE
  7
STANDARD
  9
$CLAYER
  8
0
  9
$CELTYPE
  6
BYLAYER
  9
$CECOLOR
 62
   256
  9
$DIMSCALE
 40
1.0
  9
$DIMASZ
 40
3.0
  9
$DIMEXO
 40
2.0
  9
$DIMDLI
 40
0.38
  9
$DIMRND
 40
0.0
  9
$DIMDLE
 40
0.0
  9
$DIMEXE
 40
2.0
  9
$DIMTP
 40
0.0
  9
$DIMTM
 40
0.0
  9
$DIMTXT
 40
3.2000000000000002
  9
$DIMCEN
 40
0.09
  9
$DIMTSZ
 40
0.0
  9
$DIMTOL
 70
     0
  9
$DIMLIM
 70
     0
  9
$DIMTIH
 70
     0
  9
$DIMTOH
 70
     0
  9
$DIMSE1
 70
     0
  9
$DIMSE2
 70
     0
  9
$DIMTAD
 70
     1
  9
$DIMZIN
 70
     0
  9
$DIMBLK
  1

  9
$DIMASO
 70
     1
  9
$DIMSHO
 70
     0
  9
$DIMPOST
  1

  9
$DIMAPOST
  1

  9
$DIMALT
 70
     0
  9
$DIMALTD
 70
     2
  9
$DIMALTF
 40
25.399999999999999
  9
$DIMLFAC
 40
1.0
  9
$DIMTOFL
 70
     0
  9
$DIMTVP
 40
1.6000000000000001
  9
$DIMTIX
 70
     1
  9
$DIMSOXD
 70
     0
  9
$DIMSAH
 70
     0
  9
$DIMBLK1
  1

  9
$DIMBLK2
  1

  9
$DIMSTYLE
  2
STANDARD
  9
$DIMCLRD
 70
     0
  9
$DIMCLRE
 70
     0
  9
$DIMCLRT
 70
     0
  9
$DIMTFAC
 40
1.0
  9
$DIMGAP
 40
0.09
  9
$LUNITS
 70
     2
  9
$LUPREC
 70
     4
  9
$SKETCHINC
 40
0.1
  9
$FILLETRAD
 40
2.0
  9
$AUNITS
 70
     0
  9
$AUPREC
 70
     0
  9
$MENU
  1
E:\r13\win\SUPPORT\ACAD
  9
$ELEVATION
 40
0.0
  9
$PELEVATION
 40
0.0
  9
$THICKNESS
 40
0.0
  9
$LIMCHECK
 70
     0
  9
$BLIPMODE
 70
     0
  9
$CHAMFERA
 40
0.0
  9
$CHAMFERB
 40
0.0
  9
$SKPOLY
 70
     0
  9
$TDCREATE
 40
2447977.5416277782
  9
$TDUPDATE
 40
2456598.6673358451
  9
$TDINDWG
 40
0.4115907176
  9
$TDUSRTIMER
 40
0.4115907176
  9
$USRTIMER
 70
     1
  9
$ANGBASE
 50
0.0
  9
$ANGDIR
 70
     0
  9
$PDMODE
 70
     0
  9
$PDSIZE
 40
0.0
  9
$PLINEWID
 40
0.0
  9
$COORDS
 70
     1
  9
$SPLFRAME
 70
     0
  9
$SPLINETYPE
 70
     6
  9
$SPLINESEGS
 70
     8
  9
$ATTDIA
 70
     0
  9
$ATTREQ
 70
     1
  9
$HANDLING
 70
     1
  9
$HANDSEED
  5
223A
  9
$SURFTAB1
 70
     6
  9
$SURFTAB2
 70
     6
  9
$SURFTYPE
 70
     6
  9
$SURFU
 70
     6
  9
$SURFV
 70
     6
  9
$UCSNAME
  2

  9
$UCSORG
 10
0.0
 20
0.0
 30
0.0
  9
$UCSXDIR
 10
1.0
 20
0.0
 30
0.0
  9
$UCSYDIR
 10
0.0
 20
1.0
 30
0.0
  9
$PUCSNAME
  2

  9
$PUCSORG
 10
0.0
 20
0.0
 30
0.0
  9
$PUCSXDIR
 10
1.0
 20
0.0
 30
0.0
  9
$PUCSYDIR
 10
0.0
 20
1.0
 30
0.0
  9
$USERI1
 70
     0
  9
$USERI2
 70
     1
  9
$USERI3
 70
     1
  9
$USERI4
 70
     0
  9
$USERI5
 70
     0
  9
$USERR1
 40
0.0
  9
$USERR2
 40
0.0
  9
$USERR3
 40
0.0
  9
$USERR4
 40
0.0
  9
$USERR5
 40
0.0
  9
$WORLDVIEW
 70
     1
  9
$SHADEDGE
 70
     3
  9
$SHADEDIF
 70
    70
  9
$TILEMODE
 70
     1
  9
$MAXACTVP
 70
    16
  9
$PLIMCHECK
 70
     0
  9
$PEXTMIN
 10
1.0000000000000000E+020
 20
1.0000000000000000E+020
 30
1.0000000000000000E+020
  9
$PEXTMAX
 10
-1.0000000000000000E+020
 20
-1.0000000000000000E+020
 30
-1.0000000000000000E+020
  9
$PLIMMIN
 10
0.0
 20
0.0
  9
$PLIMMAX
 10
12.0
 20
9.0
  9
$UNITMODE
 70
     0
  9
$VISRETAIN
 70
     0
  9
$PLINEGEN
 70
     1
  9
$PSLTSCALE
 70
     0
  0
ENDSEC
  0
SECTION
  2
TABLES
  0
TABLE
  2
VPORT
 70
     1
  0
VPORT
  2
*ACTIVE
 70
     0
 10
0.0
 20
0.0
 11
1.0
 21
1.0
 12
187.49427839065231
 22
174.91677254346851
 13
0.0
 23
0.0
 14
10.0
 24
10.0
 15
10.0
 25
10.0
 16
0.0
 26
0.0
 36
1.0
 17
0.0
 27
0.0
 37
0.0
 40
358.92027899574339
 41
1.7807262569832401
 42
50.0
 43
0.0
 44
0.0
 50
0.0
 51
0.0
 71
     0
 72
   500
 73
     1
 74
     0
 75
     0
 76
     0
 77
     0
 78
     2
  0
ENDTAB
  0
TABLE
  2
LTYPE
 70
     4
  0
LTYPE
  2
CONTINUOUS
 70
     0
  3
Solid Line
 72
    65
 73
     0
 40
0.0
  0
LTYPE
  2
CENTER
 70
     0
  3
____ _ ____ _ ____ _ ____ _ ____ _ ____ _ ____
 72
    65
 73
     4
 40
2.0
 49
1.25
 49
-0.25
 49
0.25
 49
-0.25
  0
LTYPE
  2
PHANTOM2
 70
     0
  3
___ _ _ ___ _ _ ___ _ _ ___ _ _
 72
    65
 73
     6
 40
1.25
 49
0.625
 49
-0.125
 49
0.125
 49
-0.125
 49
0.125
 49
-0.125
  0
LTYPE
  2
HIDDEN
 70
     0
  3
_ _ _ _ _ _ _ _ _ _ _ _ _ _ _ _ _ _ _ _ _ _ _
 72
    65
 73
     2
 40
0.375
 49
0.25
 49
-0.125
  0
ENDTAB
  0
TABLE
  2
LAYER
 70
     4
  0
LAYER
  2
0
 70
     0
 62
     7
  6
CONTINUOUS
  0
LAYER
  2
1
 70
     0
 62
     1
  6
CENTER
  0
LAYER
  2
DEFPOINTS
 70
     0
 62
     7
  6
CONTINUOUS
  0
LAYER
  2
2
 70
     0
 62
     2
  6
HIDDEN
  0
ENDTAB
  0
TABLE
  2
STYLE
 70
     2
  0
STYLE
  2
STANDARD
 70
     0
 40
0.0
 41
1.0
 50
0.0
 71
     0
 42
0.2
  3
TXT
  4
BIGFONT
  0
STYLE
  2
STANDARD1
 70
     0
 40
0.0
 41
1.0
 50
0.0
 71
     0
 42
3.0
  3
txt
  4

  0
ENDTAB
  0
TABLE
  2
VIEW
 70
     1
  0
VIEW
  2
ALL
 70
     0
 40
270.0
 10
220.99159663865549
 20
135.0
 41
0.0
 11
0.0
 21
0.0
 31
1.0
 12
0.0
 22
0.0
 32
0.0
 42
0.0
 43
0.0
 44
0.0
 50
0.0
 71
     0
  0
ENDTAB
  0
TABLE
  2
UCS
 70
     0
  0
ENDTAB
  0
TABLE
  2
APPID
 70
     6
  0
APPID
  2
ACAD
 70
     0
  0
APPID
  2
GENIUS_GENODEF_13
 70
     0
  0
APPID
  2
GENIUS_GENOBJ-N-FIL_13
 70
     0
  0
APPID
  2
ACAD_NAV_VCDISPLAY
 70
     0
  0
APPID
  2
ACAD_EXEMPT_FROM_CAD_STANDARDS
 70
     0
  0
APPID
  2
ACAD_MLEADERVER
 70
     0
  0
ENDTAB
  0
TABLE
  2
DIMSTYLE
 70
     1
  0
DIMSTYLE
  2
STANDARD
 70
     0
  3

  4

  5

  6

  7

 40
1.0
 41
0.18
 42
0.0625
 43
0.38
 44
0.18
 45
0.0
 46
0.0
 47
0.0
 48
0.0
140
0.18
141
0.09
142
0.0
143
25.399999999999999
144
1.0
145
0.0
146
1.0
147
0.09
 71
     0
 72
     0
 73
     1
 74
     1
 75
     0
 76
     0
 77
     0
 78
     0
170
     0
171
     2
172
     0
173
     0
174
     0
175
     0
176
     0
177
     0
178
     0
  0
ENDTAB
  0
ENDSEC
  0
SECTION
  2
BLOCKS
  0
BLOCK
  8
0
  2
$MODEL_SPACE
 70
     0
 10
0.0
 20
0.0
 30
0.0
  3
$MODEL_SPACE
  1

  0
ENDBLK
  5
19F
  8
0
  0
BLOCK
 67
     1
  8
0
  2
$PAPER_SPACE
 70
     0
 10
0.0
 20
0.0
 30
0.0
  3
$PAPER_SPACE
  1

  0
ENDBLK
  5
19D
 67
     1
  8
0
  0
ENDSEC
  0
SECTION
  2
ENTITIES
  0
LINE
  5
16B3
  8
0
 10
69.6432398276622
 20
169.12407219016009
 30
0.0
 11
69.704664299292943
 21
174.5197439756885
 31
0.0
  0
LINE
  5
16B4
  8
0
 10
69.704664299292943
 20
174.5197439756885
 30
0.0
 11
79.239238934752137
 21
174.51974397568841
 31
0.0
  0
LINE
  5
16B8
  8
0
 10
120.20683638186399
 20
174.51974397568841
 30
0.0
 11
129.74141101732329
 21
174.5197439756885
 31
0.0
  0
LINE
  5
16B9
  8
0
 10
129.74141101732329
 20
174.5197439756885
 30
0.0
 11
129.802835488954
 21
169.12407219016009
 31
0.0
  0
LINE
  5
16BA
  8
0
 10
120.1454398916478
 20
169.12407219016009
 30
0.0
 11
120.20683638186409
 21
174.5197439756885
 31
0.0
  0
LINE
  5
16BC
  8
0
 10
104.8971995590516
 20
169.12407219016009
 30
0.0
 11
104.9586044950449
 21
174.5197439756885
 31
0.0
  0
LINE
  5
16BD
  8
0
 10
104.9586044950449
 20
174.5197439756885
 30
0.0
 11
109.7377993539255
 21
174.5197439756885
 31
0.0
  0
LINE
  5
16BE
  8
0
 10
89.646862583807845
 20
169.12407219016009
 30
0.0
 11
89.708275962690735
 21
174.5197439756885
 31
0.0
  0
LINE
  5
16BF
  8
0
 10
89.708275962690735
 20
174.5197439756885
 30
0.0
 11
94.48747082157135
 21
174.5197439756885
 31
0.0
  0
LINE
  5
16C4
  8
0
 10
109.7377993539255
 20
174.5197439756885
 30
0.0
 11
109.7992127328084
 21
169.12407219016009
 31
0.0
  0
LINE
  5
16C5
  8
0
 10
94.48747082157135
 20
174.5197439756885
 30
0.0
 11
94.548875757564673
 21
169.12407219016009
 31
0.0
  0
LINE
  5
16C6
  8
0
 10
79.239238934752137
 20
174.5197439756885
 30
0.0
 11
79.300635424968476
 21
169.12407219016009
 31
0.0
  0
LINE
  5
16C9
  8
0
 10
69.691097988462133
 20
173.328046942893
 30
0.0
 11
79.252799065561277
 21
173.328046942893
 31
0.0
  0
LINE
  5
16CA
  8
0
 10
120.193276251055
 20
173.328046942893
 30
0.0
 11
129.7549773281541
 21
173.328046942893
 31
0.0
  0
LINE
  5
16CC
  8
0
 10
104.9450424988874
 20
173.328046942893
 30
0.0
 11
109.7513632147936
 21
173.328046942893
 31
0.0
  0
LINE
  5
16CD
  8
0
 10
89.69471210182266
 20
173.328046942893
 30
0.0
 11
94.501032817728813
 21
173.328046942893
 31
0.0
  0
LINE
  5
1C1D
  8
0
 10
53.723037658308129
 20
130.40775252118959
 30
0.0
 11
53.723037658308129
 21
101.82278685683541
 31
0.0
  0
LINE
  5
1C1E
  8
0
 10
142.75761959345101
 20
97.833031003513781
 30
0.0
 11
56.688455723165788
 21
97.833031003513057
 31
0.0
  0
LINE
  5
1C1F
  8
1
 10
99.723037658308144
 20
139.08818267208991
 30
0.0
 11
99.723037658308144
 21
94.833031003513398
 31
0.0
  0
LINE
  5
1C20
  8
1
 10
148.7230376583083
 20
116.3330324711886
 30
0.0
 11
50.723037658308129
 21
116.3330324711886
 31
0.0
  0
LINE
  5
1C21
  8
0
 10
137.7230376583081
 20
127.13198460041041
 30
0.0
 11
61.723037658308129
 21
127.13198460041041
 31
0.0
  0
LINE
  5
1C23
  8
0
 10
62.649791367746133
 20
136.08818164973979
 30
0.0
 11
62.607827237917007
 21
136.08766411559881
 31
0.0
  0
LINE
  5
1C24
  8
0
 10
56.68457995385868
 20
134.83303393886419
 30
0.0
 11
142.7614953627575
 21
134.83303393886499
 31
0.0
  0
LINE
  5
1C25
  8
0
 10
136.79628394886981
 20
136.08818164973979
 30
0.0
 11
62.649786417045647
 21
136.08818369444
 31
0.0
  0
POLYLINE
  5
1C26
  8
0
 66
     1
 10
0.0
 20
0.0
 30
0.0
  0
VERTEX
  5
1FD8
  8
0
 10
62.607827237917007
 20
136.08766411559881
 30
0.0
  0
VERTEX
  5
1FD9
  8
0
 10
62.492580406573751
 20
136.0809029027624
 30
0.0
  0
VERTEX
  5
1FDA
  8
0
 10
62.379630128513298
 20
136.06659567382741
 30
0.0
  0
VERTEX
  5
1FDB
  8
0
 10
62.269490904475532
 20
136.04513496262479
 30
0.0
  0
VERTEX
  5
1FDC
  8
0
 10
62.162625397397363
 20
136.01694698688851
 30
0.0
  0
VERTEX
  5
1FDD
  8
0
 10
62.059452566712217
 20
135.9824887917548
 30
0.0
  0
VERTEX
  5
1FDE
  8
0
 10
61.960310687146801
 20
135.9422293876608
 30
0.0
  0
VERTEX
  5
1FDF
  8
0
 10
61.865464154922478
 20
135.89663728884381
 30
0.0
  0
VERTEX
  5
1FE0
  8
0
 10
61.775247238965079
 20
135.8462519225466
 30
0.0
  0
VERTEX
  5
1FE1
  8
0
 10
61.689903646994573
 20
135.79161778591231
 30
0.0
  0
VERTEX
  5
1FE2
  8
0
 10
61.609620031125331
 20
135.73329078218501
 30
0.0
  0
VERTEX
  5
1FE3
  8
0
 10
61.534526713567942
 20
135.67183244260929
 30
0.0
  0
VERTEX
  5
1FE4
  8
0
 10
61.464687731627443
 20
135.60779355162879
 30
0.0
  0
VERTEX
  5
1FE5
  8
0
 10
61.40012410860524
 20
135.54172599908739
 30
0.0
  0
VERTEX
  5
1FE6
  8
0
 10
61.340766758296319
 20
135.47412392612429
 30
0.0
  0
VERTEX
  5
1FE7
  8
0
 10
61.286376290680977
 20
135.4052828744629
 30
0.0
  0
VERTEX
  5
1FE8
  8
0
 10
61.237199858779803
 20
135.33616979907981
 30
0.0
  0
VERTEX
  5
1FE9
  8
0
 10
61.193061055478182
 20
135.2673262096182
 30
0.0
  0
VERTEX
  5
1FEA
  8
0
 10
61.154286199002136
 20
135.20027020499839
 30
0.0
  0
VERTEX
  5
1FEB
  8
0
 10
61.120762493842527
 20
135.13612629130969
 30
0.0
  0
VERTEX
  5
1FEC
  8
0
 10
61.092449402796177
 20
135.07642728907339
 30
0.0
  0
VERTEX
  5
1FED
  8
0
 10
61.06937982736607
 20
135.02321919955219
 30
0.0
  0
VERTEX
  5
1FEE
  8
0
 10
61.050338174555549
 20
134.97564128557769
 30
0.0
  0
VERTEX
  5
1FEF
  8
0
 10
61.034782022121107
 20
134.9339804979727
 30
0.0
  0
VERTEX
  5
1FF0
  8
0
 10
61.021544842471123
 20
134.89638816899031
 30
0.0
  0
VERTEX
  5
1FF1
  8
0
 10
61.00979649623909
 20
134.86132206630839
 30
0.0
  0
VERTEX
  5
1FF2
  8
0
 10
61.000710365118238
 20
134.83303393886419
 30
0.0
  0
SEQEND
  5
1FF3
  8
0
  0
LINE
  5
1C3C
  8
0
 10
216.662883882335
 20
125.77405477078089
 30
0.0
 11
216.662883882335
 21
130.2881832343038
 31
0.0
  0
LINE
  5
1C3D
  8
2
 10
214.66288372366711
 20
125.3160293680362
 30
0.0
 11
214.66288372366699
 21
130.08818321843691
 31
0.0
  0
LINE
  5
1C3F
  8
0
 10
207.2233995064646
 20
103.11166972958721
 30
0.0
 11
204.04176829005391
 21
98.732530045773501
 31
0.0
  0
LINE
  5
1C50
  8
2
 10
198.0137652301292
 20
102.6735161377191
 30
0.0
 11
197.99699906819919
 21
102.6588790642578
 31
0.0
  0
LINE
  5
1C51
  8
1
 10
194.66288237499219
 20
116.3330324711885
 30
0.0
 11
217.4210049060793
 21
116.3330324711886
 31
0.0
  0
LINE
  5
1C52
  8
0
 10
212.27568420858159
 20
108.15332628866111
 30
0.0
 11
209.38334683592149
 21
110.66759680802799
 31
0.0
  0
LINE
  5
1C53
  8
0
 10
199.6628825336598
 20
134.83303393886419
 30
0.0
 11
199.66288253365991
 21
97.833031003513071
 31
0.0
  0
LINE
  5
1C55
  8
0
 10
200.29322077066701
 20
100.2724672186426
 30
0.0
 11
200.2912862678138
 21
100.3832948152351
 31
0.0
  0
LINE
  5
1C57
  8
0
 10
197.66288237499219
 20
132.03603942246789
 30
0.0
 11
197.66288237499219
 21
100.30164452679701
 31
0.0
  0
LINE
  5
1C59
  8
0
 10
199.6628825336598
 20
130.03303355806159
 30
0.0
 11
200.19008852868541
 21
130.03303355806159
 31
0.0
  0
LINE
  5
1C5A
  8
2
 10
208.04761369715271
 20
133.15236123392989
 30
0.0
 11
201.569851709147
 21
127.7168735390118
 31
0.0
  0
LINE
  5
1C5B
  8
0
 10
206.81780185528689
 20
134.73124135678859
 30
0.0
 11
200.28427638775739
 21
129.24896254675821
 31
0.0
  0
LINE
  5
1C5C
  8
0
 10
203.60204768216889
 20
132.83492576264661
 30
0.0
 11
200.3186460607842
 21
130.0798246730738
 31
0.0
  0
LINE
  5
1C5D
  8
0
 10
203.78964825805201
 20
132.9050667438112
 30
0.0
 11
204.65954746136441
 21
132.92025089091581
 31
0.0
  0
LINE
  5
1C5E
  8
0
 10
199.6628825336598
 20
97.833031003513042
 30
0.0
 11
198.15915842216401
 21
99.186990275027767
 31
0.0
  0
LINE
  5
1C5F
  8
0
 10
198.0481472428568
 20
133.0396887166913
 30
0.0
 11
199.6628825336598
 21
134.83303393886419
 31
0.0
  0
LINE
  5
1C60
  8
0
 10
210.86288342219839
 20
136.08818369444
 30
0.0
 11
210.54597028725669
 21
136.08818369444
 31
0.0
  0
LINE
  5
1C61
  8
0
 10
53.723037658308129
 20
63.54199275221707
 30
0.0
 11
53.740230979848292
 21
64.526997484828186
 31
0.0
  0
POLYLINE
  5
1C62
  8
0
 66
     1
 10
0.0
 20
0.0
 30
0.0
  0
VERTEX
  5
1FF4
  8
0
 10
56.372517707446008
 20
63.266231456939828
 30
0.0
  0
VERTEX
  5
1FF5
  8
0
 10
56.44644910541146
 20
62.377421756327209
 30
0.0
  0
VERTEX
  5
1FF6
  8
0
 10
56.633698845666537
 20
60.30971112968782
 30
0.0
  0
VERTEX
  5
1FF7
  8
0
 10
56.839924785127288
 20
58.279378847413767
 30
0.0
  0
VERTEX
  5
1FF8
  8
0
 10
57.065909773555489
 20
56.286744384230502
 30
0.0
  0
VERTEX
  5
1FF9
  8
0
 10
57.31242498961236
 20
54.33211548996244
 30
0.0
  0
VERTEX
  5
1FFA
  8
0
 10
57.572762621066062
 20
52.466658447568562
 30
0.0
  0
SEQEND
  5
1FFB
  8
0
  0
POLYLINE
  5
1C63
  8
0
 66
     1
 10
0.0
 20
0.0
 30
0.0
  0
VERTEX
  5
1FFC
  8
0
 10
57.572755661965601
 20
52.46670709247249
 30
0.0
  0
VERTEX
  5
1FFD
  8
0
 10
57.650216483910611
 20
51.962868945301032
 30
0.0
  0
VERTEX
  5
1FFE
  8
0
 10
57.739710320410687
 20
51.437233828800373
 30
0.0
  0
VERTEX
  5
1FFF
  8
0
 10
57.83357542305734
 20
50.942859996779852
 30
0.0
  0
VERTEX
  5
2000
  8
0
 10
57.931618286035217
 20
50.480855258526979
 30
0.0
  0
VERTEX
  5
2001
  8
0
 10
58.033760386338798
 20
50.051295642148631
 30
0.0
  0
VERTEX
  5
2002
  8
0
 10
58.140060783671821
 20
49.653469238687563
 30
0.0
  0
VERTEX
  5
2003
  8
0
 10
58.25065597654585
 20
49.286312690859603
 30
0.0
  0
VERTEX
  5
2004
  8
0
 10
58.365832729083387
 20
48.948407112652291
 30
0.0
  0
VERTEX
  5
2005
  8
0
 10
58.486045846220321
 20
48.637982601325149
 30
0.0
  0
VERTEX
  5
2006
  8
0
 10
58.612062204117791
 20
48.35285771760519
 30
0.0
  0
VERTEX
  5
2007
  8
0
 10
58.744800699648152
 20
48.091039698434003
 30
0.0
  0
VERTEX
  5
2008
  8
0
 10
58.885874614840283
 20
47.849827737097847
 30
0.0
  0
VERTEX
  5
2009
  8
0
 10
59.036922125123141
 20
47.627458799956479
 30
0.0
  0
VERTEX
  5
200A
  8
0
 10
59.20046484669782
 20
47.421924603950544
 30
0.0
  0
VERTEX
  5
200B
  8
0
 10
59.37936565279049
 20
47.232172478896842
 30
0.0
  0
VERTEX
  5
200C
  8
0
 10
59.575023014813013
 20
47.059709018914667
 30
0.0
  0
VERTEX
  5
200D
  8
0
 10
59.789270797410012
 20
46.906145201631858
 30
0.0
  0
VERTEX
  5
200E
  8
0
 10
60.020897576985902
 20
46.775410341960217
 30
0.0
  0
VERTEX
  5
200F
  8
0
 10
60.268312425914218
 20
46.670867934566417
 30
0.0
  0
VERTEX
  5
2010
  8
0
 10
60.527810921801432
 20
46.595899341618939
 30
0.0
  0
VERTEX
  5
2011
  8
0
 10
60.793908612211879
 20
46.552894732107141
 30
0.0
  0
VERTEX
  5
2012
  8
0
 10
61.01176049069462
 20
46.541992817542251
 30
0.0
  0
SEQEND
  5
2013
  8
0
  0
LINE
  5
1C64
  8
0
 10
63.045370623128719
 20
52.92892155264169
 30
0.0
 11
63.073833955287093
 21
51.247890257578803
 31
0.0
  0
LINE
  5
1C65
  8
0
 10
62.905623751790557
 20
63.541992752217062
 30
0.0
 11
63.045370623128719
 21
52.92892155264169
 31
0.0
  0
LINE
  5
1C66
  8
0
 10
66.967786350008936
 20
53.342690318867568
 30
0.0
 11
66.793308803667259
 21
63.338502254773381
 31
0.0
  0
LINE
  5
1C67
  8
0
 10
68.392224025975651
 20
62.734815600981761
 30
0.0
 11
68.228283869309479
 21
53.342690318867568
 31
0.0
  0
LINE
  5
1C68
  8
0
 10
77.21778716328069
 20
53.342690314967491
 30
0.0
 11
77.053830968473193
 21
62.735734425453501
 31
0.0
  0
LINE
  5
1C69
  8
0
 10
78.656314168704483
 20
63.541992752217062
 30
0.0
 11
78.478284654881094
 21
53.342688733267408
 31
0.0
  0
LINE
  5
1C6A
  8
0
 10
138.43431482592121
 20
46.541992817542251
 30
0.0
 11
61.013170658406779
 21
46.541991403542141
 31
0.0
  0
LINE
  5
1C6B
  8
0
 10
63.573746320046858
 20
50.757220578152413
 30
0.0
 11
135.87232894846889
 21
50.757220578152349
 31
0.0
  0
LINE
  5
1C6D
  8
0
 10
67.467267272334965
 20
52.876870076312201
 30
0.0
 11
67.728802946983336
 21
52.876870076312201
 31
0.0
  0
LINE
  5
1C6E
  8
1
 10
99.723037658308144
 20
68.541845547688538
 30
0.0
 11
99.723037658308144
 21
43.541992110529307
 31
0.0
  0
LINE
  5
1C6F
  8
0
 10
76.979027736939059
 20
55.452549939350739
 30
0.0
 11
68.467043295550951
 21
55.452549937950693
 31
0.0
  0
LINE
  5
1C70
  8
0
 10
68.532734390862487
 20
59.163106995823313
 30
0.0
 11
76.913336641627524
 21
59.163106995823313
 31
0.0
  0
LINE
  5
1C71
  8
0
 10
77.092801460459413
 20
60.503116434631153
 30
0.0
 11
68.353269572120979
 21
60.503116434631153
 31
0.0
  0
LINE
  5
1C72
  8
0
 10
77.072567802414113
 20
61.662301927793841
 30
0.0
 11
68.373503230170826
 21
61.662301927793997
 31
0.0
  0
POLYLINE
  5
1C73
  8
0
 66
     1
 10
0.0
 20
0.0
 30
0.0
  0
VERTEX
  5
2014
  8
0
 10
56.073498522723717
 20
63.541994573217231
 30
0.0
  0
VERTEX
  5
2015
  8
0
 10
56.11670486065119
 20
63.53886694006902
 30
0.0
  0
VERTEX
  5
2016
  8
0
 10
56.159055099111328
 20
63.529535936128887
 30
0.0
  0
VERTEX
  5
2017
  8
0
 10
56.199631311130098
 20
63.514190170911462
 30
0.0
  0
VERTEX
  5
2018
  8
0
 10
56.237573046240392
 20
63.493150758442162
 30
0.0
  0
VERTEX
  5
2019
  8
0
 10
56.27207663877752
 20
63.466864692656848
 30
0.0
  0
VERTEX
  5
201A
  8
0
 10
56.30242757238554
 20
63.435879346298599
 30
0.0
  0
VERTEX
  5
201B
  8
0
 10
56.327993588213623
 20
63.400840660418879
 30
0.0
  0
VERTEX
  5
201C
  8
0
 10
56.348239840320019
 20
63.362481354475698
 30
0.0
  0
VERTEX
  5
201D
  8
0
 10
56.362743183870599
 20
63.32160275383265
 30
0.0
  0
VERTEX
  5
201E
  8
0
 10
56.371200141241353
 20
63.27905949645757
 30
0.0
  0
VERTEX
  5
201F
  8
0
 10
56.372518446546202
 20
63.266226651339387
 30
0.0
  0
SEQEND
  5
2020
  8
0
  0
LINE
  5
1C74
  8
0
 10
68.592195008579637
 20
62.931376467174537
 30
0.0
 11
76.853876024010304
 21
62.931376467174537
 31
0.0
  0
LINE
  5
1C75
  8
0
 10
145.7230376583083
 20
63.541992752217062
 30
0.0
 11
53.723132894105483
 21
63.547448807398958
 31
0.0
  0
LINE
  5
1C77
  8
0
 10
144.69941588762441
 20
65.541698980698669
 30
0.0
 11
54.741461735603622
 21
65.541992131584564
 31
0.0
  0
ARC
  5
1C79
  8
0
 10
243.0593436299699
 20
87.622972590777493
 30
0.0
 40
185.5904574417161
 50
167.22788070389419
 51
167.70865592724201
  0
ARC
  5
1C7A
  8
0
 10
208.84146265273171
 20
101.93613908692809
 30
0.0
 40
2.0000001586676319
 50
122.99518880489519
 51
144.00141489959509
  0
ARC
  5
1C7B
  8
0
 10
203.6372597607625
 20
99.026422695189353
 30
0.0
 40
0.5000000396669081
 50
260.03408527220182
 51
323.99999999999881
  0
ARC
  5
1C7C
  8
0
 10
204.76288293826269
 20
105.4282176908681
 30
0.0
 40
7.0000005553367117
 50
232.35782766809859
 51
260.02811628840237
  0
ARC
  5
1C7D
  8
0
 10
210.54597028725669
 20
130.2881832343038
 30
0.0
 40
5.8000004601361299
 50
90.0
 51
129.99999999999571
  0
ARC
  5
1C7E
  8
0
 10
210.86288342219839
 20
130.2881832343038
 30
0.0
 40
5.8000004601361299
 50
0.0
 51
90.0
  0
ARC
  5
1C7F
  8
2
 10
210.6628834063319
 20
130.08818321843691
 30
0.0
 40
4.0000003173352638
 50
0.0
 51
90.0
  0
ARC
  5
1C80
  8
2
 10
210.6197430885293
 20
130.0864879761379
 30
0.0
 40
4.0019280901856789
 50
89.382346220151121
 51
129.99513341031451
  0
ARC
  5
1C81
  8
0
 10
203.7948839803673
 20
132.60511241151451
 30
0.0
 40
0.3000000238001448
 50
91.000000000001776
 51
129.99999999999571
  0
ARC
  5
1C82
  8
0
 10
200.79314349922811
 20
100.2812598039403
 30
0.0
 40
0.5000000396669081
 50
181.0076079023998
 51
232.3587062017028
  0
ARC
  5
1C83
  8
0
 10
194.38249476344691
 20
124.2036234401924
 30
0.0
 40
24.550001947645189
 50
282.42063503969422
 51
316.91658439990391
  0
ARC
  5
1C84
  8
0
 10
198.66288245432611
 20
125.77405477078089
 30
0.0
 40
18.000001428008691
 50
316.52698586929898
 51
0.0
  0
ARC
  5
1C85
  8
2
 10
198.66288245432611
 20
125.3160293680362
 30
0.0
 40
16.000001269341059
 50
316.52698586929898
 51
0.0
  0
ARC
  5
1C86
  8
2
 10
199.96288255746001
 20
129.63198479874509
 30
0.0
 40
2.5000001983345399
 50
203.0739180656301
 51
309.99999999999568
  0
ARC
  5
1C87
  8
0
 10
199.16281270938779
 20
132.03603942246789
 30
0.0
 40
1.4999303343951871
 50
137.99999999990521
 51
180.0
  0
ARC
  5
1C88
  8
0
 10
199.96288255746001
 20
129.63198479874509
 30
0.0
 40
0.5000000396669081
 50
270.0
 51
309.99999999999568
  0
ARC
  5
1C89
  8
0
 10
199.96288255746001
 20
129.4319847828782
 30
0.0
 40
0.3000000238001448
 50
180.0
 51
270.0
  0
ARC
  5
1C8A
  8
0
 10
200.19008852868541
 20
130.2330335739284
 30
0.0
 40
0.2000000158667632
 50
270.0
 51
309.99999999999568
  0
ARC
  5
1C8B
  8
0
 10
94.162290130895911
 20
224.8479135539875
 30
0.0
 40
162.0000128520781
 50
315.3304335277993
 51
316.52698586929898
  0
ARC
  5
1C8C
  8
2
 10
211.08252926914031
 20
87.151815470445285
 30
0.0
 40
20.290394819773439
 50
130.15911885387061
 51
130.43861677320891
  0
ARC
  5
1C8D
  8
0
 10
54.775496629888579
 20
64.506994037898863
 30
0.0
 40
1.0355575444957159
 50
91.883436658615551
 51
177.10038896058191
  0
ARC
  5
1C8E
  8
0
 10
54.760669788827471
 20
64.509167943146778
 30
0.0
 40
1.020594559767654
 50
177.18016753750041
 51
178.9990055812992
  0
ARC
  5
1C8F
  8
0
 10
63.573746368146857
 20
51.257219306619142
 30
0.0
 40
0.4999987284668041
 50
181.03630439029891
 51
270.00006219910239
  0
ARC
  5
1C90
  8
0
 10
67.463932487637607
 20
53.373991417506687
 30
0.0
 40
0.4971325262541522
 50
183.60991855487731
 51
270.384345243236
  0
ARC
  5
1C91
  8
0
 10
66.993278358531569
 20
63.341992736350299
 30
0.0
 40
0.2000000158667632
 50
90.0
 51
181.00000000000011
  0
LINE
  5
1C94
  8
0
 10
142.73137267406841
 20
99.187015575830515
 30
0.0
 11
56.714703140048442
 21
99.187015560729677
 31
0.0
  0
LINE
  5
1C95
  8
0
 10
56.712764113702612
 20
133.0397086238907
 30
0.0
 11
142.7333120096217
 21
133.03970859939361
 31
0.0
  0
LINE
  5
1C96
  8
0
 10
84.967787778017595
 20
53.342690318867568
 30
0.0
 11
84.793310231675918
 21
63.338502254773381
 31
0.0
  0
LINE
  5
1C97
  8
0
 10
86.392241492125066
 20
62.735734425453501
 30
0.0
 11
86.228285269617771
 21
53.342688730267213
 31
0.0
  0
LINE
  5
1C98
  8
0
 10
95.217788591289334
 20
53.342690314967257
 30
0.0
 11
95.053832396481852
 21
62.735734425453501
 31
0.0
  0
LINE
  5
1C99
  8
0
 10
96.656315596713043
 20
63.541992752216828
 30
0.0
 11
96.478286082889639
 21
53.342688733267238
 31
0.0
  0
LINE
  5
1C9A
  8
0
 10
94.979029164947832
 20
55.452549939350519
 30
0.0
 11
86.467044723559624
 21
55.452549937950693
 31
0.0
  0
LINE
  5
1C9B
  8
0
 10
86.532735818871046
 20
59.163106995823313
 30
0.0
 11
94.913338069636296
 21
59.163106995823313
 31
0.0
  0
LINE
  5
1C9C
  8
0
 10
95.092802888468185
 20
60.503116434631153
 30
0.0
 11
86.353271000129624
 21
60.503116434631153
 31
0.0
  0
LINE
  5
1C9D
  8
0
 10
95.072569230422772
 20
61.662301927793841
 30
0.0
 11
86.373504658179485
 21
61.662301927793841
 31
0.0
  0
LINE
  5
1C9E
  8
0
 10
86.592196436588424
 20
62.931376467174537
 30
0.0
 11
94.853877452018949
 21
62.931376467174537
 31
0.0
  0
ARC
  5
1C9F
  8
0
 10
84.993279786540214
 20
63.341992736350299
 30
0.0
 40
0.2000000158667632
 50
90.0
 51
181.00000000000011
  0
LINE
  5
1CA0
  8
0
 10
136.79628394886981
 20
136.08818164973979
 30
0.0
 11
136.83824807869891
 21
136.08766411559881
 31
0.0
  0
POLYLINE
  5
1CA1
  8
0
 66
     1
 10
0.0
 20
0.0
 30
0.0
  0
VERTEX
  5
2021
  8
0
 10
136.83824807869891
 20
136.08766411559881
 30
0.0
  0
VERTEX
  5
2022
  8
0
 10
136.953494910042
 20
136.0809029027624
 30
0.0
  0
VERTEX
  5
2023
  8
0
 10
137.0664451881027
 20
136.06659567382741
 30
0.0
  0
VERTEX
  5
2024
  8
0
 10
137.1765844121407
 20
136.04513496262479
 30
0.0
  0
VERTEX
  5
2025
  8
0
 10
137.2834499192187
 20
136.01694698688851
 30
0.0
  0
VERTEX
  5
2026
  8
0
 10
137.38662274990369
 20
135.9824887917548
 30
0.0
  0
VERTEX
  5
2027
  8
0
 10
137.485764629469
 20
135.9422293876608
 30
0.0
  0
VERTEX
  5
2028
  8
0
 10
137.5806111616935
 20
135.89663728884381
 30
0.0
  0
VERTEX
  5
2029
  8
0
 10
137.67082807765081
 20
135.8462519225466
 30
0.0
  0
VERTEX
  5
202A
  8
0
 10
137.75617166962149
 20
135.79161778591231
 30
0.0
  0
VERTEX
  5
202B
  8
0
 10
137.8364552854907
 20
135.73329078218501
 30
0.0
  0
VERTEX
  5
202C
  8
0
 10
137.91154860304789
 20
135.67183244260929
 30
0.0
  0
VERTEX
  5
202D
  8
0
 10
137.98138758498879
 20
135.60779355162879
 30
0.0
  0
VERTEX
  5
202E
  8
0
 10
138.04595120801079
 20
135.54172599908739
 30
0.0
  0
VERTEX
  5
202F
  8
0
 10
138.10530855831971
 20
135.47412392612429
 30
0.0
  0
VERTEX
  5
2030
  8
0
 10
138.1596990259348
 20
135.4052828744629
 30
0.0
  0
VERTEX
  5
2031
  8
0
 10
138.2088754578362
 20
135.33616979907981
 30
0.0
  0
VERTEX
  5
2032
  8
0
 10
138.25301426113771
 20
135.2673262096182
 30
0.0
  0
VERTEX
  5
2033
  8
0
 10
138.29178911761409
 20
135.20027020499839
 30
0.0
  0
VERTEX
  5
2034
  8
0
 10
138.32531282277361
 20
135.13612629130969
 30
0.0
  0
VERTEX
  5
2035
  8
0
 10
138.35362591381971
 20
135.07642728907339
 30
0.0
  0
VERTEX
  5
2036
  8
0
 10
138.37669548925021
 20
135.02321919955219
 30
0.0
  0
VERTEX
  5
2037
  8
0
 10
138.39573714206051
 20
134.97564128557769
 30
0.0
  0
VERTEX
  5
2038
  8
0
 10
138.41129329449501
 20
134.9339804979727
 30
0.0
  0
VERTEX
  5
2039
  8
0
 10
138.424530474145
 20
134.89638816899031
 30
0.0
  0
VERTEX
  5
203A
  8
0
 10
138.43627882037691
 20
134.86132206630839
 30
0.0
  0
VERTEX
  5
203B
  8
0
 10
138.44536495149771
 20
134.83303393886419
 30
0.0
  0
SEQEND
  5
203C
  8
0
  0
LINE
  5
1CA3
  8
0
 10
145.7230376583083
 20
63.541992752217062
 30
0.0
 11
145.70584433676831
 21
64.526997484828172
 31
0.0
  0
POLYLINE
  5
1CA4
  8
0
 66
     1
 10
0.0
 20
0.0
 30
0.0
  0
VERTEX
  5
203D
  8
0
 10
143.0735576091698
 20
63.266231456939828
 30
0.0
  0
VERTEX
  5
203E
  8
0
 10
142.9996262112046
 20
62.377421756327209
 30
0.0
  0
VERTEX
  5
203F
  8
0
 10
142.8123764709494
 20
60.30971112968782
 30
0.0
  0
VERTEX
  5
2040
  8
0
 10
142.60615053148859
 20
58.279378847413767
 30
0.0
  0
VERTEX
  5
2041
  8
0
 10
142.38016554306071
 20
56.286744384230502
 30
0.0
  0
VERTEX
  5
2042
  8
0
 10
142.13365032700341
 20
54.33211548996244
 30
0.0
  0
VERTEX
  5
2043
  8
0
 10
141.87331269555
 20
52.466658447568562
 30
0.0
  0
SEQEND
  5
2044
  8
0
  0
POLYLINE
  5
1CA5
  8
0
 66
     1
 10
0.0
 20
0.0
 30
0.0
  0
VERTEX
  5
2045
  8
0
 10
141.8733196546506
 20
52.46670709247249
 30
0.0
  0
VERTEX
  5
2046
  8
0
 10
141.79585883270519
 20
51.962868945301032
 30
0.0
  0
VERTEX
  5
2047
  8
0
 10
141.70636499620551
 20
51.437233828800373
 30
0.0
  0
VERTEX
  5
2048
  8
0
 10
141.61249989355869
 20
50.942859996779852
 30
0.0
  0
VERTEX
  5
2049
  8
0
 10
141.5144570305807
 20
50.480855258526979
 30
0.0
  0
VERTEX
  5
204A
  8
0
 10
141.4123149302774
 20
50.051295642148631
 30
0.0
  0
VERTEX
  5
204B
  8
0
 10
141.30601453294389
 20
49.653469238687563
 30
0.0
  0
VERTEX
  5
204C
  8
0
 10
141.19541934007
 20
49.286312690859603
 30
0.0
  0
VERTEX
  5
204D
  8
0
 10
141.0802425875325
 20
48.948407112652291
 30
0.0
  0
VERTEX
  5
204E
  8
0
 10
140.96002947039571
 20
48.637982601325149
 30
0.0
  0
VERTEX
  5
204F
  8
0
 10
140.8340131124983
 20
48.35285771760519
 30
0.0
  0
VERTEX
  5
2050
  8
0
 10
140.70127461696751
 20
48.091039698434003
 30
0.0
  0
VERTEX
  5
2051
  8
0
 10
140.56020070177601
 20
47.849827737097847
 30
0.0
  0
VERTEX
  5
2052
  8
0
 10
140.40915319149241
 20
47.627458799956479
 30
0.0
  0
VERTEX
  5
2053
  8
0
 10
140.24561046991809
 20
47.421924603950544
 30
0.0
  0
VERTEX
  5
2054
  8
0
 10
140.06670966382541
 20
47.232172478896842
 30
0.0
  0
VERTEX
  5
2055
  8
0
 10
139.87105230180291
 20
47.059709018914667
 30
0.0
  0
VERTEX
  5
2056
  8
0
 10
139.65680451920551
 20
46.906145201631858
 30
0.0
  0
VERTEX
  5
2057
  8
0
 10
139.42517773962999
 20
46.775410341960217
 30
0.0
  0
VERTEX
  5
2058
  8
0
 10
139.17776289070181
 20
46.670867934566417
 30
0.0
  0
VERTEX
  5
2059
  8
0
 10
138.9182643948148
 20
46.595899341618939
 30
0.0
  0
VERTEX
  5
205A
  8
0
 10
138.6521667044039
 20
46.552894732107141
 30
0.0
  0
VERTEX
  5
205B
  8
0
 10
138.43431482592121
 20
46.541992817542251
 30
0.0
  0
SEQEND
  5
205C
  8
0
  0
LINE
  5
1CA6
  8
0
 10
136.4007046934872
 20
52.92892155264169
 30
0.0
 11
136.372241361329
 21
51.247890257578803
 31
0.0
  0
LINE
  5
1CA7
  8
0
 10
136.5404515648257
 20
63.541992752217062
 30
0.0
 11
136.4007046934872
 21
52.92892155264169
 31
0.0
  0
LINE
  5
1CA8
  8
0
 10
132.4782889666067
 20
53.342690318867568
 30
0.0
 11
132.6527665129486
 21
63.338502254773381
 31
0.0
  0
LINE
  5
1CA9
  8
0
 10
131.05383525249951
 20
62.735734425453501
 30
0.0
 11
131.21779147500681
 21
53.342688730267383
 31
0.0
  0
LINE
  5
1CAA
  8
0
 10
122.2282881533352
 20
53.342690314967491
 30
0.0
 11
122.3922443481427
 21
62.735734425453501
 31
0.0
  0
LINE
  5
1CAB
  8
0
 10
120.78976114791141
 20
63.541992752217062
 30
0.0
 11
120.96779066173529
 21
53.342688733267408
 31
0.0
  0
LINE
  5
1CAD
  8
0
 10
122.4670475796771
 20
55.452549939350739
 30
0.0
 11
130.97903202106519
 21
55.452549937950693
 31
0.0
  0
LINE
  5
1CAE
  8
0
 10
130.9133409257536
 20
59.163106995823313
 30
0.0
 11
122.53273867498871
 21
59.163106995823313
 31
0.0
  0
LINE
  5
1CAF
  8
0
 10
122.3532738561568
 20
60.503116434631153
 30
0.0
 11
131.09280574449471
 21
60.503116434631153
 31
0.0
  0
LINE
  5
1CB0
  8
0
 10
122.3735075142019
 20
61.662301927793841
 30
0.0
 11
131.07257208644501
 21
61.662301927793997
 31
0.0
  0
POLYLINE
  5
1CB1
  8
0
 66
     1
 10
0.0
 20
0.0
 30
0.0
  0
VERTEX
  5
205D
  8
0
 10
143.37257679389219
 20
63.541994573217231
 30
0.0
  0
VERTEX
  5
205E
  8
0
 10
143.32937045596469
 20
63.53886694006902
 30
0.0
  0
VERTEX
  5
205F
  8
0
 10
143.28702021750479
 20
63.529535936128887
 30
0.0
  0
VERTEX
  5
2060
  8
0
 10
143.2464440054857
 20
63.514190170911462
 30
0.0
  0
VERTEX
  5
2061
  8
0
 10
143.2085022703755
 20
63.493150758442162
 30
0.0
  0
VERTEX
  5
2062
  8
0
 10
143.17399867783811
 20
63.466864692656848
 30
0.0
  0
VERTEX
  5
2063
  8
0
 10
143.14364774423041
 20
63.435879346298599
 30
0.0
  0
VERTEX
  5
2064
  8
0
 10
143.11808172840219
 20
63.400840660418879
 30
0.0
  0
VERTEX
  5
2065
  8
0
 10
143.09783547629621
 20
63.362481354475698
 30
0.0
  0
VERTEX
  5
2066
  8
0
 10
143.0833321327454
 20
63.32160275383265
 30
0.0
  0
VERTEX
  5
2067
  8
0
 10
143.07487517537439
 20
63.27905949645757
 30
0.0
  0
VERTEX
  5
2068
  8
0
 10
143.07355687006981
 20
63.266226651339387
 30
0.0
  0
SEQEND
  5
2069
  8
0
  0
LINE
  5
1CB2
  8
0
 10
130.85388030803639
 20
62.931376467174537
 30
0.0
 11
122.5921992926057
 21
62.931376467174537
 31
0.0
  0
ARC
  5
1CB4
  8
0
 10
144.6714086140785
 20
64.507368296603744
 30
0.0
 40
1.03470980058747
 50
2.881238205700718
 51
88.448942317701437
  0
ARC
  5
1CB5
  8
0
 10
144.6854055277891
 20
64.509167943146764
 30
0.0
 40
1.020594559767654
 50
1.000994418700734
 51
2.8198324624998379
  0
ARC
  5
1CB6
  8
0
 10
135.87232894846889
 20
51.257219306619142
 30
0.0
 40
0.4999987284668041
 50
269.99993780089761
 51
358.96369560970101
  0
ARC
  5
1CB7
  8
0
 10
132.45279695808441
 20
63.341992736350299
 30
0.0
 40
0.2000000158667632
 50
358.99999999999977
 51
90.0
  0
LINE
  5
1CB8
  8
0
 10
114.4782875385981
 20
53.342690318867568
 30
0.0
 11
114.65276508494
 21
63.338502254773381
 31
0.0
  0
LINE
  5
1CB9
  8
0
 10
113.05383382449079
 20
62.735734425453501
 30
0.0
 11
113.217790046998
 21
53.342688730267213
 31
0.0
  0
LINE
  5
1CBA
  8
0
 10
104.2282867253266
 20
53.342690314967257
 30
0.0
 11
104.392242920134
 21
62.735734425453501
 31
0.0
  0
LINE
  5
1CBB
  8
0
 10
102.7897597199028
 20
63.541992752216828
 30
0.0
 11
102.96778923372651
 21
53.342688733267238
 31
0.0
  0
LINE
  5
1CBC
  8
0
 10
104.4670461516684
 20
55.452549939350519
 30
0.0
 11
112.97903059305651
 21
55.452549937950693
 31
0.0
  0
LINE
  5
1CBD
  8
0
 10
112.913339497745
 20
59.163106995823313
 30
0.0
 11
104.53273724697991
 21
59.163106995823313
 31
0.0
  0
LINE
  5
1CBE
  8
0
 10
104.353272428148
 20
60.503116434631153
 30
0.0
 11
113.0928043164859
 21
60.503116434631153
 31
0.0
  0
LINE
  5
1CBF
  8
0
 10
104.3735060861931
 20
61.662301927793841
 30
0.0
 11
113.07257065843631
 21
61.662301927793841
 31
0.0
  0
LINE
  5
1CC0
  8
0
 10
112.85387888002759
 20
62.931376467174537
 30
0.0
 11
104.5921978645971
 21
62.931376467174537
 31
0.0
  0
ARC
  5
1CC1
  8
0
 10
114.4527955300758
 20
63.341992736350299
 30
0.0
 40
0.2000000158667632
 50
358.99999999999977
 51
90.0
  0
ARC
  5
1CCD
  8
0
 10
211.9476546680595
 20
107.775971468617
 30
0.0
 40
0.5000000396658065
 50
316.91658440299352
 51
48.999999999412793
  0
ARC
  5
1CCE
  8
0
 10
209.51455865214609
 20
110.8185387360551
 30
0.0
 40
0.2000000158838977
 50
135.33043350167031
 51
228.99999999779871
  0
ARC
  5
1CCF
  8
2
 10
198.31787370733269
 20
102.0697069880939
 30
0.0
 40
0.6579453977626433
 50
127.043971058007
 51
174.56855502008401
  0
ARC
  5
1CD0
  8
0
 10
199.1627976182007
 20
100.30164452679701
 30
0.0
 40
1.4999152432083249
 50
179.9999999976925
 51
228.00000000709949
  0
ARC
  5
1CD1
  8
2
 10
94.162262775491712
 20
224.38991549505391
 30
0.0
 40
160.0000513581158
 50
310.4716471881008
 51
316.5269855031612
  0
ARC
  5
1CD2
  8
0
 10
67.732137731680922
 20
53.373991417506687
 30
0.0
 40
0.4971325262541522
 50
269.61565475676412
 51
356.3900814451211
  0
LINE
  5
1CD3
  8
0
 10
77.978803760154932
 20
52.876870076312201
 30
0.0
 11
77.717268085506561
 21
52.876870076312201
 31
0.0
  0
ARC
  5
1CD4
  8
0
 10
77.982138544852404
 20
53.373991417506687
 30
0.0
 40
0.4971325262541522
 50
269.61565475676412
 51
356.3900814451211
  0
ARC
  5
1CD5
  8
0
 10
77.713933300809089
 20
53.373991417506687
 30
0.0
 40
0.4971325262541522
 50
183.60991855487731
 51
270.384345243236
  0
LINE
  5
1CD6
  8
0
 10
85.467268700343624
 20
52.876870076312088
 30
0.0
 11
85.728804374991995
 21
52.876870076312088
 31
0.0
  0
ARC
  5
1CD7
  8
0
 10
85.463933915646265
 20
53.373991417506573
 30
0.0
 40
0.4971325262541522
 50
183.60991855487731
 51
270.384345243236
  0
ARC
  5
1CD8
  8
0
 10
85.732139159689581
 20
53.373991417506573
 30
0.0
 40
0.4971325262541522
 50
269.61565475676412
 51
356.3900814451211
  0
LINE
  5
1CD9
  8
0
 10
95.978805188163705
 20
52.876870076312088
 30
0.0
 11
95.717269513515205
 21
52.876870076312088
 31
0.0
  0
ARC
  5
1CDA
  8
0
 10
95.982139972861063
 20
53.373991417506573
 30
0.0
 40
0.4971325262541522
 50
269.61565475676412
 51
356.3900814451211
  0
ARC
  5
1CDB
  8
0
 10
95.713934728817748
 20
53.373991417506573
 30
0.0
 40
0.4971325262541522
 50
183.60991855487731
 51
270.384345243236
  0
LINE
  5
1CDC
  8
0
 10
103.4672701284525
 20
52.876870076312088
 30
0.0
 11
103.7288058031009
 21
52.876870076312088
 31
0.0
  0
ARC
  5
1CDD
  8
0
 10
103.4639353437551
 20
53.373991417506573
 30
0.0
 40
0.4971325262541522
 50
183.60991855487731
 51
270.384345243236
  0
ARC
  5
1CDE
  8
0
 10
103.7321405877984
 20
53.373991417506573
 30
0.0
 40
0.4971325262541522
 50
269.61565475676412
 51
356.3900814451211
  0
LINE
  5
1CDF
  8
0
 10
113.97880661627249
 20
52.876870076312088
 30
0.0
 11
113.71727094162409
 21
52.876870076312088
 31
0.0
  0
ARC
  5
1CE0
  8
0
 10
113.98214140096979
 20
53.373991417506573
 30
0.0
 40
0.4971325262541522
 50
269.61565475676412
 51
356.3900814451211
  0
ARC
  5
1CE1
  8
0
 10
113.71393615692649
 20
53.373991417506573
 30
0.0
 40
0.4971325262541522
 50
183.60991855487731
 51
270.384345243236
  0
LINE
  5
1CE2
  8
0
 10
121.4672715564612
 20
52.876870076312201
 30
0.0
 11
121.7288072311096
 21
52.876870076312201
 31
0.0
  0
ARC
  5
1CE3
  8
0
 10
121.4639367717637
 20
53.373991417506687
 30
0.0
 40
0.4971325262541522
 50
183.60991855487731
 51
270.384345243236
  0
ARC
  5
1CE4
  8
0
 10
121.7321420158071
 20
53.373991417506687
 30
0.0
 40
0.4971325262541522
 50
269.61565475676412
 51
356.3900814451211
  0
LINE
  5
1CE5
  8
0
 10
131.97880804428121
 20
52.876870076312201
 30
0.0
 11
131.71727236963281
 21
52.876870076312201
 31
0.0
  0
ARC
  5
1CE6
  8
0
 10
131.9821428289786
 20
53.373991417506687
 30
0.0
 40
0.4971325262541522
 50
269.61565475676412
 51
356.3900814451211
  0
ARC
  5
1CE7
  8
0
 10
131.71393758493531
 20
53.373991417506687
 30
0.0
 40
0.4971325262541522
 50
183.60991855487731
 51
270.384345243236
  0
POLYLINE
  5
1CEA
  8
0
 66
     1
 10
0.0
 20
0.0
 30
0.0
  0
VERTEX
  5
206A
  8
0
 10
68.267074598086282
 20
55.565009681872397
 30
0.0
  0
VERTEX
  5
206B
  8
0
 10
68.281747024650571
 20
55.522831178426337
 30
0.0
  0
VERTEX
  5
206C
  8
0
 10
68.324967318379294
 20
55.486613109053017
 30
0.0
  0
VERTEX
  5
206D
  8
0
 10
68.390076729344599
 20
55.461935423395317
 30
0.0
  0
VERTEX
  5
206E
  8
0
 10
68.467044153050864
 20
55.452600098054539
 30
0.0
  0
SEQEND
  5
206F
  8
0
  0
POLYLINE
  5
1CEB
  8
0
 66
     1
 10
0.0
 20
0.0
 30
0.0
  0
VERTEX
  5
2070
  8
0
 10
77.178995808703093
 20
55.565009670972501
 30
0.0
  0
VERTEX
  5
2071
  8
0
 10
77.164324415839104
 20
55.52283068782625
 30
0.0
  0
VERTEX
  5
2072
  8
0
 10
77.121104486210442
 20
55.486612056752698
 30
0.0
  0
VERTEX
  5
2073
  8
0
 10
77.055994856345109
 20
55.461933933495203
 30
0.0
  0
VERTEX
  5
2074
  8
0
 10
76.979026879538964
 20
55.452598443654523
 30
0.0
  0
SEQEND
  5
2075
  8
0
  0
POLYLINE
  5
1CEC
  8
0
 66
     1
 10
0.0
 20
0.0
 30
0.0
  0
VERTEX
  5
2076
  8
0
 10
86.267076026095168
 20
55.565009681872397
 30
0.0
  0
VERTEX
  5
2077
  8
0
 10
86.281748452659116
 20
55.522831178426337
 30
0.0
  0
VERTEX
  5
2078
  8
0
 10
86.324968746388166
 20
55.486613109052797
 30
0.0
  0
VERTEX
  5
2079
  8
0
 10
86.390078157353486
 20
55.461935423395317
 30
0.0
  0
VERTEX
  5
207A
  8
0
 10
86.467045581059523
 20
55.452600098054432
 30
0.0
  0
SEQEND
  5
207B
  8
0
  0
POLYLINE
  5
1CED
  8
0
 66
     1
 10
0.0
 20
0.0
 30
0.0
  0
VERTEX
  5
207C
  8
0
 10
95.178997236711965
 20
55.565009670972437
 30
0.0
  0
VERTEX
  5
207D
  8
0
 10
95.164325843848104
 20
55.52283068782625
 30
0.0
  0
VERTEX
  5
207E
  8
0
 10
95.1211059142191
 20
55.486612056752698
 30
0.0
  0
VERTEX
  5
207F
  8
0
 10
95.055996284353895
 20
55.461933933495203
 30
0.0
  0
VERTEX
  5
2080
  8
0
 10
94.979028307547622
 20
55.452598443654523
 30
0.0
  0
SEQEND
  5
2081
  8
0
  0
POLYLINE
  5
1CEE
  8
0
 66
     1
 10
0.0
 20
0.0
 30
0.0
  0
VERTEX
  5
2082
  8
0
 10
104.267078079904
 20
55.565009670972437
 30
0.0
  0
VERTEX
  5
2083
  8
0
 10
104.2817494727681
 20
55.52283068782625
 30
0.0
  0
VERTEX
  5
2084
  8
0
 10
104.3249694023967
 20
55.486612056752698
 30
0.0
  0
VERTEX
  5
2085
  8
0
 10
104.39007903226219
 20
55.461933933495203
 30
0.0
  0
VERTEX
  5
2086
  8
0
 10
104.4670470090682
 20
55.452598443654523
 30
0.0
  0
SEQEND
  5
2087
  8
0
  0
POLYLINE
  5
1CEF
  8
0
 66
     1
 10
0.0
 20
0.0
 30
0.0
  0
VERTEX
  5
2088
  8
0
 10
113.17899929052091
 20
55.565009681872397
 30
0.0
  0
VERTEX
  5
2089
  8
0
 10
113.1643268639567
 20
55.522831178426337
 30
0.0
  0
VERTEX
  5
208A
  8
0
 10
113.12110657022779
 20
55.486613109052797
 30
0.0
  0
VERTEX
  5
208B
  8
0
 10
113.0559971592624
 20
55.461935423395317
 30
0.0
  0
VERTEX
  5
208C
  8
0
 10
112.9790297355563
 20
55.452600098054383
 30
0.0
  0
SEQEND
  5
208D
  8
0
  0
POLYLINE
  5
1CF0
  8
0
 66
     1
 10
0.0
 20
0.0
 30
0.0
  0
VERTEX
  5
208E
  8
0
 10
122.2670795079127
 20
55.565009670972501
 30
0.0
  0
VERTEX
  5
208F
  8
0
 10
122.2817509007767
 20
55.52283068782625
 30
0.0
  0
VERTEX
  5
2090
  8
0
 10
122.3249708304056
 20
55.486612056752698
 30
0.0
  0
VERTEX
  5
2091
  8
0
 10
122.3900804602707
 20
55.461933933495203
 30
0.0
  0
VERTEX
  5
2092
  8
0
 10
122.4670484370769
 20
55.452598443654523
 30
0.0
  0
SEQEND
  5
2093
  8
0
  0
POLYLINE
  5
1CF1
  8
0
 66
     1
 10
0.0
 20
0.0
 30
0.0
  0
VERTEX
  5
2094
  8
0
 10
131.17900071852961
 20
55.565009681872397
 30
0.0
  0
VERTEX
  5
2095
  8
0
 10
131.16432829196521
 20
55.522831178426337
 30
0.0
  0
VERTEX
  5
2096
  8
0
 10
131.12110799823651
 20
55.486613109053017
 30
0.0
  0
VERTEX
  5
2097
  8
0
 10
131.05599858727129
 20
55.461935423395317
 30
0.0
  0
VERTEX
  5
2098
  8
0
 10
130.979031163565
 20
55.452600098054539
 30
0.0
  0
SEQEND
  5
2099
  8
0
  0
ARC
  5
1CF2
  8
0
 10
68.591786222157879
 20
62.731791782091847
 30
0.0
 40
0.1995851037171519
 50
89.882647829860758
 51
179.1319057090831
  0
ARC
  5
1CF3
  8
0
 10
76.854284810432176
 20
62.731791782091847
 30
0.0
 40
0.1995851037171519
 50
0.8680942909168832
 51
90.117352170139227
  0
ARC
  5
1CF4
  8
0
 10
86.591787650166523
 20
62.731791782091847
 30
0.0
 40
0.1995851037171519
 50
89.882647829860758
 51
179.1319057090831
  0
ARC
  5
1CF5
  8
0
 10
94.854286238440835
 20
62.731791782091847
 30
0.0
 40
0.1995851037171519
 50
0.8680942909168832
 51
90.117352170139227
  0
ARC
  5
1CF6
  8
0
 10
104.5917890781753
 20
62.731791782091847
 30
0.0
 40
0.1995851037171519
 50
89.882647829860758
 51
179.1319057090831
  0
ARC
  5
1CF7
  8
0
 10
112.85428766644959
 20
62.731791782091847
 30
0.0
 40
0.1995851037171519
 50
0.8680942909168832
 51
90.117352170139227
  0
ARC
  5
1CF8
  8
0
 10
122.5917905061839
 20
62.731791782091847
 30
0.0
 40
0.1995851037171519
 50
89.882647829860758
 51
179.1319057090831
  0
ARC
  5
1CF9
  8
0
 10
130.85428909445821
 20
62.731791782091847
 30
0.0
 40
0.1995851037171519
 50
0.8680942909168832
 51
90.117352170139227
  0
POLYLINE
  5
1CFA
  8
0
 66
     1
 10
0.0
 20
0.0
 30
0.0
  0
VERTEX
  5
209A
  8
0
 10
68.332764835998177
 20
59.328400889136702
 30
0.0
  0
VERTEX
  5
209B
  8
0
 10
68.347168102040513
 20
59.265696475962187
 30
0.0
  0
VERTEX
  5
209C
  8
0
 10
68.390325632964476
 20
59.212167506815511
 30
0.0
  0
VERTEX
  5
209D
  8
0
 10
68.455549990739286
 20
59.176108516854732
 30
0.0
  0
VERTEX
  5
209E
  8
0
 10
68.532734390862373
 20
59.163106995823199
 30
0.0
  0
SEQEND
  5
209F
  8
0
  0
POLYLINE
  5
1CFB
  8
0
 66
     1
 10
0.0
 20
0.0
 30
0.0
  0
VERTEX
  5
20A0
  8
0
 10
77.113306196591992
 20
59.328400889136702
 30
0.0
  0
VERTEX
  5
20A1
  8
0
 10
77.098903543749287
 20
59.265697706162172
 30
0.0
  0
VERTEX
  5
20A2
  8
0
 10
77.055746829425487
 20
59.212168678015608
 30
0.0
  0
VERTEX
  5
20A3
  8
0
 10
76.990522305050803
 20
59.176108944454803
 30
0.0
  0
VERTEX
  5
20A4
  8
0
 10
76.913336641627296
 20
59.163106996523339
 30
0.0
  0
SEQEND
  5
20A5
  8
0
  0
POLYLINE
  5
1CFC
  8
0
 66
     1
 10
0.0
 20
0.0
 30
0.0
  0
VERTEX
  5
20A6
  8
0
 10
86.332766264006722
 20
59.328400889136589
 30
0.0
  0
VERTEX
  5
20A7
  8
0
 10
86.347169530049285
 20
59.265696475961903
 30
0.0
  0
VERTEX
  5
20A8
  8
0
 10
86.390327060973135
 20
59.212167506815511
 30
0.0
  0
VERTEX
  5
20A9
  8
0
 10
86.455551418747945
 20
59.176108516854732
 30
0.0
  0
VERTEX
  5
20AA
  8
0
 10
86.532735818870904
 20
59.163106995823249
 30
0.0
  0
SEQEND
  5
20AB
  8
0
  0
POLYLINE
  5
1CFD
  8
0
 66
     1
 10
0.0
 20
0.0
 30
0.0
  0
VERTEX
  5
20AC
  8
0
 10
95.113307624600765
 20
59.328400889136589
 30
0.0
  0
VERTEX
  5
20AD
  8
0
 10
95.098904971757946
 20
59.265697706162108
 30
0.0
  0
VERTEX
  5
20AE
  8
0
 10
95.055748257434146
 20
59.212168678015608
 30
0.0
  0
VERTEX
  5
20AF
  8
0
 10
94.990523733059575
 20
59.176108944454569
 30
0.0
  0
VERTEX
  5
20B0
  8
0
 10
94.913338069636296
 20
59.163106996523283
 30
0.0
  0
SEQEND
  5
20B1
  8
0
  0
POLYLINE
  5
1CFE
  8
0
 66
     1
 10
0.0
 20
0.0
 30
0.0
  0
VERTEX
  5
20B2
  8
0
 10
104.33276769201559
 20
59.328400889136589
 30
0.0
  0
VERTEX
  5
20B3
  8
0
 10
104.3471703448582
 20
59.265697706162108
 30
0.0
  0
VERTEX
  5
20B4
  8
0
 10
104.3903270591821
 20
59.212168678015608
 30
0.0
  0
VERTEX
  5
20B5
  8
0
 10
104.4555515835563
 20
59.176108944454569
 30
0.0
  0
VERTEX
  5
20B6
  8
0
 10
104.53273724697991
 20
59.163106996523339
 30
0.0
  0
SEQEND
  5
20B7
  8
0
  0
POLYLINE
  5
1CFF
  8
0
 66
     1
 10
0.0
 20
0.0
 30
0.0
  0
VERTEX
  5
20B8
  8
0
 10
113.1133090526094
 20
59.328400889136589
 30
0.0
  0
VERTEX
  5
20B9
  8
0
 10
113.0989057865666
 20
59.265696475961903
 30
0.0
  0
VERTEX
  5
20BA
  8
0
 10
113.0557482556426
 20
59.212167506815511
 30
0.0
  0
VERTEX
  5
20BB
  8
0
 10
112.9905238978683
 20
59.176108516854732
 30
0.0
  0
VERTEX
  5
20BC
  8
0
 10
112.913339497745
 20
59.163106995823249
 30
0.0
  0
SEQEND
  5
20BD
  8
0
  0
POLYLINE
  5
1D00
  8
0
 66
     1
 10
0.0
 20
0.0
 30
0.0
  0
VERTEX
  5
20BE
  8
0
 10
122.3327691200241
 20
59.328400889136702
 30
0.0
  0
VERTEX
  5
20BF
  8
0
 10
122.347171772867
 20
59.265697706162172
 30
0.0
  0
VERTEX
  5
20C0
  8
0
 10
122.3903284871908
 20
59.212168678015608
 30
0.0
  0
VERTEX
  5
20C1
  8
0
 10
122.455553011565
 20
59.176108944454803
 30
0.0
  0
VERTEX
  5
20C2
  8
0
 10
122.53273867498871
 20
59.163106996523283
 30
0.0
  0
SEQEND
  5
20C3
  8
0
  0
POLYLINE
  5
1D01
  8
0
 66
     1
 10
0.0
 20
0.0
 30
0.0
  0
VERTEX
  5
20C4
  8
0
 10
131.11331048061791
 20
59.328400889136702
 30
0.0
  0
VERTEX
  5
20C5
  8
0
 10
131.09890721457481
 20
59.265696475962187
 30
0.0
  0
VERTEX
  5
20C6
  8
0
 10
131.0557496836513
 20
59.212167506815511
 30
0.0
  0
VERTEX
  5
20C7
  8
0
 10
130.9905253258768
 20
59.176108516854732
 30
0.0
  0
VERTEX
  5
20C8
  8
0
 10
130.9133409257536
 20
59.163106995823249
 30
0.0
  0
SEQEND
  5
20C9
  8
0
  0
POLYLINE
  5
1D3F
  8
0
 66
     1
 10
0.0
 20
0.0
 30
0.0
  0
VERTEX
  5
20CA
  8
0
 10
58.233425760162483
 20
104.4728305014753
 30
0.0
  0
VERTEX
  5
20CB
  8
0
 10
58.461208381933353
 20
106.8177823624093
 30
0.0
  0
VERTEX
  5
20CC
  8
0
 10
58.721529927185742
 20
109.173849429925
 30
0.0
  0
VERTEX
  5
20CD
  8
0
 10
59.014566348533293
 20
111.5408749120103
 30
0.0
  0
VERTEX
  5
20CE
  8
0
 10
59.340507065391279
 20
113.9188045818603
 30
0.0
  0
VERTEX
  5
20CF
  8
0
 10
59.699542758574893
 20
116.3075680792701
 30
0.0
  0
VERTEX
  5
20D0
  8
0
 10
60.07874982827272
 20
118.6378107396859
 30
0.0
  0
VERTEX
  5
20D1
  8
0
 10
60.499199863253999
 20
121.0237480503541
 30
0.0
  0
VERTEX
  5
20D2
  8
0
 10
60.973451642180038
 20
123.5192931882456
 30
0.0
  0
VERTEX
  5
20D3
  8
0
 10
61.723037658308129
 20
127.13198460041041
 30
0.0
  0
VERTEX
  5
20D4
  8
0
 10
61.723037658308129
 20
127.13198460041041
 30
0.0
  0
SEQEND
  5
20D5
  8
0
  0
POLYLINE
  5
1D40
  8
0
 66
     1
 10
0.0
 20
0.0
 30
0.0
  0
VERTEX
  5
20D6
  8
0
 10
99.723037658308144
 20
102.1319846004105
 30
0.0
  0
VERTEX
  5
20D7
  8
0
 10
92.062324693524573
 20
102.1412776739437
 30
0.0
  0
VERTEX
  5
20D8
  8
0
 10
83.981324152655446
 20
102.166770765498
 30
0.0
  0
VERTEX
  5
20D9
  8
0
 10
75.900370807203643
 20
102.20435966796509
 30
0.0
  0
VERTEX
  5
20DA
  8
0
 10
67.819459511094664
 20
102.25012123593081
 30
0.0
  0
VERTEX
  5
20DB
  8
0
 10
59.738573193471638
 20
102.30007060430169
 30
0.0
  0
SEQEND
  5
20DC
  8
0
  0
POLYLINE
  5
1D41
  8
0
 66
     1
 10
0.0
 20
0.0
 30
0.0
  0
VERTEX
  5
20DD
  8
0
 10
59.738573193471638
 20
102.30007060430169
 30
0.0
  0
VERTEX
  5
20DE
  8
0
 10
59.588311011850777
 20
102.3101552921021
 30
0.0
  0
VERTEX
  5
20DF
  8
0
 10
59.51350946861632
 20
102.3220970648494
 30
0.0
  0
VERTEX
  5
20E0
  8
0
 10
59.438681063979942
 20
102.3387851997731
 30
0.0
  0
VERTEX
  5
20E1
  8
0
 10
59.288366006354948
 20
102.3872974683221
 30
0.0
  0
VERTEX
  5
20E2
  8
0
 10
59.212646792847828
 20
102.4197714011984
 30
0.0
  0
VERTEX
  5
20E3
  8
0
 10
59.136591119014241
 20
102.45822355204891
 30
0.0
  0
VERTEX
  5
20E4
  8
0
 10
59.060793491700757
 20
102.5027755668832
 30
0.0
  0
VERTEX
  5
20E5
  8
0
 10
58.985995298566621
 20
102.55334760879541
 30
0.0
  0
VERTEX
  5
20E6
  8
0
 10
58.840707841940542
 20
102.6729221395815
 30
0.0
  0
VERTEX
  5
20E7
  8
0
 10
58.770734216989318
 20
102.74222921388009
 30
0.0
  0
VERTEX
  5
20E8
  8
0
 10
58.702967801713243
 20
102.8180444045948
 30
0.0
  0
VERTEX
  5
20E9
  8
0
 10
58.637781716141689
 20
102.9004473678322
 30
0.0
  0
VERTEX
  5
20EA
  8
0
 10
58.575588825007429
 20
102.98947055879469
 30
0.0
  0
VERTEX
  5
20EB
  8
0
 10
58.516838549846597
 20
103.08508559908
 30
0.0
  0
VERTEX
  5
20EC
  8
0
 10
58.462010618596963
 20
103.18719054088059
 30
0.0
  0
VERTEX
  5
20ED
  8
0
 10
58.438513009240829
 20
103.23571607728969
 30
0.0
  0
VERTEX
  5
20EE
  8
0
 10
58.411606617898059
 20
103.295597532381
 30
0.0
  0
VERTEX
  5
20EF
  8
0
 10
58.366139060891413
 20
103.41002195715861
 30
0.0
  0
VERTEX
  5
20F0
  8
0
 10
58.326118095215939
 20
103.53007400488281
 30
0.0
  0
VERTEX
  5
20F1
  8
0
 10
58.292036327612408
 20
103.6552531957136
 30
0.0
  0
VERTEX
  5
20F2
  8
0
 10
58.264352021815938
 20
103.78494769070279
 30
0.0
  0
VERTEX
  5
20F3
  8
0
 10
58.254730803313997
 20
103.84060581279149
 30
0.0
  0
VERTEX
  5
20F4
  8
0
 10
58.243471908359624
 20
103.9184377718932
 30
0.0
  0
VERTEX
  5
20F5
  8
0
 10
58.229734272669788
 20
104.05490430911971
 30
0.0
  0
VERTEX
  5
20F6
  8
0
 10
58.223393330266468
 20
104.1934470896105
 30
0.0
  0
VERTEX
  5
20F7
  8
0
 10
58.223037658308243
 20
104.2617364476847
 30
0.0
  0
VERTEX
  5
20F8
  8
0
 10
58.224606639262987
 20
104.333088186889
 30
0.0
  0
VERTEX
  5
20F9
  8
0
 10
58.233425760162483
 20
104.4728305014753
 30
0.0
  0
SEQEND
  5
20FA
  8
0
  0
POLYLINE
  5
1D42
  8
0
 66
     1
 10
0.0
 20
0.0
 30
0.0
  0
VERTEX
  5
20FB
  8
0
 10
99.723037658308144
 20
102.1319846004105
 30
0.0
  0
VERTEX
  5
20FC
  8
0
 10
107.3837506230919
 20
102.1412776739437
 30
0.0
  0
VERTEX
  5
20FD
  8
0
 10
115.4647511639609
 20
102.166770765498
 30
0.0
  0
VERTEX
  5
20FE
  8
0
 10
123.5457045094127
 20
102.20435966796509
 30
0.0
  0
VERTEX
  5
20FF
  8
0
 10
131.62661580552179
 20
102.25012123593081
 30
0.0
  0
VERTEX
  5
2100
  8
0
 10
139.7075021231451
 20
102.30007060430169
 30
0.0
  0
SEQEND
  5
2101
  8
0
  0
POLYLINE
  5
1D45
  8
0
 66
     1
 10
0.0
 20
0.0
 30
0.0
  0
VERTEX
  5
2102
  8
0
 10
56.714702642548417
 20
99.18701557582979
 30
0.0
  0
VERTEX
  5
2103
  8
0
 10
56.573395337137839
 20
99.191304538569995
 30
0.0
  0
VERTEX
  5
2104
  8
0
 10
56.43229319364351
 20
99.202946587493685
 30
0.0
  0
VERTEX
  5
2105
  8
0
 10
56.152078746613221
 20
99.24825989758854
 30
0.0
  0
VERTEX
  5
2106
  8
0
 10
56.01359262932678
 20
99.281906434357737
 30
0.0
  0
VERTEX
  5
2107
  8
0
 10
55.876593649457817
 20
99.322858149206667
 30
0.0
  0
VERTEX
  5
2108
  8
0
 10
55.74137623213047
 20
99.371097258933688
 30
0.0
  0
VERTEX
  5
2109
  8
0
 10
55.608224981066968
 20
99.426606835037461
 30
0.0
  0
VERTEX
  5
210A
  8
0
 10
55.477415832789198
 20
99.489372138716732
 30
0.0
  0
VERTEX
  5
210B
  8
0
 10
55.349215861518779
 20
99.559382546571044
 30
0.0
  0
VERTEX
  5
210C
  8
0
 10
55.101669963280379
 20
99.721128723503014
 30
0.0
  0
VERTEX
  5
210D
  8
0
 10
54.982818196251372
 20
99.812882571382104
 30
0.0
  0
VERTEX
  5
210E
  8
0
 10
54.867565886807903
 20
99.911922630539223
 30
0.0
  0
VERTEX
  5
210F
  8
0
 10
54.756146195468517
 20
100.018292354378
 30
0.0
  0
VERTEX
  5
2110
  8
0
 10
54.648790289451512
 20
100.1320536023032
 30
0.0
  0
VERTEX
  5
2111
  8
0
 10
54.545730467275433
 20
100.25328886682119
 30
0.0
  0
VERTEX
  5
2112
  8
0
 10
54.447204172259013
 20
100.3821028679402
 30
0.0
  0
VERTEX
  5
2113
  8
0
 10
54.353459462021732
 20
100.51862240627121
 30
0.0
  0
VERTEX
  5
2114
  8
0
 10
54.264762099685043
 20
100.6629932407247
 30
0.0
  0
VERTEX
  5
2115
  8
0
 10
54.181404498972121
 20
100.81537189151329
 30
0.0
  0
VERTEX
  5
2116
  8
0
 10
54.103716547008702
 20
100.97590918854949
 30
0.0
  0
VERTEX
  5
2117
  8
0
 10
54.032078402725318
 20
101.1447197139416
 30
0.0
  0
VERTEX
  5
2118
  8
0
 10
53.966933410957353
 20
101.3218311450927
 30
0.0
  0
VERTEX
  5
2119
  8
0
 10
53.939552442261139
 20
101.4052192078512
 30
0.0
  0
VERTEX
  5
211A
  8
0
 10
53.908799696745369
 20
101.50709973909071
 30
0.0
  0
VERTEX
  5
211B
  8
0
 10
53.858267857136042
 20
101.7001039485027
 30
0.0
  0
VERTEX
  5
211C
  8
0
 10
53.815992110982251
 20
101.89994960775709
 30
0.0
  0
VERTEX
  5
211D
  8
0
 10
53.782612476434423
 20
102.1052286531424
 30
0.0
  0
VERTEX
  5
211E
  8
0
 10
53.768895898665249
 20
102.21403441989079
 30
0.0
  0
VERTEX
  5
211F
  8
0
 10
53.758863046350108
 20
102.31189428503821
 30
0.0
  0
VERTEX
  5
2120
  8
0
 10
53.744955231646799
 20
102.51417608998609
 30
0.0
  0
VERTEX
  5
2121
  8
0
 10
53.740230979872159
 20
102.7096891016966
 30
0.0
  0
SEQEND
  5
2122
  8
0
  0
POLYLINE
  5
1D47
  8
0
 66
     1
 10
0.0
 20
0.0
 30
0.0
  0
VERTEX
  5
2123
  8
0
 10
56.688455723165788
 20
97.833031003513057
 30
0.0
  0
VERTEX
  5
2124
  8
0
 10
55.91120138410335
 20
97.971282388180754
 30
0.0
  0
VERTEX
  5
2125
  8
0
 10
55.526774580305378
 20
98.149470969217319
 30
0.0
  0
VERTEX
  5
2126
  8
0
 10
55.14949650807452
 20
98.408590244574171
 30
0.0
  0
VERTEX
  5
2127
  8
0
 10
54.786679551490892
 20
98.756509118176055
 30
0.0
  0
VERTEX
  5
2128
  8
0
 10
54.450114583790047
 20
99.199794714343525
 30
0.0
  0
VERTEX
  5
2129
  8
0
 10
54.156147225068338
 20
99.740431960434208
 30
0.0
  0
VERTEX
  5
212A
  8
0
 10
53.924419040484359
 20
100.3720428482424
 30
0.0
  0
VERTEX
  5
212B
  8
0
 10
53.835090555366008
 20
100.73163987354221
 30
0.0
  0
VERTEX
  5
212C
  8
0
 10
53.774917644023922
 20
101.0762005246058
 30
0.0
  0
VERTEX
  5
212D
  8
0
 10
53.723037658308129
 20
101.82278685683529
 30
0.0
  0
SEQEND
  5
212E
  8
0
  0
POLYLINE
  5
1D48
  8
0
 66
     1
 10
0.0
 20
0.0
 30
0.0
  0
VERTEX
  5
212F
  8
0
 10
53.739893503845188
 20
129.3352665093052
 30
0.0
  0
VERTEX
  5
2130
  8
0
 10
53.745677641804228
 20
129.57040399635969
 30
0.0
  0
VERTEX
  5
2131
  8
0
 10
53.751753583335208
 20
129.67650729227449
 30
0.0
  0
VERTEX
  5
2132
  8
0
 10
53.762158828111723
 20
129.80644659928581
 30
0.0
  0
VERTEX
  5
2133
  8
0
 10
53.788954244037292
 20
130.0380207398575
 30
0.0
  0
VERTEX
  5
2134
  8
0
 10
53.825361565025531
 20
130.26223149544501
 30
0.0
  0
VERTEX
  5
2135
  8
0
 10
53.843136680013089
 20
130.35285165324001
 30
0.0
  0
VERTEX
  5
2136
  8
0
 10
53.870568467312381
 20
130.47736280761211
 30
0.0
  0
VERTEX
  5
2137
  8
0
 10
53.92378649993438
 20
130.68257895499261
 30
0.0
  0
VERTEX
  5
2138
  8
0
 10
53.984315470236282
 20
130.8776265646666
 30
0.0
  0
VERTEX
  5
2139
  8
0
 10
54.051559194071018
 20
131.0625904947405
 30
0.0
  0
VERTEX
  5
213A
  8
0
 10
54.125016286598651
 20
131.2377255811345
 30
0.0
  0
VERTEX
  5
213B
  8
0
 10
54.164559325927343
 20
131.32300107371219
 30
0.0
  0
VERTEX
  5
213C
  8
0
 10
54.204262478385402
 20
131.40335436797429
 30
0.0
  0
VERTEX
  5
213D
  8
0
 10
54.2889323255026
 20
131.5598098801868
 30
0.0
  0
VERTEX
  5
213E
  8
0
 10
54.37870347352461
 20
131.70740641599619
 30
0.0
  0
VERTEX
  5
213F
  8
0
 10
54.473284260828187
 20
131.84642665702509
 30
0.0
  0
VERTEX
  5
2140
  8
0
 10
54.675806439794847
 20
132.09968973191729
 30
0.0
  0
VERTEX
  5
2141
  8
0
 10
54.783243227818012
 20
132.2143219654117
 30
0.0
  0
VERTEX
  5
2142
  8
0
 10
54.894471561842437
 20
132.3211630505879
 30
0.0
  0
VERTEX
  5
2143
  8
0
 10
55.009250971048203
 20
132.42033657045539
 30
0.0
  0
VERTEX
  5
2144
  8
0
 10
55.127341536316941
 20
132.51194425192301
 30
0.0
  0
VERTEX
  5
2145
  8
0
 10
55.248502640029038
 20
132.59606925649729
 30
0.0
  0
VERTEX
  5
2146
  8
0
 10
55.372492167165632
 20
132.67277909818259
 30
0.0
  0
VERTEX
  5
2147
  8
0
 10
55.627977513534319
 20
132.8041596968057
 30
0.0
  0
VERTEX
  5
2148
  8
0
 10
55.75897746372695
 20
132.8589077678489
 30
0.0
  0
VERTEX
  5
2149
  8
0
 10
55.891813388465351
 20
132.90639850881661
 30
0.0
  0
VERTEX
  5
214A
  8
0
 10
56.026229882128831
 20
132.94665163641031
 30
0.0
  0
VERTEX
  5
214B
  8
0
 10
56.161966673297769
 20
132.97968107933031
 30
0.0
  0
VERTEX
  5
214C
  8
0
 10
56.436342996364921
 20
133.0241044108549
 30
0.0
  0
VERTEX
  5
214D
  8
0
 10
56.574449042821442
 20
133.03550830775961
 30
0.0
  0
VERTEX
  5
214E
  8
0
 10
56.71276330699456
 20
133.03970859939281
 30
0.0
  0
SEQEND
  5
214F
  8
0
  0
POLYLINE
  5
1D4A
  8
0
 66
     1
 10
0.0
 20
0.0
 30
0.0
  0
VERTEX
  5
2150
  8
0
 10
53.723037658308129
 20
130.40775252118959
 30
0.0
  0
VERTEX
  5
2151
  8
0
 10
53.748751682998169
 20
130.9929787392158
 30
0.0
  0
VERTEX
  5
2152
  8
0
 10
53.781981079084261
 20
131.29084857564899
 30
0.0
  0
VERTEX
  5
2153
  8
0
 10
53.948957530731228
 20
132.11000443633591
 30
0.0
  0
VERTEX
  5
2154
  8
0
 10
54.198964464664947
 20
132.82135475697001
 30
0.0
  0
VERTEX
  5
2155
  8
0
 10
54.5053793584743
 20
133.4115728915942
 30
0.0
  0
VERTEX
  5
2156
  8
0
 10
54.848702523711353
 20
133.8861094052408
 30
0.0
  0
VERTEX
  5
2157
  8
0
 10
55.212221282650567
 20
134.25175533784909
 30
0.0
  0
VERTEX
  5
2158
  8
0
 10
55.581958123083353
 20
134.51765295044379
 30
0.0
  0
VERTEX
  5
2159
  8
0
 10
56.318423615210087
 20
134.79946547480111
 30
0.0
  0
VERTEX
  5
215A
  8
0
 10
56.68457995385868
 20
134.83303393886419
 30
0.0
  0
SEQEND
  5
215B
  8
0
  0
LINE
  5
1D4B
  8
0
 10
145.7230376583081
 20
130.40775252119039
 30
0.0
 11
145.72303765830861
 21
101.8227868568361
 31
0.0
  0
POLYLINE
  5
1D4D
  8
0
 66
     1
 10
0.0
 20
0.0
 30
0.0
  0
VERTEX
  5
215C
  8
0
 10
142.73137267406841
 20
99.187015575830515
 30
0.0
  0
VERTEX
  5
215D
  8
0
 10
142.8726799794791
 20
99.191304538570705
 30
0.0
  0
VERTEX
  5
215E
  8
0
 10
143.01378212297331
 20
99.202946587494395
 30
0.0
  0
VERTEX
  5
215F
  8
0
 10
143.29399657000371
 20
99.248259897589264
 30
0.0
  0
VERTEX
  5
2160
  8
0
 10
143.4324826872901
 20
99.281906434358518
 30
0.0
  0
VERTEX
  5
2161
  8
0
 10
143.56948166715901
 20
99.322858149207434
 30
0.0
  0
VERTEX
  5
2162
  8
0
 10
143.70469908448629
 20
99.371097258934469
 30
0.0
  0
VERTEX
  5
2163
  8
0
 10
143.8378503355498
 20
99.426606835038243
 30
0.0
  0
VERTEX
  5
2164
  8
0
 10
143.96865948382759
 20
99.489372138717513
 30
0.0
  0
VERTEX
  5
2165
  8
0
 10
144.0968594550981
 20
99.559382546571825
 30
0.0
  0
VERTEX
  5
2166
  8
0
 10
144.34440535333641
 20
99.721128723503796
 30
0.0
  0
VERTEX
  5
2167
  8
0
 10
144.4632571203654
 20
99.812882571382886
 30
0.0
  0
VERTEX
  5
2168
  8
0
 10
144.57850942980889
 20
99.911922630540005
 30
0.0
  0
VERTEX
  5
2169
  8
0
 10
144.68992912114831
 20
100.0182923543788
 30
0.0
  0
VERTEX
  5
216A
  8
0
 10
144.79728502716529
 20
100.132053602304
 30
0.0
  0
VERTEX
  5
216B
  8
0
 10
144.90034484934139
 20
100.253288866822
 30
0.0
  0
VERTEX
  5
216C
  8
0
 10
144.99887114435779
 20
100.382102867941
 30
0.0
  0
VERTEX
  5
216D
  8
0
 10
145.0926158545951
 20
100.5186224062719
 30
0.0
  0
VERTEX
  5
216E
  8
0
 10
145.18131321693181
 20
100.6629932407255
 30
0.0
  0
VERTEX
  5
216F
  8
0
 10
145.26467081764471
 20
100.8153718915141
 30
0.0
  0
VERTEX
  5
2170
  8
0
 10
145.3423587696081
 20
100.9759091885503
 30
0.0
  0
VERTEX
  5
2171
  8
0
 10
145.4139969138914
 20
101.14471971394239
 30
0.0
  0
VERTEX
  5
2172
  8
0
 10
145.4791419056593
 20
101.3218311450935
 30
0.0
  0
VERTEX
  5
2173
  8
0
 10
145.50652287435551
 20
101.405219207852
 30
0.0
  0
VERTEX
  5
2174
  8
0
 10
145.53727561987139
 20
101.5070997390914
 30
0.0
  0
VERTEX
  5
2175
  8
0
 10
145.5878074594807
 20
101.7001039485034
 30
0.0
  0
VERTEX
  5
2176
  8
0
 10
145.63008320563441
 20
101.8999496077579
 30
0.0
  0
VERTEX
  5
2177
  8
0
 10
145.66346284018229
 20
102.1052286531431
 30
0.0
  0
VERTEX
  5
2178
  8
0
 10
145.67717941795141
 20
102.2140344198915
 30
0.0
  0
VERTEX
  5
2179
  8
0
 10
145.6872122702666
 20
102.311894285039
 30
0.0
  0
VERTEX
  5
217A
  8
0
 10
145.70112008496989
 20
102.5141760899869
 30
0.0
  0
VERTEX
  5
217B
  8
0
 10
145.7058443367446
 20
102.70968910169741
 30
0.0
  0
SEQEND
  5
217C
  8
0
  0
POLYLINE
  5
1D4F
  8
0
 66
     1
 10
0.0
 20
0.0
 30
0.0
  0
VERTEX
  5
217D
  8
0
 10
142.75761959345101
 20
97.833031003513781
 30
0.0
  0
VERTEX
  5
217E
  8
0
 10
143.53487393251339
 20
97.971282388181535
 30
0.0
  0
VERTEX
  5
217F
  8
0
 10
143.91930073631141
 20
98.149470969218115
 30
0.0
  0
VERTEX
  5
2180
  8
0
 10
144.29657880854231
 20
98.408590244574896
 30
0.0
  0
VERTEX
  5
2181
  8
0
 10
144.65939576512591
 20
98.756509118176837
 30
0.0
  0
VERTEX
  5
2182
  8
0
 10
144.99596073282669
 20
99.199794714344307
 30
0.0
  0
VERTEX
  5
2183
  8
0
 10
145.28992809154849
 20
99.740431960434989
 30
0.0
  0
VERTEX
  5
2184
  8
0
 10
145.5216562761326
 20
100.3720428482432
 30
0.0
  0
VERTEX
  5
2185
  8
0
 10
145.61098476125079
 20
100.731639873543
 30
0.0
  0
VERTEX
  5
2186
  8
0
 10
145.6711576725927
 20
101.07620052460651
 30
0.0
  0
VERTEX
  5
2187
  8
0
 10
145.72303765830861
 20
101.8227868568361
 30
0.0
  0
SEQEND
  5
2188
  8
0
  0
POLYLINE
  5
1D50
  8
0
 66
     1
 10
0.0
 20
0.0
 30
0.0
  0
VERTEX
  5
2189
  8
0
 10
145.70618181277101
 20
129.33526650930591
 30
0.0
  0
VERTEX
  5
218A
  8
0
 10
145.700397674812
 20
129.57040399636051
 30
0.0
  0
VERTEX
  5
218B
  8
0
 10
145.69432173328099
 20
129.6765072922752
 30
0.0
  0
VERTEX
  5
218C
  8
0
 10
145.68391648850451
 20
129.8064465992866
 30
0.0
  0
VERTEX
  5
218D
  8
0
 10
145.65712107257889
 20
130.03802073985821
 30
0.0
  0
VERTEX
  5
218E
  8
0
 10
145.6207137515907
 20
130.2622314954458
 30
0.0
  0
VERTEX
  5
218F
  8
0
 10
145.60293863660311
 20
130.3528516532408
 30
0.0
  0
VERTEX
  5
2190
  8
0
 10
145.57550684930379
 20
130.47736280761291
 30
0.0
  0
VERTEX
  5
2191
  8
0
 10
145.52228881668191
 20
130.6825789549934
 30
0.0
  0
VERTEX
  5
2192
  8
0
 10
145.46175984638001
 20
130.87762656466739
 30
0.0
  0
VERTEX
  5
2193
  8
0
 10
145.39451612254521
 20
131.0625904947413
 30
0.0
  0
VERTEX
  5
2194
  8
0
 10
145.32105903001761
 20
131.23772558113529
 30
0.0
  0
VERTEX
  5
2195
  8
0
 10
145.281515990689
 20
131.32300107371299
 30
0.0
  0
VERTEX
  5
2196
  8
0
 10
145.2418128382308
 20
131.40335436797511
 30
0.0
  0
VERTEX
  5
2197
  8
0
 10
145.1571429911136
 20
131.5598098801876
 30
0.0
  0
VERTEX
  5
2198
  8
0
 10
145.06737184309159
 20
131.70740641599701
 30
0.0
  0
VERTEX
  5
2199
  8
0
 10
144.97279105578809
 20
131.84642665702589
 30
0.0
  0
VERTEX
  5
219A
  8
0
 10
144.7702688768214
 20
132.09968973191809
 30
0.0
  0
VERTEX
  5
219B
  8
0
 10
144.66283208879821
 20
132.21432196541249
 30
0.0
  0
VERTEX
  5
219C
  8
0
 10
144.55160375477379
 20
132.32116305058869
 30
0.0
  0
VERTEX
  5
219D
  8
0
 10
144.436824345568
 20
132.42033657045619
 30
0.0
  0
VERTEX
  5
219E
  8
0
 10
144.3187337802994
 20
132.51194425192381
 30
0.0
  0
VERTEX
  5
219F
  8
0
 10
144.19757267658721
 20
132.59606925649811
 30
0.0
  0
VERTEX
  5
21A0
  8
0
 10
144.0735831494506
 20
132.67277909818341
 30
0.0
  0
VERTEX
  5
21A1
  8
0
 10
143.81809780308191
 20
132.80415969680649
 30
0.0
  0
VERTEX
  5
21A2
  8
0
 10
143.68709785288931
 20
132.8589077678497
 30
0.0
  0
VERTEX
  5
21A3
  8
0
 10
143.55426192815091
 20
132.9063985088174
 30
0.0
  0
VERTEX
  5
21A4
  8
0
 10
143.4198454344874
 20
132.9466516364111
 30
0.0
  0
VERTEX
  5
21A5
  8
0
 10
143.2841086433186
 20
132.9796810793311
 30
0.0
  0
VERTEX
  5
21A6
  8
0
 10
143.00973232025129
 20
133.0241044108557
 30
0.0
  0
VERTEX
  5
21A7
  8
0
 10
142.87162627379479
 20
133.03550830776041
 30
0.0
  0
VERTEX
  5
21A8
  8
0
 10
142.7333120096217
 20
133.03970859939361
 30
0.0
  0
SEQEND
  5
21A9
  8
0
  0
POLYLINE
  5
1D52
  8
0
 66
     1
 10
0.0
 20
0.0
 30
0.0
  0
VERTEX
  5
21AA
  8
0
 10
145.7230376583081
 20
130.40775252119039
 30
0.0
  0
VERTEX
  5
21AB
  8
0
 10
145.6973236336182
 20
130.9929787392166
 30
0.0
  0
VERTEX
  5
21AC
  8
0
 10
145.664094237532
 20
131.29084857564979
 30
0.0
  0
VERTEX
  5
21AD
  8
0
 10
145.497117785885
 20
132.11000443633671
 30
0.0
  0
VERTEX
  5
21AE
  8
0
 10
145.24711085195131
 20
132.82135475697081
 30
0.0
  0
VERTEX
  5
21AF
  8
0
 10
144.94069595814179
 20
133.411572891595
 30
0.0
  0
VERTEX
  5
21B0
  8
0
 10
144.59737279290479
 20
133.8861094052416
 30
0.0
  0
VERTEX
  5
21B1
  8
0
 10
144.2338540339656
 20
134.25175533784989
 30
0.0
  0
VERTEX
  5
21B2
  8
0
 10
143.86411719353291
 20
134.51765295044461
 30
0.0
  0
VERTEX
  5
21B3
  8
0
 10
143.12765170140599
 20
134.79946547480191
 30
0.0
  0
VERTEX
  5
21B4
  8
0
 10
142.7614953627575
 20
134.83303393886499
 30
0.0
  0
SEQEND
  5
21B5
  8
0
  0
LINE
  5
1D65
  8
0
 10
53.723037658308129
 20
169.12407219016009
 30
0.0
 11
53.740230979848292
 21
168.139067457549
 31
0.0
  0
POLYLINE
  5
1D66
  8
0
 66
     1
 10
0.0
 20
0.0
 30
0.0
  0
VERTEX
  5
21B6
  8
0
 10
56.372517707446008
 20
169.39983348543731
 30
0.0
  0
VERTEX
  5
21B7
  8
0
 10
56.44644910541146
 20
170.28864318604991
 30
0.0
  0
VERTEX
  5
21B8
  8
0
 10
56.633698845666537
 20
172.35635381268929
 30
0.0
  0
VERTEX
  5
21B9
  8
0
 10
56.839924785127288
 20
174.38668609496341
 30
0.0
  0
VERTEX
  5
21BA
  8
0
 10
57.065909773555489
 20
176.37932055814659
 30
0.0
  0
VERTEX
  5
21BB
  8
0
 10
57.31242498961236
 20
178.33394945241471
 30
0.0
  0
VERTEX
  5
21BC
  8
0
 10
57.572762621066062
 20
180.19940649480861
 30
0.0
  0
SEQEND
  5
21BD
  8
0
  0
POLYLINE
  5
1D67
  8
0
 66
     1
 10
0.0
 20
0.0
 30
0.0
  0
VERTEX
  5
21BE
  8
0
 10
57.572755661965601
 20
180.1993578499046
 30
0.0
  0
VERTEX
  5
21BF
  8
0
 10
57.650216483910611
 20
180.70319599707611
 30
0.0
  0
VERTEX
  5
21C0
  8
0
 10
57.739710320410687
 20
181.2288311135768
 30
0.0
  0
VERTEX
  5
21C1
  8
0
 10
57.83357542305734
 20
181.7232049455973
 30
0.0
  0
VERTEX
  5
21C2
  8
0
 10
57.931618286035217
 20
182.1852096838501
 30
0.0
  0
VERTEX
  5
21C3
  8
0
 10
58.033760386338798
 20
182.61476930022849
 30
0.0
  0
VERTEX
  5
21C4
  8
0
 10
58.140060783671821
 20
183.01259570368961
 30
0.0
  0
VERTEX
  5
21C5
  8
0
 10
58.25065597654585
 20
183.37975225151749
 30
0.0
  0
VERTEX
  5
21C6
  8
0
 10
58.365832729083387
 20
183.7176578297248
 30
0.0
  0
VERTEX
  5
21C7
  8
0
 10
58.486045846220321
 20
184.028082341052
 30
0.0
  0
VERTEX
  5
21C8
  8
0
 10
58.612062204117791
 20
184.3132072247719
 30
0.0
  0
VERTEX
  5
21C9
  8
0
 10
58.744800699648152
 20
184.57502524394309
 30
0.0
  0
VERTEX
  5
21CA
  8
0
 10
58.885874614840283
 20
184.81623720527929
 30
0.0
  0
VERTEX
  5
21CB
  8
0
 10
59.036922125123141
 20
185.0386061424206
 30
0.0
  0
VERTEX
  5
21CC
  8
0
 10
59.20046484669782
 20
185.2441403384266
 30
0.0
  0
VERTEX
  5
21CD
  8
0
 10
59.37936565279049
 20
185.4338924634803
 30
0.0
  0
VERTEX
  5
21CE
  8
0
 10
59.575023014813013
 20
185.6063559234625
 30
0.0
  0
VERTEX
  5
21CF
  8
0
 10
59.789270797410012
 20
185.7599197407452
 30
0.0
  0
VERTEX
  5
21D0
  8
0
 10
60.020897576985902
 20
185.89065460041689
 30
0.0
  0
VERTEX
  5
21D1
  8
0
 10
60.268312425914218
 20
185.9951970078107
 30
0.0
  0
VERTEX
  5
21D2
  8
0
 10
60.527810921801432
 20
186.0701656007582
 30
0.0
  0
VERTEX
  5
21D3
  8
0
 10
60.793908612211879
 20
186.11317021027
 30
0.0
  0
VERTEX
  5
21D4
  8
0
 10
61.01176049069462
 20
186.1240721248349
 30
0.0
  0
SEQEND
  5
21D5
  8
0
  0
LINE
  5
1D6E
  8
0
 10
138.43431482592121
 20
186.1240721248349
 30
0.0
 11
61.013170658406779
 21
186.12407353883501
 31
0.0
  0
LINE
  5
1D72
  8
1
 10
99.723037658308144
 20
164.12421939468859
 30
0.0
 11
99.723037658308144
 21
189.1240728318478
 31
0.0
  0
POLYLINE
  5
1D77
  8
0
 66
     1
 10
0.0
 20
0.0
 30
0.0
  0
VERTEX
  5
21D6
  8
0
 10
56.073498522723717
 20
169.12407036915991
 30
0.0
  0
VERTEX
  5
21D7
  8
0
 10
56.11670486065119
 20
169.12719800230809
 30
0.0
  0
VERTEX
  5
21D8
  8
0
 10
56.159055099111328
 20
169.1365290062482
 30
0.0
  0
VERTEX
  5
21D9
  8
0
 10
56.199631311130098
 20
169.15187477146571
 30
0.0
  0
VERTEX
  5
21DA
  8
0
 10
56.237573046240392
 20
169.17291418393501
 30
0.0
  0
VERTEX
  5
21DB
  8
0
 10
56.27207663877752
 20
169.19920024972029
 30
0.0
  0
VERTEX
  5
21DC
  8
0
 10
56.30242757238554
 20
169.23018559607851
 30
0.0
  0
VERTEX
  5
21DD
  8
0
 10
56.327993588213623
 20
169.26522428195821
 30
0.0
  0
VERTEX
  5
21DE
  8
0
 10
56.348239840320019
 20
169.30358358790139
 30
0.0
  0
VERTEX
  5
21DF
  8
0
 10
56.362743183870599
 20
169.3444621885445
 30
0.0
  0
VERTEX
  5
21E0
  8
0
 10
56.371200141241353
 20
169.3870054459195
 30
0.0
  0
VERTEX
  5
21E1
  8
0
 10
56.372518446546202
 20
169.3998382910377
 30
0.0
  0
SEQEND
  5
21E2
  8
0
  0
LINE
  5
1D79
  8
0
 10
145.72291058887231
 20
169.11679238703229
 30
0.0
 11
53.723037658308129
 21
169.12407219016009
 31
0.0
  0
LINE
  5
1D7B
  8
0
 10
144.69941588762441
 20
167.12436596167839
 30
0.0
 11
54.741461735603622
 21
167.1240728107926
 31
0.0
  0
ARC
  5
1D7D
  8
0
 10
54.775496629888579
 20
168.15907090447831
 30
0.0
 40
1.0355575444957159
 50
182.89961103941789
 51
268.11656334138439
  0
ARC
  5
1D7E
  8
0
 10
54.760669788827471
 20
168.15689699923041
 30
0.0
 40
1.020594559767654
 50
181.00099441870071
 51
182.81983246249979
  0
LINE
  5
1D8C
  8
0
 10
145.7229105888722
 20
169.11679238703221
 30
0.0
 11
145.70584433676831
 21
168.139067457549
 31
0.0
  0
POLYLINE
  5
1D8D
  8
0
 66
     1
 10
0.0
 20
0.0
 30
0.0
  0
VERTEX
  5
21E3
  8
0
 10
143.0735576091698
 20
169.39983348543731
 30
0.0
  0
VERTEX
  5
21E4
  8
0
 10
142.9996262112046
 20
170.28864318604991
 30
0.0
  0
VERTEX
  5
21E5
  8
0
 10
142.8123764709494
 20
172.35635381268929
 30
0.0
  0
VERTEX
  5
21E6
  8
0
 10
142.60615053148859
 20
174.38668609496341
 30
0.0
  0
VERTEX
  5
21E7
  8
0
 10
142.38016554306071
 20
176.37932055814659
 30
0.0
  0
VERTEX
  5
21E8
  8
0
 10
142.13365032700341
 20
178.33394945241471
 30
0.0
  0
VERTEX
  5
21E9
  8
0
 10
141.87331269555
 20
180.19940649480861
 30
0.0
  0
SEQEND
  5
21EA
  8
0
  0
POLYLINE
  5
1D8E
  8
0
 66
     1
 10
0.0
 20
0.0
 30
0.0
  0
VERTEX
  5
21EB
  8
0
 10
141.8733196546506
 20
180.1993578499046
 30
0.0
  0
VERTEX
  5
21EC
  8
0
 10
141.79585883270519
 20
180.70319599707611
 30
0.0
  0
VERTEX
  5
21ED
  8
0
 10
141.70636499620551
 20
181.2288311135768
 30
0.0
  0
VERTEX
  5
21EE
  8
0
 10
141.61249989355869
 20
181.7232049455973
 30
0.0
  0
VERTEX
  5
21EF
  8
0
 10
141.5144570305807
 20
182.1852096838501
 30
0.0
  0
VERTEX
  5
21F0
  8
0
 10
141.4123149302774
 20
182.61476930022849
 30
0.0
  0
VERTEX
  5
21F1
  8
0
 10
141.30601453294389
 20
183.01259570368961
 30
0.0
  0
VERTEX
  5
21F2
  8
0
 10
141.19541934007
 20
183.37975225151749
 30
0.0
  0
VERTEX
  5
21F3
  8
0
 10
141.0802425875325
 20
183.7176578297248
 30
0.0
  0
VERTEX
  5
21F4
  8
0
 10
140.96002947039571
 20
184.028082341052
 30
0.0
  0
VERTEX
  5
21F5
  8
0
 10
140.8340131124983
 20
184.3132072247719
 30
0.0
  0
VERTEX
  5
21F6
  8
0
 10
140.70127461696751
 20
184.57502524394309
 30
0.0
  0
VERTEX
  5
21F7
  8
0
 10
140.56020070177601
 20
184.81623720527929
 30
0.0
  0
VERTEX
  5
21F8
  8
0
 10
140.40915319149241
 20
185.0386061424206
 30
0.0
  0
VERTEX
  5
21F9
  8
0
 10
140.24561046991809
 20
185.2441403384266
 30
0.0
  0
VERTEX
  5
21FA
  8
0
 10
140.06670966382541
 20
185.4338924634803
 30
0.0
  0
VERTEX
  5
21FB
  8
0
 10
139.87105230180291
 20
185.6063559234625
 30
0.0
  0
VERTEX
  5
21FC
  8
0
 10
139.65680451920551
 20
185.7599197407452
 30
0.0
  0
VERTEX
  5
21FD
  8
0
 10
139.42517773962999
 20
185.89065460041689
 30
0.0
  0
VERTEX
  5
21FE
  8
0
 10
139.17776289070181
 20
185.9951970078107
 30
0.0
  0
VERTEX
  5
21FF
  8
0
 10
138.9182643948148
 20
186.0701656007582
 30
0.0
  0
VERTEX
  5
2200
  8
0
 10
138.6521667044039
 20
186.11317021027
 30
0.0
  0
VERTEX
  5
2201
  8
0
 10
138.43431482592121
 20
186.1240721248349
 30
0.0
  0
SEQEND
  5
2202
  8
0
  0
POLYLINE
  5
1D9A
  8
0
 66
     1
 10
0.0
 20
0.0
 30
0.0
  0
VERTEX
  5
2203
  8
0
 10
143.37257679389219
 20
169.12407036915991
 30
0.0
  0
VERTEX
  5
2204
  8
0
 10
143.32937045596469
 20
169.12719800230809
 30
0.0
  0
VERTEX
  5
2205
  8
0
 10
143.28702021750479
 20
169.1365290062482
 30
0.0
  0
VERTEX
  5
2206
  8
0
 10
143.2464440054857
 20
169.15187477146571
 30
0.0
  0
VERTEX
  5
2207
  8
0
 10
143.2085022703755
 20
169.17291418393501
 30
0.0
  0
VERTEX
  5
2208
  8
0
 10
143.17399867783811
 20
169.19920024972029
 30
0.0
  0
VERTEX
  5
2209
  8
0
 10
143.14364774423041
 20
169.23018559607851
 30
0.0
  0
VERTEX
  5
220A
  8
0
 10
143.11808172840219
 20
169.26522428195821
 30
0.0
  0
VERTEX
  5
220B
  8
0
 10
143.09783547629621
 20
169.30358358790139
 30
0.0
  0
VERTEX
  5
220C
  8
0
 10
143.0833321327454
 20
169.3444621885445
 30
0.0
  0
VERTEX
  5
220D
  8
0
 10
143.07487517537439
 20
169.3870054459195
 30
0.0
  0
VERTEX
  5
220E
  8
0
 10
143.07355687006981
 20
169.3998382910377
 30
0.0
  0
SEQEND
  5
220F
  8
0
  0
ARC
  5
1D9D
  8
0
 10
144.6714086140785
 20
168.1586966457734
 30
0.0
 40
1.03470980058747
 50
271.55105768229851
 51
357.1187617942993
  0
ARC
  5
1D9E
  8
0
 10
144.6854055277891
 20
168.1568969992303
 30
0.0
 40
1.020594559767654
 50
357.1801675375001
 51
358.99900558129929
  0
POLYLINE
  5
1E99
  8
0
 66
     1
 10
0.0
 20
0.0
 30
0.0
  0
VERTEX
  5
2210
  8
0
 10
139.70750212314459
 20
102.30007060430169
 30
0.0
  0
VERTEX
  5
2211
  8
0
 10
139.85776430476551
 20
102.3101552921021
 30
0.0
  0
VERTEX
  5
2212
  8
0
 10
139.93256584799991
 20
102.3220970648494
 30
0.0
  0
VERTEX
  5
2213
  8
0
 10
140.00739425263629
 20
102.3387851997731
 30
0.0
  0
VERTEX
  5
2214
  8
0
 10
140.15770931026131
 20
102.3872974683221
 30
0.0
  0
VERTEX
  5
2215
  8
0
 10
140.2334285237684
 20
102.4197714011984
 30
0.0
  0
VERTEX
  5
2216
  8
0
 10
140.30948419760199
 20
102.45822355204891
 30
0.0
  0
VERTEX
  5
2217
  8
0
 10
140.3852818249155
 20
102.5027755668832
 30
0.0
  0
VERTEX
  5
2218
  8
0
 10
140.46008001804961
 20
102.55334760879541
 30
0.0
  0
VERTEX
  5
2219
  8
0
 10
140.60536747467569
 20
102.6729221395815
 30
0.0
  0
VERTEX
  5
221A
  8
0
 10
140.67534109962691
 20
102.74222921388009
 30
0.0
  0
VERTEX
  5
221B
  8
0
 10
140.74310751490299
 20
102.8180444045948
 30
0.0
  0
VERTEX
  5
221C
  8
0
 10
140.80829360047451
 20
102.9004473678322
 30
0.0
  0
VERTEX
  5
221D
  8
0
 10
140.8704864916088
 20
102.98947055879469
 30
0.0
  0
VERTEX
  5
221E
  8
0
 10
140.92923676676961
 20
103.08508559908
 30
0.0
  0
VERTEX
  5
221F
  8
0
 10
140.9840646980193
 20
103.18719054088059
 30
0.0
  0
VERTEX
  5
2220
  8
0
 10
141.00756230737539
 20
103.23571607728969
 30
0.0
  0
VERTEX
  5
2221
  8
0
 10
141.0344686987182
 20
103.295597532381
 30
0.0
  0
VERTEX
  5
2222
  8
0
 10
141.07993625572479
 20
103.41002195715861
 30
0.0
  0
VERTEX
  5
2223
  8
0
 10
141.11995722140031
 20
103.53007400488281
 30
0.0
  0
VERTEX
  5
2224
  8
0
 10
141.15403898900379
 20
103.6552531957136
 30
0.0
  0
VERTEX
  5
2225
  8
0
 10
141.18172329480029
 20
103.78494769070279
 30
0.0
  0
VERTEX
  5
2226
  8
0
 10
141.1913445133022
 20
103.84060581279149
 30
0.0
  0
VERTEX
  5
2227
  8
0
 10
141.20260340825661
 20
103.9184377718932
 30
0.0
  0
VERTEX
  5
2228
  8
0
 10
141.21634104394639
 20
104.05490430911971
 30
0.0
  0
VERTEX
  5
2229
  8
0
 10
141.22268198634981
 20
104.1934470896105
 30
0.0
  0
VERTEX
  5
222A
  8
0
 10
141.22303765830799
 20
104.2617364476847
 30
0.0
  0
VERTEX
  5
222B
  8
0
 10
141.22146867735319
 20
104.333088186889
 30
0.0
  0
VERTEX
  5
222C
  8
0
 10
141.21264955645381
 20
104.4728305014753
 30
0.0
  0
SEQEND
  5
222D
  8
0
  0
LINE
  5
1E9D
  8
0
 10
62.060942231722571
 20
128.6521888239009
 30
0.0
 11
137.38513308489371
 21
128.6521888239009
 31
0.0
  0
ARC
  5
1EA0
  8
0
 10
-43.613268313353579
 20
87.622972590777493
 30
0.0
 40
185.5904574417161
 50
12.29134407275758
 51
12.772119296106689
  0
POLYLINE
  5
1EA1
  8
0
 66
     1
 10
0.0
 20
0.0
 30
0.0
  0
VERTEX
  5
222E
  8
0
 10
141.21264955645381
 20
104.4728305014753
 30
0.0
  0
VERTEX
  5
222F
  8
0
 10
140.98486693468291
 20
106.8177823624093
 30
0.0
  0
VERTEX
  5
2230
  8
0
 10
140.72454538943049
 20
109.173849429925
 30
0.0
  0
VERTEX
  5
2231
  8
0
 10
140.43150896808291
 20
111.5408749120103
 30
0.0
  0
VERTEX
  5
2232
  8
0
 10
140.10556825122489
 20
113.9188045818603
 30
0.0
  0
VERTEX
  5
2233
  8
0
 10
139.74653255804131
 20
116.3075680792701
 30
0.0
  0
VERTEX
  5
2234
  8
0
 10
139.36732548834351
 20
118.6378107396859
 30
0.0
  0
VERTEX
  5
2235
  8
0
 10
138.9468754533622
 20
121.0237480503541
 30
0.0
  0
VERTEX
  5
2236
  8
0
 10
138.47262367443619
 20
123.5192931882456
 30
0.0
  0
VERTEX
  5
2237
  8
0
 10
137.7230376583081
 20
127.13198460041041
 30
0.0
  0
VERTEX
  5
2238
  8
0
 10
137.7230376583081
 20
127.13198460041041
 30
0.0
  0
SEQEND
  5
2239
  8
0
  0
TEXT
  5
1F7D
  8
0
 62
     3
 10
0.0
 20
0.0
 30
0.0
 40
10.0
  1
FPH92SL
  7
STANDARD1
  0
ENDSEC
  0
EOF
