  0
SECTION
  2
HEADER
  9
$ACADVER
  1
AC1009
  9
$INSBASE
 10
0.0
 20
0.0
 30
0.0
  9
$EXTMIN
 10
0.0
 20
-2.960436562073669
 30
0.0
  9
$EXTMAX
 10
217.4210049060793
 20
189.1240728318478
 30
0.0
  9
$LIMMIN
 10
0.0
 20
0.0
  9
$LIMMAX
 10
750.0
 20
540.0
  9
$ORTHOMODE
 70
     1
  9
$REGENMODE
 70
     1
  9
$FILLMODE
 70
     1
  9
$QTEXTMODE
 70
     0
  9
$MIRRTEXT
 70
     0
  9
$DRAGMODE
 70
     2
  9
$LTSCALE
 40
20.0
  9
$OSMODE
 70
    55
  9
$ATTMODE
 70
     1
  9
$TEXTSIZE
 40
0.2
  9
$TRACEWID
 40
0.05
  9
$TEXTSTYLE
  7
STANDARD
  9
$CLAYER
  8
0
  9
$CELTYPE
  6
BYLAYER
  9
$CECOLOR
 62
   256
  9
$DIMSCALE
 40
1.0
  9
$DIMASZ
 40
3.0
  9
$DIMEXO
 40
2.0
  9
$DIMDLI
 40
0.38
  9
$DIMRND
 40
0.0
  9
$DIMDLE
 40
0.0
  9
$DIMEXE
 40
2.0
  9
$DIMTP
 40
0.0
  9
$DIMTM
 40
0.0
  9
$DIMTXT
 40
3.2000000000000002
  9
$DIMCEN
 40
0.0
  9
$DIMTSZ
 40
0.0
  9
$DIMTOL
 70
     0
  9
$DIMLIM
 70
     0
  9
$DIMTIH
 70
     0
  9
$DIMTOH
 70
     0
  9
$DIMSE1
 70
     0
  9
$DIMSE2
 70
     0
  9
$DIMTAD
 70
     1
  9
$DIMZIN
 70
     0
  9
$DIMBLK
  1

  9
$DIMASO
 70
     0
  9
$DIMSHO
 70
     0
  9
$DIMPOST
  1

  9
$DIMAPOST
  1

  9
$DIMALT
 70
     0
  9
$DIMALTD
 70
     2
  9
$DIMALTF
 40
25.399999999999999
  9
$DIMLFAC
 40
1.0
  9
$DIMTOFL
 70
     0
  9
$DIMTVP
 40
1.6000000000000001
  9
$DIMTIX
 70
     1
  9
$DIMSOXD
 70
     0
  9
$DIMSAH
 70
     0
  9
$DIMBLK1
  1

  9
$DIMBLK2
  1

  9
$DIMSTYLE
  2
STANDARD
  9
$DIMCLRD
 70
     0
  9
$DIMCLRE
 70
     0
  9
$DIMCLRT
 70
     0
  9
$DIMTFAC
 40
1.0
  9
$DIMGAP
 40
0.09
  9
$LUNITS
 70
     2
  9
$LUPREC
 70
     4
  9
$SKETCHINC
 40
0.1
  9
$FILLETRAD
 40
0.0
  9
$AUNITS
 70
     0
  9
$AUPREC
 70
     4
  9
$MENU
  1
E:\r13\win\SUPPORT\ACAD
  9
$ELEVATION
 40
0.0
  9
$PELEVATION
 40
0.0
  9
$THICKNESS
 40
0.0
  9
$LIMCHECK
 70
     0
  9
$BLIPMODE
 70
     0
  9
$CHAMFERA
 40
0.0
  9
$CHAMFERB
 40
0.0
  9
$SKPOLY
 70
     0
  9
$TDCREATE
 40
2449840.6227546302
  9
$TDUPDATE
 40
2456598.667295394
  9
$TDINDWG
 40
0.2676570486
  9
$TDUSRTIMER
 40
0.2676570486
  9
$USRTIMER
 70
     1
  9
$ANGBASE
 50
0.0
  9
$ANGDIR
 70
     0
  9
$PDMODE
 70
     0
  9
$PDSIZE
 40
0.0
  9
$PLINEWID
 40
0.0
  9
$COORDS
 70
     1
  9
$SPLFRAME
 70
     0
  9
$SPLINETYPE
 70
     6
  9
$SPLINESEGS
 70
     8
  9
$ATTDIA
 70
     0
  9
$ATTREQ
 70
     1
  9
$HANDLING
 70
     1
  9
$HANDSEED
  5
E0D
  9
$SURFTAB1
 70
     6
  9
$SURFTAB2
 70
     6
  9
$SURFTYPE
 70
     6
  9
$SURFU
 70
     6
  9
$SURFV
 70
     6
  9
$UCSNAME
  2

  9
$UCSORG
 10
0.0
 20
0.0
 30
0.0
  9
$UCSXDIR
 10
1.0
 20
0.0
 30
0.0
  9
$UCSYDIR
 10
0.0
 20
1.0
 30
0.0
  9
$PUCSNAME
  2

  9
$PUCSORG
 10
0.0
 20
0.0
 30
0.0
  9
$PUCSXDIR
 10
1.0
 20
0.0
 30
0.0
  9
$PUCSYDIR
 10
0.0
 20
1.0
 30
0.0
  9
$USERI1
 70
     0
  9
$USERI2
 70
     1
  9
$USERI3
 70
     0
  9
$USERI4
 70
     0
  9
$USERI5
 70
     0
  9
$USERR1
 40
0.0
  9
$USERR2
 40
0.0
  9
$USERR3
 40
0.0
  9
$USERR4
 40
0.0
  9
$USERR5
 40
0.0
  9
$WORLDVIEW
 70
     1
  9
$SHADEDGE
 70
     3
  9
$SHADEDIF
 70
    70
  9
$TILEMODE
 70
     1
  9
$MAXACTVP
 70
    16
  9
$PLIMCHECK
 70
     0
  9
$PEXTMIN
 10
1.0000000000000000E+020
 20
1.0000000000000000E+020
 30
1.0000000000000000E+020
  9
$PEXTMAX
 10
-1.0000000000000000E+020
 20
-1.0000000000000000E+020
 30
-1.0000000000000000E+020
  9
$PLIMMIN
 10
0.0
 20
0.0
  9
$PLIMMAX
 10
12.0
 20
9.0
  9
$UNITMODE
 70
     0
  9
$VISRETAIN
 70
     0
  9
$PLINEGEN
 70
     0
  9
$PSLTSCALE
 70
     0
  0
ENDSEC
  0
SECTION
  2
TABLES
  0
TABLE
  2
VPORT
 70
     1
  0
VPORT
  2
*ACTIVE
 70
     0
 10
0.0
 20
0.0
 11
1.0
 21
1.0
 12
374.98855678130462
 22
350.86677766270412
 13
0.0
 23
0.0
 14
20.0
 24
20.0
 15
20.0
 25
20.0
 16
0.0
 26
0.0
 36
1.0
 17
0.0
 27
0.0
 37
0.0
 40
713.9403104474975
 41
1.7807262569832401
 42
50.0
 43
0.0
 44
0.0
 50
0.0
 51
0.0
 71
     0
 72
   100
 73
     1
 74
     0
 75
     0
 76
     0
 77
     0
 78
     2
  0
ENDTAB
  0
TABLE
  2
LTYPE
 70
     4
  0
LTYPE
  2
CONTINUOUS
 70
     0
  3
Solid Line
 72
    65
 73
     0
 40
0.0
  0
LTYPE
  2
CENTER
 70
     0
  3
____ _ ____ _ ____ _ ____ _ ____ _ ____ _ ____
 72
    65
 73
     4
 40
2.0
 49
1.25
 49
-0.25
 49
0.25
 49
-0.25
  0
LTYPE
  2
HIDDEN
 70
     0
  3
_ _ _ _ _ _ _ _ _ _ _ _ _ _ _ _ _ _ _ _ _ _ _
 72
    65
 73
     2
 40
0.375
 49
0.25
 49
-0.125
  0
LTYPE
  2
PHANTOM2
 70
     0
  3
___ _ _ ___ _ _ ___ _ _ ___ _ _
 72
    65
 73
     6
 40
1.25
 49
0.625
 49
-0.125
 49
0.125
 49
-0.125
 49
0.125
 49
-0.125
  0
ENDTAB
  0
TABLE
  2
LAYER
 70
     4
  0
LAYER
  2
0
 70
     0
 62
     7
  6
CONTINUOUS
  0
LAYER
  2
1
 70
     0
 62
     1
  6
CENTER
  0
LAYER
  2
2
 70
     0
 62
     2
  6
HIDDEN
  0
LAYER
  2
DEFPOINTS
 70
     0
 62
     7
  6
CONTINUOUS
  0
ENDTAB
  0
TABLE
  2
STYLE
 70
     2
  0
STYLE
  2
STANDARD
 70
     0
 40
0.0
 41
1.0
 50
0.0
 71
     0
 42
0.2
  3
TXT
  4
BIGFONT
  0
STYLE
  2
STANDARD1
 70
     0
 40
0.0
 41
1.0
 50
0.0
 71
     0
 42
3.0
  3
txt
  4

  0
ENDTAB
  0
TABLE
  2
VIEW
 70
     1
  0
VIEW
  2
ALL
 70
     0
 40
540.0
 10
441.98319299999991
 20
270.0
 41
0.0
 11
0.0
 21
0.0
 31
1.0
 12
0.0
 22
0.0
 32
0.0
 42
0.0
 43
0.0
 44
0.0
 50
0.0
 71
     0
  0
ENDTAB
  0
TABLE
  2
UCS
 70
     0
  0
ENDTAB
  0
TABLE
  2
APPID
 70
     8
  0
APPID
  2
ACAD
 70
     0
  0
APPID
  2
ACAD_NAV_VCDISPLAY
 70
     0
  0
APPID
  2
ACAD_EXEMPT_FROM_CAD_STANDARDS
 70
     0
  0
APPID
  2
ACAD_DSTYLE_DIMJAG
 70
     0
  0
APPID
  2
ACAD_DSTYLE_DIMTALN
 70
     0
  0
APPID
  2
ACAD_MLEADERVER
 70
     0
  0
APPID
  2
GENIUS_GENODEF_13
 70
     0
  0
APPID
  2
GENIUS_GENOBJ-N-FIL_13
 70
     0
  0
ENDTAB
  0
TABLE
  2
DIMSTYLE
 70
     1
  0
DIMSTYLE
  2
STANDARD
 70
     0
  3

  4

  5

  6

  7

 40
1.0
 41
0.18
 42
0.0625
 43
0.38
 44
0.18
 45
0.0
 46
0.0
 47
0.0
 48
0.0
140
0.18
141
0.09
142
0.0
143
25.399999999999999
144
1.0
145
0.0
146
1.0
147
0.09
 71
     0
 72
     0
 73
     1
 74
     1
 75
     0
 76
     0
 77
     0
 78
     0
170
     0
171
     2
172
     0
173
     0
174
     0
175
     0
176
     0
177
     0
178
     0
  0
ENDTAB
  0
ENDSEC
  0
SECTION
  2
BLOCKS
  0
BLOCK
  8
0
  2
$MODEL_SPACE
 70
     0
 10
0.0
 20
0.0
 30
0.0
  3
$MODEL_SPACE
  1

  0
ENDBLK
  5
11D
  8
0
  0
BLOCK
 67
     1
  8
0
  2
$PAPER_SPACE
 70
     0
 10
0.0
 20
0.0
 30
0.0
  3
$PAPER_SPACE
  1

  0
ENDBLK
  5
11B
 67
     1
  8
0
  0
ENDSEC
  0
SECTION
  2
ENTITIES
  0
LINE
  5
94C
  8
0
 10
69.643239827662228
 20
169.12407219016009
 30
0.0
 11
69.704664299292972
 21
174.5197439756885
 31
0.0
  0
LINE
  5
94D
  8
0
 10
69.704664299292972
 20
174.5197439756885
 30
0.0
 11
79.239238934752166
 21
174.51974397568841
 31
0.0
  0
LINE
  5
94E
  8
0
 10
120.20683638186399
 20
174.51974397568841
 30
0.0
 11
129.74141101732329
 21
174.5197439756885
 31
0.0
  0
LINE
  5
94F
  8
0
 10
129.74141101732329
 20
174.5197439756885
 30
0.0
 11
129.80283548895409
 21
169.12407219016009
 31
0.0
  0
LINE
  5
950
  8
0
 10
120.1454398916478
 20
169.12407219016009
 30
0.0
 11
120.20683638186409
 21
174.5197439756885
 31
0.0
  0
LINE
  5
951
  8
0
 10
104.8971995590516
 20
169.12407219016009
 30
0.0
 11
104.9586044950449
 21
174.5197439756885
 31
0.0
  0
LINE
  5
952
  8
0
 10
104.9586044950449
 20
174.5197439756885
 30
0.0
 11
109.7377993539255
 21
174.5197439756885
 31
0.0
  0
LINE
  5
953
  8
0
 10
89.646862583807888
 20
169.12407219016009
 30
0.0
 11
89.708275962690777
 21
174.5197439756885
 31
0.0
  0
LINE
  5
954
  8
0
 10
89.708275962690777
 20
174.5197439756885
 30
0.0
 11
94.487470821571378
 21
174.5197439756885
 31
0.0
  0
LINE
  5
955
  8
0
 10
109.7377993539255
 20
174.5197439756885
 30
0.0
 11
109.7992127328084
 21
169.12407219016009
 31
0.0
  0
LINE
  5
956
  8
0
 10
94.487470821571378
 20
174.5197439756885
 30
0.0
 11
94.548875757564716
 21
169.12407219016009
 31
0.0
  0
LINE
  5
957
  8
0
 10
79.239238934752166
 20
174.5197439756885
 30
0.0
 11
79.300635424968505
 21
169.12407219016009
 31
0.0
  0
LINE
  5
958
  8
0
 10
69.691097988462161
 20
173.328046942893
 30
0.0
 11
79.252799065561248
 21
173.328046942893
 31
0.0
  0
LINE
  5
959
  8
0
 10
120.1932762510549
 20
173.328046942893
 30
0.0
 11
129.7549773281541
 21
173.328046942893
 31
0.0
  0
LINE
  5
95A
  8
0
 10
104.9450424988874
 20
173.328046942893
 30
0.0
 11
109.7513632147936
 21
173.328046942893
 31
0.0
  0
LINE
  5
95B
  8
0
 10
89.694712101822674
 20
173.328046942893
 30
0.0
 11
94.501032817728856
 21
173.328046942893
 31
0.0
  0
LINE
  5
95C
  8
0
 10
31.223037658308161
 20
130.40775252118959
 30
0.0
 11
31.223037658308161
 21
101.82278685683541
 31
0.0
  0
LINE
  5
95D
  8
0
 10
165.25761959345189
 20
97.833031003513966
 30
0.0
 11
34.188455723166904
 21
97.833031003512886
 31
0.0
  0
LINE
  5
95E
  8
1
 10
99.723037658308144
 20
139.08818267208991
 30
0.0
 11
99.723037658308144
 21
94.833031003513398
 31
0.0
  0
LINE
  5
95F
  8
1
 10
171.2230376583081
 20
116.3330324711886
 30
0.0
 11
28.223037658308151
 21
116.3330324711886
 31
0.0
  0
LINE
  5
960
  8
0
 10
160.7230376583081
 20
127.13198460041041
 30
0.0
 11
38.723037658306339
 21
127.1319846004023
 31
0.0
  0
LINE
  5
961
  8
0
 10
40.149791367746147
 20
136.08818164973979
 30
0.0
 11
40.107827237917029
 21
136.08766411559881
 31
0.0
  0
LINE
  5
962
  8
0
 10
34.184579953856769
 20
134.83303393886411
 30
0.0
 11
165.26149536275531
 21
134.83303393886521
 31
0.0
  0
LINE
  5
963
  8
0
 10
159.2962839488697
 20
136.08818164973979
 30
0.0
 11
40.149791367746147
 21
136.08818164973979
 31
0.0
  0
POLYLINE
  5
964
  8
0
 66
     1
 10
0.0
 20
0.0
 30
0.0
  0
VERTEX
  5
B7B
  8
0
 10
40.107827237917029
 20
136.08766411559881
 30
0.0
  0
VERTEX
  5
B7C
  8
0
 10
39.992580406573779
 20
136.0809029027624
 30
0.0
  0
VERTEX
  5
B7D
  8
0
 10
39.879630128513327
 20
136.06659567382741
 30
0.0
  0
VERTEX
  5
B7E
  8
0
 10
39.76949090447556
 20
136.04513496262479
 30
0.0
  0
VERTEX
  5
B7F
  8
0
 10
39.662625397397392
 20
136.01694698688851
 30
0.0
  0
VERTEX
  5
B80
  8
0
 10
39.559452566712253
 20
135.9824887917548
 30
0.0
  0
VERTEX
  5
B81
  8
0
 10
39.46031068714683
 20
135.9422293876608
 30
0.0
  0
VERTEX
  5
B82
  8
0
 10
39.365464154922513
 20
135.89663728884381
 30
0.0
  0
VERTEX
  5
B83
  8
0
 10
39.275247238965107
 20
135.8462519225466
 30
0.0
  0
VERTEX
  5
B84
  8
0
 10
39.189903646994587
 20
135.79161778591231
 30
0.0
  0
VERTEX
  5
B85
  8
0
 10
39.10962003112536
 20
135.73329078218501
 30
0.0
  0
VERTEX
  5
B86
  8
0
 10
39.034526713567971
 20
135.67183244260929
 30
0.0
  0
VERTEX
  5
B87
  8
0
 10
38.964687731627471
 20
135.60779355162879
 30
0.0
  0
VERTEX
  5
B88
  8
0
 10
38.900124108605269
 20
135.54172599908739
 30
0.0
  0
VERTEX
  5
B89
  8
0
 10
38.840766758296361
 20
135.47412392612429
 30
0.0
  0
VERTEX
  5
B8A
  8
0
 10
38.786376290681012
 20
135.4052828744629
 30
0.0
  0
VERTEX
  5
B8B
  8
0
 10
38.737199858779832
 20
135.33616979907981
 30
0.0
  0
VERTEX
  5
B8C
  8
0
 10
38.693061055478211
 20
135.2673262096182
 30
0.0
  0
VERTEX
  5
B8D
  8
0
 10
38.654286199002172
 20
135.20027020499839
 30
0.0
  0
VERTEX
  5
B8E
  8
0
 10
38.620762493842562
 20
135.13612629130969
 30
0.0
  0
VERTEX
  5
B8F
  8
0
 10
38.592449402796213
 20
135.07642728907339
 30
0.0
  0
VERTEX
  5
B90
  8
0
 10
38.569379827366099
 20
135.02321919955219
 30
0.0
  0
VERTEX
  5
B91
  8
0
 10
38.550338174555577
 20
134.97564128557769
 30
0.0
  0
VERTEX
  5
B92
  8
0
 10
38.534782022121142
 20
134.9339804979727
 30
0.0
  0
VERTEX
  5
B93
  8
0
 10
38.521544842471137
 20
134.89638816899031
 30
0.0
  0
VERTEX
  5
B94
  8
0
 10
38.509796496239119
 20
134.86132206630839
 30
0.0
  0
VERTEX
  5
B95
  8
0
 10
38.500710365118273
 20
134.83303393886419
 30
0.0
  0
SEQEND
  5
B96
  8
0
  0
LINE
  5
965
  8
0
 10
216.662883882335
 20
125.77405477078089
 30
0.0
 11
216.662883882335
 21
130.2881832343038
 31
0.0
  0
LINE
  5
966
  8
2
 10
214.66288372366719
 20
125.3160293680362
 30
0.0
 11
214.66288372366699
 21
130.08818321843691
 31
0.0
  0
LINE
  5
967
  8
0
 10
207.2233995064646
 20
103.11166972958721
 30
0.0
 11
204.04176829005391
 21
98.732530045773501
 31
0.0
  0
LINE
  5
968
  8
2
 10
198.0137652301292
 20
102.6735161377191
 30
0.0
 11
197.99699906819919
 21
102.6588790642578
 31
0.0
  0
LINE
  5
969
  8
1
 10
194.66288237499219
 20
116.3330324711885
 30
0.0
 11
217.4210049060793
 21
116.3330324711886
 31
0.0
  0
LINE
  5
96A
  8
0
 10
212.27568420858159
 20
108.15332628866111
 30
0.0
 11
209.38334683592149
 21
110.66759680802799
 31
0.0
  0
LINE
  5
96B
  8
0
 10
199.6628825336598
 20
134.83303393886419
 30
0.0
 11
199.6628825336598
 21
97.833031003513071
 31
0.0
  0
LINE
  5
96C
  8
0
 10
200.29322077066701
 20
100.2724672186426
 30
0.0
 11
200.2912862678138
 21
100.3832948152351
 31
0.0
  0
LINE
  5
96D
  8
0
 10
197.66288237499219
 20
132.03603942246789
 30
0.0
 11
197.66288237499219
 21
100.30164452679701
 31
0.0
  0
LINE
  5
96E
  8
0
 10
199.6628825336598
 20
130.03303355806159
 30
0.0
 11
200.19008852868541
 21
130.03303355806159
 31
0.0
  0
LINE
  5
96F
  8
2
 10
208.0476136971528
 20
133.15236123392989
 30
0.0
 11
201.569851709147
 21
127.7168735390118
 31
0.0
  0
LINE
  5
970
  8
0
 10
206.81780185528689
 20
134.73124135678859
 30
0.0
 11
200.2842763877575
 21
129.24896254675821
 31
0.0
  0
LINE
  5
971
  8
0
 10
203.602047682169
 20
132.83492576264661
 30
0.0
 11
200.3186460607842
 21
130.0798246730738
 31
0.0
  0
LINE
  5
972
  8
0
 10
203.78964825805201
 20
132.9050667438112
 30
0.0
 11
204.6595474613645
 21
132.92025089091581
 31
0.0
  0
LINE
  5
973
  8
0
 10
199.6628825336598
 20
97.833031003513042
 30
0.0
 11
198.15915842216401
 21
99.186990275027767
 31
0.0
  0
LINE
  5
974
  8
0
 10
198.04814724285691
 20
133.0396887166913
 30
0.0
 11
199.6628825336598
 21
134.83303393886419
 31
0.0
  0
LINE
  5
975
  8
0
 10
210.86288342219851
 20
136.08818369444
 30
0.0
 11
210.54597028725669
 21
136.08818369444
 31
0.0
  0
LINE
  5
976
  8
0
 10
31.223037658308161
 20
63.54199275221707
 30
0.0
 11
31.24023097984832
 21
64.526997484828186
 31
0.0
  0
POLYLINE
  5
977
  8
0
 66
     1
 10
0.0
 20
0.0
 30
0.0
  0
VERTEX
  5
B97
  8
0
 10
33.872517707446043
 20
63.266231456939828
 30
0.0
  0
VERTEX
  5
B98
  8
0
 10
33.946449105411489
 20
62.377421756327209
 30
0.0
  0
VERTEX
  5
B99
  8
0
 10
34.133698845666579
 20
60.30971112968782
 30
0.0
  0
VERTEX
  5
B9A
  8
0
 10
34.339924785127323
 20
58.279378847413767
 30
0.0
  0
VERTEX
  5
B9B
  8
0
 10
34.565909773555518
 20
56.286744384230502
 30
0.0
  0
VERTEX
  5
B9C
  8
0
 10
34.812424989612403
 20
54.33211548996244
 30
0.0
  0
VERTEX
  5
B9D
  8
0
 10
35.07276262106609
 20
52.466658447568562
 30
0.0
  0
SEQEND
  5
B9E
  8
0
  0
POLYLINE
  5
978
  8
0
 66
     1
 10
0.0
 20
0.0
 30
0.0
  0
VERTEX
  5
B9F
  8
0
 10
35.07275566196563
 20
52.46670709247249
 30
0.0
  0
VERTEX
  5
BA0
  8
0
 10
35.15021648391064
 20
51.962868945301032
 30
0.0
  0
VERTEX
  5
BA1
  8
0
 10
35.239710320410722
 20
51.437233828800373
 30
0.0
  0
VERTEX
  5
BA2
  8
0
 10
35.333575423057368
 20
50.942859996779852
 30
0.0
  0
VERTEX
  5
BA3
  8
0
 10
35.431618286035253
 20
50.480855258526979
 30
0.0
  0
VERTEX
  5
BA4
  8
0
 10
35.533760386338827
 20
50.051295642148631
 30
0.0
  0
VERTEX
  5
BA5
  8
0
 10
35.640060783671863
 20
49.653469238687563
 30
0.0
  0
VERTEX
  5
BA6
  8
0
 10
35.750655976545893
 20
49.286312690859603
 30
0.0
  0
VERTEX
  5
BA7
  8
0
 10
35.865832729083422
 20
48.948407112652291
 30
0.0
  0
VERTEX
  5
BA8
  8
0
 10
35.98604584622035
 20
48.637982601325149
 30
0.0
  0
VERTEX
  5
BA9
  8
0
 10
36.112062204117819
 20
48.35285771760519
 30
0.0
  0
VERTEX
  5
BAA
  8
0
 10
36.244800699648181
 20
48.091039698434003
 30
0.0
  0
VERTEX
  5
BAB
  8
0
 10
36.385874614840311
 20
47.849827737097847
 30
0.0
  0
VERTEX
  5
BAC
  8
0
 10
36.536922125123169
 20
47.627458799956479
 30
0.0
  0
VERTEX
  5
BAD
  8
0
 10
36.700464846697862
 20
47.421924603950544
 30
0.0
  0
VERTEX
  5
BAE
  8
0
 10
36.879365652790511
 20
47.232172478896842
 30
0.0
  0
VERTEX
  5
BAF
  8
0
 10
37.075023014813041
 20
47.059709018914667
 30
0.0
  0
VERTEX
  5
BB0
  8
0
 10
37.28927079741004
 20
46.906145201631858
 30
0.0
  0
VERTEX
  5
BB1
  8
0
 10
37.520897576985931
 20
46.775410341960217
 30
0.0
  0
VERTEX
  5
BB2
  8
0
 10
37.768312425914253
 20
46.670867934566417
 30
0.0
  0
VERTEX
  5
BB3
  8
0
 10
38.027810921801461
 20
46.595899341618939
 30
0.0
  0
VERTEX
  5
BB4
  8
0
 10
38.293908612211908
 20
46.552894732107141
 30
0.0
  0
VERTEX
  5
BB5
  8
0
 10
38.511760490694648
 20
46.541992817542251
 30
0.0
  0
SEQEND
  5
BB6
  8
0
  0
LINE
  5
979
  8
0
 10
40.54537062312874
 20
52.92892155264169
 30
0.0
 11
40.573833955287107
 21
51.247890257578803
 31
0.0
  0
LINE
  5
97A
  8
0
 10
40.405623751790579
 20
63.541992752217062
 30
0.0
 11
40.54537062312874
 21
52.92892155264169
 31
0.0
  0
LINE
  5
97B
  8
0
 10
66.967786350008964
 20
53.342690318867568
 30
0.0
 11
66.793308803667287
 21
63.338502254773381
 31
0.0
  0
LINE
  5
97C
  8
0
 10
68.392224025975679
 20
62.734815600981761
 30
0.0
 11
68.228283869309493
 21
53.342690318867568
 31
0.0
  0
LINE
  5
97D
  8
0
 10
77.217787163280718
 20
53.342690314967491
 30
0.0
 11
77.053830968473221
 21
62.735734425453501
 31
0.0
  0
LINE
  5
97E
  8
0
 10
78.656314168704512
 20
63.541992752217062
 30
0.0
 11
78.478284654881122
 21
53.342688733267408
 31
0.0
  0
LINE
  5
97F
  8
0
 10
160.93432118841241
 20
46.54199313593903
 30
0.0
 11
38.511788746518683
 21
46.541991403542141
 31
0.0
  0
LINE
  5
980
  8
0
 10
41.073746368146892
 20
50.757220578152427
 30
0.0
 11
158.37232894846869
 21
50.757220578152342
 31
0.0
  0
LINE
  5
981
  8
0
 10
67.467267272334993
 20
52.876870076312201
 30
0.0
 11
67.728802946983365
 21
52.876870076312201
 31
0.0
  0
LINE
  5
982
  8
1
 10
99.723037658308144
 20
68.541845547688538
 30
0.0
 11
99.723037658308144
 21
43.541992110529307
 31
0.0
  0
LINE
  5
983
  8
0
 10
76.979027736939074
 20
55.452549939350739
 30
0.0
 11
68.46704329555098
 21
55.452549937950693
 31
0.0
  0
LINE
  5
984
  8
0
 10
68.532734390862515
 20
59.163106995823313
 30
0.0
 11
76.913336641627552
 21
59.163106995823313
 31
0.0
  0
LINE
  5
985
  8
0
 10
77.092801460459441
 20
60.503116434631153
 30
0.0
 11
68.353269572120993
 21
60.503116434631153
 31
0.0
  0
LINE
  5
986
  8
0
 10
77.072567802414142
 20
61.662301927793841
 30
0.0
 11
68.373503230170854
 21
61.662301927793997
 31
0.0
  0
POLYLINE
  5
987
  8
0
 66
     1
 10
0.0
 20
0.0
 30
0.0
  0
VERTEX
  5
BB7
  8
0
 10
33.573498522723753
 20
63.541994573217231
 30
0.0
  0
VERTEX
  5
BB8
  8
0
 10
33.616704860651218
 20
63.53886694006902
 30
0.0
  0
VERTEX
  5
BB9
  8
0
 10
33.659055099111363
 20
63.529535936128887
 30
0.0
  0
VERTEX
  5
BBA
  8
0
 10
33.69963131113014
 20
63.514190170911462
 30
0.0
  0
VERTEX
  5
BBB
  8
0
 10
33.737573046240414
 20
63.493150758442162
 30
0.0
  0
VERTEX
  5
BBC
  8
0
 10
33.772076638777548
 20
63.466864692656848
 30
0.0
  0
VERTEX
  5
BBD
  8
0
 10
33.802427572385568
 20
63.435879346298599
 30
0.0
  0
VERTEX
  5
BBE
  8
0
 10
33.827993588213637
 20
63.400840660418879
 30
0.0
  0
VERTEX
  5
BBF
  8
0
 10
33.848239840320048
 20
63.362481354475698
 30
0.0
  0
VERTEX
  5
BC0
  8
0
 10
33.862743183870641
 20
63.32160275383265
 30
0.0
  0
VERTEX
  5
BC1
  8
0
 10
33.871200141241388
 20
63.27905949645757
 30
0.0
  0
VERTEX
  5
BC2
  8
0
 10
33.872518446546231
 20
63.266226651339387
 30
0.0
  0
SEQEND
  5
BC3
  8
0
  0
LINE
  5
988
  8
0
 10
68.592195008579665
 20
62.931376467174537
 30
0.0
 11
76.853876024010333
 21
62.931376467174537
 31
0.0
  0
LINE
  5
989
  8
0
 10
168.2230376583081
 20
63.541992752217062
 30
0.0
 11
31.223156185468952
 21
63.548783168720632
 31
0.0
  0
LINE
  5
98A
  8
0
 10
167.20150545802781
 20
65.541640287627402
 30
0.0
 11
32.309531524173622
 21
65.541992131584564
 31
0.0
  0
ARC
  5
98B
  8
0
 10
220.0593436299682
 20
87.622972590770331
 30
0.0
 40
185.5904574417161
 50
167.22788070389441
 51
167.70865592724141
  0
ARC
  5
98C
  8
0
 10
208.84146265273171
 20
101.93613908692809
 30
0.0
 40
2.0000001586676319
 50
122.99518880489531
 51
144.00141489959401
  0
ARC
  5
98D
  8
0
 10
203.6372597607625
 20
99.026422695189353
 30
0.0
 40
0.5000000396669081
 50
260.03408527220182
 51
323.99999999999841
  0
ARC
  5
98E
  8
0
 10
204.76288293826269
 20
105.4282176908681
 30
0.0
 40
7.0000005553367117
 50
232.35782766809859
 51
260.02811628840237
  0
ARC
  5
98F
  8
0
 10
210.54597028725669
 20
130.2881832343038
 30
0.0
 40
5.8000004601361299
 50
90.0
 51
129.99999999999551
  0
ARC
  5
990
  8
0
 10
210.86288342219851
 20
130.2881832343038
 30
0.0
 40
5.8000004601361299
 50
0.0
 51
90.0
  0
ARC
  5
991
  8
2
 10
210.6628834063319
 20
130.08818321843691
 30
0.0
 40
4.0000003173352638
 50
0.0
 51
90.0
  0
ARC
  5
992
  8
2
 10
210.61974308852939
 20
130.0864879761379
 30
0.0
 40
4.0019280901856789
 50
89.382346220149515
 51
129.9951334103161
  0
ARC
  5
993
  8
0
 10
203.7948839803673
 20
132.60511241151451
 30
0.0
 40
0.3000000238001448
 50
91.000000000001776
 51
129.99999999999551
  0
ARC
  5
994
  8
0
 10
200.79314349922811
 20
100.2812598039403
 30
0.0
 40
0.5000000396669081
 50
181.00760790239971
 51
232.35870620170269
  0
ARC
  5
995
  8
0
 10
194.38249476344691
 20
124.2036234401924
 30
0.0
 40
24.550001947645189
 50
282.42063503969422
 51
316.9165843999042
  0
ARC
  5
996
  8
0
 10
198.66288245432611
 20
125.77405477078089
 30
0.0
 40
18.000001428008691
 50
316.52698586929881
 51
0.0
  0
ARC
  5
997
  8
2
 10
198.66288245432611
 20
125.3160293680362
 30
0.0
 40
16.000001269341059
 50
316.52698586929881
 51
0.0
  0
ARC
  5
998
  8
2
 10
199.96288255746001
 20
129.63198479874509
 30
0.0
 40
2.5000001983345399
 50
203.0739180656297
 51
309.99999999999551
  0
ARC
  5
999
  8
0
 10
199.16281270938779
 20
132.03603942246789
 30
0.0
 40
1.4999303343951871
 50
137.9999999999055
 51
180.0
  0
ARC
  5
99A
  8
0
 10
199.96288255746001
 20
129.63198479874509
 30
0.0
 40
0.5000000396669081
 50
270.0
 51
309.99999999999551
  0
ARC
  5
99B
  8
0
 10
199.96288255746001
 20
129.4319847828782
 30
0.0
 40
0.3000000238001448
 50
180.0
 51
270.0
  0
ARC
  5
99C
  8
0
 10
200.19008852868541
 20
130.2330335739284
 30
0.0
 40
0.2000000158667632
 50
270.0
 51
309.99999999999551
  0
ARC
  5
99D
  8
0
 10
94.16229013089594
 20
224.8479135539875
 30
0.0
 40
162.0000128520781
 50
315.33043352779907
 51
316.52698586929881
  0
ARC
  5
99E
  8
2
 10
211.08252926914031
 20
87.151815470445285
 30
0.0
 40
20.290394819773439
 50
130.1591188538703
 51
130.43861677320911
  0
ARC
  5
99F
  8
0
 10
32.275496629888607
 20
64.506994037898863
 30
0.0
 40
1.0355575444957159
 50
91.883436658615551
 51
177.10038896058171
  0
ARC
  5
9A0
  8
0
 10
32.260669788827499
 20
64.509167943146778
 30
0.0
 40
1.020594559767654
 50
177.18016753750049
 51
178.9990055812992
  0
ARC
  5
9A1
  8
0
 10
41.073746368146892
 20
51.257219306619142
 30
0.0
 40
0.4999987284668041
 50
181.0363043902988
 51
270.00006219910239
  0
ARC
  5
9A2
  8
0
 10
67.463932487637635
 20
53.373991417506687
 30
0.0
 40
0.4971325262541522
 50
183.60991855487731
 51
270.384345243236
  0
ARC
  5
9A3
  8
0
 10
66.993278358531597
 20
63.341992736350299
 30
0.0
 40
0.2000000158667632
 50
90.0
 51
181.0
  0
LINE
  5
9A4
  8
0
 10
165.231372804209
 20
99.18701557978055
 30
0.0
 11
34.214703270189148
 21
99.187015556779613
 31
0.0
  0
LINE
  5
9A5
  8
0
 10
34.212764324702903
 20
133.03970863029829
 30
0.0
 11
165.233312220622
 21
133.0397085929859
 31
0.0
  0
LINE
  5
9A6
  8
0
 10
84.967787778017623
 20
53.342690318867568
 30
0.0
 11
84.793310231675946
 21
63.338502254773381
 31
0.0
  0
LINE
  5
9A7
  8
0
 10
86.392241492125095
 20
62.735734425453501
 30
0.0
 11
86.228285269617814
 21
53.342688730267213
 31
0.0
  0
LINE
  5
9A8
  8
0
 10
95.217788591289377
 20
53.342690314967257
 30
0.0
 11
95.053832396481866
 21
62.735734425453501
 31
0.0
  0
LINE
  5
9A9
  8
0
 10
96.656315596713057
 20
63.541992752216828
 30
0.0
 11
96.478286082889682
 21
53.342688733267238
 31
0.0
  0
LINE
  5
9AA
  8
0
 10
94.979029164947846
 20
55.452549939350519
 30
0.0
 11
86.467044723559624
 21
55.452549937950693
 31
0.0
  0
LINE
  5
9AB
  8
0
 10
86.53273581887106
 20
59.163106995823313
 30
0.0
 11
94.913338069636325
 21
59.163106995823313
 31
0.0
  0
LINE
  5
9AC
  8
0
 10
95.092802888468213
 20
60.503116434631153
 30
0.0
 11
86.353271000129666
 21
60.503116434631153
 31
0.0
  0
LINE
  5
9AD
  8
0
 10
95.072569230422801
 20
61.662301927793841
 30
0.0
 11
86.373504658179499
 21
61.662301927793841
 31
0.0
  0
LINE
  5
9AE
  8
0
 10
86.592196436588424
 20
62.931376467174537
 30
0.0
 11
94.853877452018992
 21
62.931376467174537
 31
0.0
  0
ARC
  5
9AF
  8
0
 10
84.993279786540256
 20
63.341992736350299
 30
0.0
 40
0.2000000158667632
 50
90.0
 51
181.0
  0
LINE
  5
9B0
  8
0
 10
159.29628394886959
 20
136.08818164973979
 30
0.0
 11
159.33824807869871
 21
136.08766411559881
 31
0.0
  0
POLYLINE
  5
9B1
  8
0
 66
     1
 10
0.0
 20
0.0
 30
0.0
  0
VERTEX
  5
BC4
  8
0
 10
159.33824807869871
 20
136.08766411559881
 30
0.0
  0
VERTEX
  5
BC5
  8
0
 10
159.4534949100418
 20
136.0809029027624
 30
0.0
  0
VERTEX
  5
BC6
  8
0
 10
159.56644518810251
 20
136.06659567382741
 30
0.0
  0
VERTEX
  5
BC7
  8
0
 10
159.6765844121405
 20
136.04513496262479
 30
0.0
  0
VERTEX
  5
BC8
  8
0
 10
159.78344991921841
 20
136.01694698688851
 30
0.0
  0
VERTEX
  5
BC9
  8
0
 10
159.88662274990349
 20
135.9824887917548
 30
0.0
  0
VERTEX
  5
BCA
  8
0
 10
159.9857646294688
 20
135.9422293876608
 30
0.0
  0
VERTEX
  5
BCB
  8
0
 10
160.0806111616933
 20
135.89663728884381
 30
0.0
  0
VERTEX
  5
BCC
  8
0
 10
160.17082807765061
 20
135.8462519225466
 30
0.0
  0
VERTEX
  5
BCD
  8
0
 10
160.25617166962141
 20
135.79161778591231
 30
0.0
  0
VERTEX
  5
BCE
  8
0
 10
160.3364552854905
 20
135.73329078218501
 30
0.0
  0
VERTEX
  5
BCF
  8
0
 10
160.41154860304781
 20
135.67183244260929
 30
0.0
  0
VERTEX
  5
BD0
  8
0
 10
160.4813875849886
 20
135.60779355162879
 30
0.0
  0
VERTEX
  5
BD1
  8
0
 10
160.54595120801059
 20
135.54172599908739
 30
0.0
  0
VERTEX
  5
BD2
  8
0
 10
160.60530855831951
 20
135.47412392612429
 30
0.0
  0
VERTEX
  5
BD3
  8
0
 10
160.6596990259346
 20
135.4052828744629
 30
0.0
  0
VERTEX
  5
BD4
  8
0
 10
160.708875457836
 20
135.33616979907981
 30
0.0
  0
VERTEX
  5
BD5
  8
0
 10
160.75301426113751
 20
135.2673262096182
 30
0.0
  0
VERTEX
  5
BD6
  8
0
 10
160.79178911761389
 20
135.20027020499839
 30
0.0
  0
VERTEX
  5
BD7
  8
0
 10
160.82531282277341
 20
135.13612629130969
 30
0.0
  0
VERTEX
  5
BD8
  8
0
 10
160.85362591381951
 20
135.07642728907339
 30
0.0
  0
VERTEX
  5
BD9
  8
0
 10
160.87669548925001
 20
135.02321919955219
 30
0.0
  0
VERTEX
  5
BDA
  8
0
 10
160.89573714206031
 20
134.97564128557769
 30
0.0
  0
VERTEX
  5
BDB
  8
0
 10
160.91129329449481
 20
134.9339804979727
 30
0.0
  0
VERTEX
  5
BDC
  8
0
 10
160.9245304741448
 20
134.89638816899031
 30
0.0
  0
VERTEX
  5
BDD
  8
0
 10
160.93627882037671
 20
134.86132206630839
 30
0.0
  0
VERTEX
  5
BDE
  8
0
 10
160.94536495149751
 20
134.83303393886419
 30
0.0
  0
SEQEND
  5
BDF
  8
0
  0
LINE
  5
9B2
  8
0
 10
168.2230376583081
 20
63.541992752217062
 30
0.0
 11
168.20584433676811
 21
64.526997484828172
 31
0.0
  0
POLYLINE
  5
9B3
  8
0
 66
     1
 10
0.0
 20
0.0
 30
0.0
  0
VERTEX
  5
BE0
  8
0
 10
165.5735576091696
 20
63.266231456939828
 30
0.0
  0
VERTEX
  5
BE1
  8
0
 10
165.49962621120449
 20
62.377421756327209
 30
0.0
  0
VERTEX
  5
BE2
  8
0
 10
165.3123764709492
 20
60.30971112968782
 30
0.0
  0
VERTEX
  5
BE3
  8
0
 10
165.1061505314884
 20
58.279378847413767
 30
0.0
  0
VERTEX
  5
BE4
  8
0
 10
164.88016554306051
 20
56.286744384230502
 30
0.0
  0
VERTEX
  5
BE5
  8
0
 10
164.63365032700321
 20
54.33211548996244
 30
0.0
  0
VERTEX
  5
BE6
  8
0
 10
164.37331269554991
 20
52.466658447568562
 30
0.0
  0
SEQEND
  5
BE7
  8
0
  0
POLYLINE
  5
9B4
  8
0
 66
     1
 10
0.0
 20
0.0
 30
0.0
  0
VERTEX
  5
BE8
  8
0
 10
164.3733196546504
 20
52.46670709247249
 30
0.0
  0
VERTEX
  5
BE9
  8
0
 10
164.29585883270499
 20
51.962868945301032
 30
0.0
  0
VERTEX
  5
BEA
  8
0
 10
164.20636499620539
 20
51.437233828800373
 30
0.0
  0
VERTEX
  5
BEB
  8
0
 10
164.11249989355849
 20
50.942859996779852
 30
0.0
  0
VERTEX
  5
BEC
  8
0
 10
164.0144570305805
 20
50.480855258526979
 30
0.0
  0
VERTEX
  5
BED
  8
0
 10
163.9123149302772
 20
50.051295642148631
 30
0.0
  0
VERTEX
  5
BEE
  8
0
 10
163.80601453294381
 20
49.653469238687563
 30
0.0
  0
VERTEX
  5
BEF
  8
0
 10
163.6954193400698
 20
49.286312690859603
 30
0.0
  0
VERTEX
  5
BF0
  8
0
 10
163.5802425875323
 20
48.948407112652291
 30
0.0
  0
VERTEX
  5
BF1
  8
0
 10
163.46002947039551
 20
48.637982601325149
 30
0.0
  0
VERTEX
  5
BF2
  8
0
 10
163.3340131124981
 20
48.35285771760519
 30
0.0
  0
VERTEX
  5
BF3
  8
0
 10
163.20127461696731
 20
48.091039698434003
 30
0.0
  0
VERTEX
  5
BF4
  8
0
 10
163.06020070177581
 20
47.849827737097847
 30
0.0
  0
VERTEX
  5
BF5
  8
0
 10
162.90915319149221
 20
47.627458799956479
 30
0.0
  0
VERTEX
  5
BF6
  8
0
 10
162.74561046991789
 20
47.421924603950544
 30
0.0
  0
VERTEX
  5
BF7
  8
0
 10
162.56670966382521
 20
47.232172478896842
 30
0.0
  0
VERTEX
  5
BF8
  8
0
 10
162.37105230180271
 20
47.059709018914667
 30
0.0
  0
VERTEX
  5
BF9
  8
0
 10
162.15680451920531
 20
46.906145201631858
 30
0.0
  0
VERTEX
  5
BFA
  8
0
 10
161.92517773962979
 20
46.775410341960217
 30
0.0
  0
VERTEX
  5
BFB
  8
0
 10
161.67776289070159
 20
46.670867934566417
 30
0.0
  0
VERTEX
  5
BFC
  8
0
 10
161.4182643948146
 20
46.595899341618939
 30
0.0
  0
VERTEX
  5
BFD
  8
0
 10
161.1521667044037
 20
46.552894732107141
 30
0.0
  0
VERTEX
  5
BFE
  8
0
 10
160.93431482592101
 20
46.541992817542251
 30
0.0
  0
SEQEND
  5
BFF
  8
0
  0
LINE
  5
9B5
  8
0
 10
158.900704693487
 20
52.92892155264169
 30
0.0
 11
158.8722413613288
 21
51.247890257578803
 31
0.0
  0
LINE
  5
9B6
  8
0
 10
159.0404515648255
 20
63.541992752217062
 30
0.0
 11
158.900704693487
 21
52.92892155264169
 31
0.0
  0
LINE
  5
9B7
  8
0
 10
132.47828896660681
 20
53.342690318867568
 30
0.0
 11
132.65276651294869
 21
63.338502254773381
 31
0.0
  0
LINE
  5
9B8
  8
0
 10
131.05383525249951
 20
62.735734425453501
 30
0.0
 11
131.21779147500681
 21
53.342688730267383
 31
0.0
  0
LINE
  5
9B9
  8
0
 10
122.2282881533352
 20
53.342690314967491
 30
0.0
 11
122.3922443481427
 21
62.735734425453501
 31
0.0
  0
LINE
  5
9BA
  8
0
 10
120.78976114791141
 20
63.541992752217062
 30
0.0
 11
120.96779066173529
 21
53.342688733267408
 31
0.0
  0
LINE
  5
9BB
  8
0
 10
122.4670475796771
 20
55.452549939350739
 30
0.0
 11
130.97903202106519
 21
55.452549937950693
 31
0.0
  0
LINE
  5
9BC
  8
0
 10
130.91334092575369
 20
59.163106995823313
 30
0.0
 11
122.53273867498871
 21
59.163106995823313
 31
0.0
  0
LINE
  5
9BD
  8
0
 10
122.3532738561569
 20
60.503116434631153
 30
0.0
 11
131.09280574449471
 21
60.503116434631153
 31
0.0
  0
LINE
  5
9BE
  8
0
 10
122.3735075142019
 20
61.662301927793841
 30
0.0
 11
131.07257208644501
 21
61.662301927793997
 31
0.0
  0
POLYLINE
  5
9BF
  8
0
 66
     1
 10
0.0
 20
0.0
 30
0.0
  0
VERTEX
  5
C00
  8
0
 10
165.87257679389199
 20
63.541994573217231
 30
0.0
  0
VERTEX
  5
C01
  8
0
 10
165.82937045596449
 20
63.53886694006902
 30
0.0
  0
VERTEX
  5
C02
  8
0
 10
165.78702021750459
 20
63.529535936128887
 30
0.0
  0
VERTEX
  5
C03
  8
0
 10
165.7464440054855
 20
63.514190170911462
 30
0.0
  0
VERTEX
  5
C04
  8
0
 10
165.70850227037531
 20
63.493150758442162
 30
0.0
  0
VERTEX
  5
C05
  8
0
 10
165.673998677838
 20
63.466864692656848
 30
0.0
  0
VERTEX
  5
C06
  8
0
 10
165.64364774423021
 20
63.435879346298599
 30
0.0
  0
VERTEX
  5
C07
  8
0
 10
165.61808172840199
 20
63.400840660418879
 30
0.0
  0
VERTEX
  5
C08
  8
0
 10
165.59783547629601
 20
63.362481354475698
 30
0.0
  0
VERTEX
  5
C09
  8
0
 10
165.5833321327452
 20
63.32160275383265
 30
0.0
  0
VERTEX
  5
C0A
  8
0
 10
165.57487517537419
 20
63.27905949645757
 30
0.0
  0
VERTEX
  5
C0B
  8
0
 10
165.57355687006961
 20
63.266226651339387
 30
0.0
  0
SEQEND
  5
C0C
  8
0
  0
LINE
  5
9C0
  8
0
 10
130.85388030803639
 20
62.931376467174537
 30
0.0
 11
122.5921992926057
 21
62.931376467174537
 31
0.0
  0
ARC
  5
9C1
  8
0
 10
167.1714086140783
 20
64.507368296603744
 30
0.0
 40
1.03470980058747
 50
2.8812382057007091
 51
88.448942317701437
  0
ARC
  5
9C2
  8
0
 10
167.1854055277889
 20
64.509167943146764
 30
0.0
 40
1.020594559767654
 50
1.000994418700772
 51
2.819832462499686
  0
ARC
  5
9C3
  8
0
 10
158.37232894846869
 20
51.257219306619142
 30
0.0
 40
0.4999987284668041
 50
269.99993780089761
 51
358.96369560970101
  0
ARC
  5
9C4
  8
0
 10
132.45279695808449
 20
63.341992736350299
 30
0.0
 40
0.2000000158667632
 50
358.99999999999977
 51
90.0
  0
LINE
  5
9C5
  8
0
 10
114.4782875385981
 20
53.342690318867568
 30
0.0
 11
114.65276508494
 21
63.338502254773381
 31
0.0
  0
LINE
  5
9C6
  8
0
 10
113.05383382449089
 20
62.735734425453501
 30
0.0
 11
113.217790046998
 21
53.342688730267213
 31
0.0
  0
LINE
  5
9C7
  8
0
 10
104.2282867253266
 20
53.342690314967257
 30
0.0
 11
104.39224292013409
 21
62.735734425453501
 31
0.0
  0
LINE
  5
9C8
  8
0
 10
102.7897597199028
 20
63.541992752216828
 30
0.0
 11
102.96778923372651
 21
53.342688733267238
 31
0.0
  0
LINE
  5
9C9
  8
0
 10
104.4670461516684
 20
55.452549939350519
 30
0.0
 11
112.97903059305651
 21
55.452549937950693
 31
0.0
  0
LINE
  5
9CA
  8
0
 10
112.913339497745
 20
59.163106995823313
 30
0.0
 11
104.53273724698001
 21
59.163106995823313
 31
0.0
  0
LINE
  5
9CB
  8
0
 10
104.3532724281481
 20
60.503116434631153
 30
0.0
 11
113.0928043164859
 21
60.503116434631153
 31
0.0
  0
LINE
  5
9CC
  8
0
 10
104.3735060861932
 20
61.662301927793841
 30
0.0
 11
113.07257065843631
 21
61.662301927793841
 31
0.0
  0
LINE
  5
9CD
  8
0
 10
112.85387888002759
 20
62.931376467174537
 30
0.0
 11
104.5921978645971
 21
62.931376467174537
 31
0.0
  0
ARC
  5
9CE
  8
0
 10
114.4527955300758
 20
63.341992736350299
 30
0.0
 40
0.2000000158667632
 50
358.99999999999977
 51
90.0
  0
ARC
  5
9CF
  8
0
 10
211.9476546680595
 20
107.775971468617
 30
0.0
 40
0.5000000396658065
 50
316.91658440299392
 51
48.999999999412751
  0
ARC
  5
9D0
  8
0
 10
209.51455865214609
 20
110.8185387360551
 30
0.0
 40
0.2000000158838977
 50
135.3304335016704
 51
228.9999999977988
  0
ARC
  5
9D1
  8
2
 10
198.31787370733269
 20
102.0697069880939
 30
0.0
 40
0.6579453977626433
 50
127.043971058007
 51
174.56855502008389
  0
ARC
  5
9D2
  8
0
 10
199.16279761820081
 20
100.30164452679701
 30
0.0
 40
1.4999152432083249
 50
179.9999999976925
 51
228.00000000709949
  0
ARC
  5
9D3
  8
2
 10
94.16226277549174
 20
224.38991549505391
 30
0.0
 40
160.0000513581158
 50
310.47164718810092
 51
316.5269855031612
  0
ARC
  5
9D4
  8
0
 10
67.73213773168095
 20
53.373991417506687
 30
0.0
 40
0.4971325262541522
 50
269.61565475676412
 51
356.3900814451211
  0
LINE
  5
9D5
  8
0
 10
77.97880376015496
 20
52.876870076312201
 30
0.0
 11
77.717268085506589
 21
52.876870076312201
 31
0.0
  0
ARC
  5
9D6
  8
0
 10
77.982138544852432
 20
53.373991417506687
 30
0.0
 40
0.4971325262541522
 50
269.61565475676412
 51
356.3900814451211
  0
ARC
  5
9D7
  8
0
 10
77.713933300809117
 20
53.373991417506687
 30
0.0
 40
0.4971325262541522
 50
183.60991855487731
 51
270.384345243236
  0
LINE
  5
9D8
  8
0
 10
85.467268700343652
 20
52.876870076312088
 30
0.0
 11
85.728804374992023
 21
52.876870076312088
 31
0.0
  0
ARC
  5
9D9
  8
0
 10
85.463933915646294
 20
53.373991417506573
 30
0.0
 40
0.4971325262541522
 50
183.60991855487731
 51
270.384345243236
  0
ARC
  5
9DA
  8
0
 10
85.732139159689609
 20
53.373991417506573
 30
0.0
 40
0.4971325262541522
 50
269.61565475676412
 51
356.3900814451211
  0
LINE
  5
9DB
  8
0
 10
95.978805188163719
 20
52.876870076312088
 30
0.0
 11
95.717269513515248
 21
52.876870076312088
 31
0.0
  0
ARC
  5
9DC
  8
0
 10
95.982139972861091
 20
53.373991417506573
 30
0.0
 40
0.4971325262541522
 50
269.61565475676412
 51
356.3900814451211
  0
ARC
  5
9DD
  8
0
 10
95.713934728817776
 20
53.373991417506573
 30
0.0
 40
0.4971325262541522
 50
183.60991855487731
 51
270.384345243236
  0
LINE
  5
9DE
  8
0
 10
103.4672701284526
 20
52.876870076312088
 30
0.0
 11
103.7288058031009
 21
52.876870076312088
 31
0.0
  0
ARC
  5
9DF
  8
0
 10
103.4639353437551
 20
53.373991417506573
 30
0.0
 40
0.4971325262541522
 50
183.60991855487731
 51
270.384345243236
  0
ARC
  5
9E0
  8
0
 10
103.7321405877984
 20
53.373991417506573
 30
0.0
 40
0.4971325262541522
 50
269.61565475676412
 51
356.3900814451211
  0
LINE
  5
9E1
  8
0
 10
113.97880661627249
 20
52.876870076312088
 30
0.0
 11
113.71727094162419
 21
52.876870076312088
 31
0.0
  0
ARC
  5
9E2
  8
0
 10
113.98214140096989
 20
53.373991417506573
 30
0.0
 40
0.4971325262541522
 50
269.61565475676412
 51
356.3900814451211
  0
ARC
  5
9E3
  8
0
 10
113.71393615692659
 20
53.373991417506573
 30
0.0
 40
0.4971325262541522
 50
183.60991855487731
 51
270.384345243236
  0
LINE
  5
9E4
  8
0
 10
121.4672715564612
 20
52.876870076312201
 30
0.0
 11
121.7288072311096
 21
52.876870076312201
 31
0.0
  0
ARC
  5
9E5
  8
0
 10
121.4639367717637
 20
53.373991417506687
 30
0.0
 40
0.4971325262541522
 50
183.60991855487731
 51
270.384345243236
  0
ARC
  5
9E6
  8
0
 10
121.7321420158072
 20
53.373991417506687
 30
0.0
 40
0.4971325262541522
 50
269.61565475676412
 51
356.3900814451211
  0
LINE
  5
9E7
  8
0
 10
131.97880804428121
 20
52.876870076312201
 30
0.0
 11
131.71727236963281
 21
52.876870076312201
 31
0.0
  0
ARC
  5
9E8
  8
0
 10
131.98214282897871
 20
53.373991417506687
 30
0.0
 40
0.4971325262541522
 50
269.61565475676412
 51
356.3900814451211
  0
ARC
  5
9E9
  8
0
 10
131.71393758493531
 20
53.373991417506687
 30
0.0
 40
0.4971325262541522
 50
183.60991855487731
 51
270.384345243236
  0
POLYLINE
  5
9EA
  8
0
 66
     1
 10
0.0
 20
0.0
 30
0.0
  0
VERTEX
  5
C0D
  8
0
 10
68.26707459808631
 20
55.565009681872397
 30
0.0
  0
VERTEX
  5
C0E
  8
0
 10
68.281747024650599
 20
55.522831178426337
 30
0.0
  0
VERTEX
  5
C0F
  8
0
 10
68.324967318379322
 20
55.486613109053017
 30
0.0
  0
VERTEX
  5
C10
  8
0
 10
68.390076729344628
 20
55.461935423395317
 30
0.0
  0
VERTEX
  5
C11
  8
0
 10
68.467044153050892
 20
55.452600098054539
 30
0.0
  0
SEQEND
  5
C12
  8
0
  0
POLYLINE
  5
9EB
  8
0
 66
     1
 10
0.0
 20
0.0
 30
0.0
  0
VERTEX
  5
C13
  8
0
 10
77.178995808703121
 20
55.565009670972501
 30
0.0
  0
VERTEX
  5
C14
  8
0
 10
77.164324415839133
 20
55.52283068782625
 30
0.0
  0
VERTEX
  5
C15
  8
0
 10
77.121104486210456
 20
55.486612056752698
 30
0.0
  0
VERTEX
  5
C16
  8
0
 10
77.055994856345137
 20
55.461933933495203
 30
0.0
  0
VERTEX
  5
C17
  8
0
 10
76.979026879538992
 20
55.452598443654523
 30
0.0
  0
SEQEND
  5
C18
  8
0
  0
POLYLINE
  5
9EC
  8
0
 66
     1
 10
0.0
 20
0.0
 30
0.0
  0
VERTEX
  5
C19
  8
0
 10
86.267076026095197
 20
55.565009681872397
 30
0.0
  0
VERTEX
  5
C1A
  8
0
 10
86.281748452659144
 20
55.522831178426337
 30
0.0
  0
VERTEX
  5
C1B
  8
0
 10
86.324968746388208
 20
55.486613109052797
 30
0.0
  0
VERTEX
  5
C1C
  8
0
 10
86.390078157353514
 20
55.461935423395317
 30
0.0
  0
VERTEX
  5
C1D
  8
0
 10
86.467045581059551
 20
55.452600098054432
 30
0.0
  0
SEQEND
  5
C1E
  8
0
  0
POLYLINE
  5
9ED
  8
0
 66
     1
 10
0.0
 20
0.0
 30
0.0
  0
VERTEX
  5
C1F
  8
0
 10
95.178997236712007
 20
55.565009670972437
 30
0.0
  0
VERTEX
  5
C20
  8
0
 10
95.164325843848147
 20
55.52283068782625
 30
0.0
  0
VERTEX
  5
C21
  8
0
 10
95.121105914219129
 20
55.486612056752698
 30
0.0
  0
VERTEX
  5
C22
  8
0
 10
95.055996284353895
 20
55.461933933495203
 30
0.0
  0
VERTEX
  5
C23
  8
0
 10
94.979028307547665
 20
55.452598443654523
 30
0.0
  0
SEQEND
  5
C24
  8
0
  0
POLYLINE
  5
9EE
  8
0
 66
     1
 10
0.0
 20
0.0
 30
0.0
  0
VERTEX
  5
C25
  8
0
 10
104.267078079904
 20
55.565009670972437
 30
0.0
  0
VERTEX
  5
C26
  8
0
 10
104.2817494727682
 20
55.52283068782625
 30
0.0
  0
VERTEX
  5
C27
  8
0
 10
104.3249694023967
 20
55.486612056752698
 30
0.0
  0
VERTEX
  5
C28
  8
0
 10
104.39007903226231
 20
55.461933933495203
 30
0.0
  0
VERTEX
  5
C29
  8
0
 10
104.4670470090682
 20
55.452598443654523
 30
0.0
  0
SEQEND
  5
C2A
  8
0
  0
POLYLINE
  5
9EF
  8
0
 66
     1
 10
0.0
 20
0.0
 30
0.0
  0
VERTEX
  5
C2B
  8
0
 10
113.17899929052101
 20
55.565009681872397
 30
0.0
  0
VERTEX
  5
C2C
  8
0
 10
113.1643268639567
 20
55.522831178426337
 30
0.0
  0
VERTEX
  5
C2D
  8
0
 10
113.12110657022789
 20
55.486613109052797
 30
0.0
  0
VERTEX
  5
C2E
  8
0
 10
113.0559971592624
 20
55.461935423395317
 30
0.0
  0
VERTEX
  5
C2F
  8
0
 10
112.9790297355563
 20
55.452600098054383
 30
0.0
  0
SEQEND
  5
C30
  8
0
  0
POLYLINE
  5
9F0
  8
0
 66
     1
 10
0.0
 20
0.0
 30
0.0
  0
VERTEX
  5
C31
  8
0
 10
122.2670795079127
 20
55.565009670972501
 30
0.0
  0
VERTEX
  5
C32
  8
0
 10
122.2817509007767
 20
55.52283068782625
 30
0.0
  0
VERTEX
  5
C33
  8
0
 10
122.3249708304056
 20
55.486612056752698
 30
0.0
  0
VERTEX
  5
C34
  8
0
 10
122.3900804602707
 20
55.461933933495203
 30
0.0
  0
VERTEX
  5
C35
  8
0
 10
122.467048437077
 20
55.452598443654523
 30
0.0
  0
SEQEND
  5
C36
  8
0
  0
POLYLINE
  5
9F1
  8
0
 66
     1
 10
0.0
 20
0.0
 30
0.0
  0
VERTEX
  5
C37
  8
0
 10
131.17900071852961
 20
55.565009681872397
 30
0.0
  0
VERTEX
  5
C38
  8
0
 10
131.16432829196521
 20
55.522831178426337
 30
0.0
  0
VERTEX
  5
C39
  8
0
 10
131.12110799823651
 20
55.486613109053017
 30
0.0
  0
VERTEX
  5
C3A
  8
0
 10
131.05599858727129
 20
55.461935423395317
 30
0.0
  0
VERTEX
  5
C3B
  8
0
 10
130.97903116356511
 20
55.452600098054539
 30
0.0
  0
SEQEND
  5
C3C
  8
0
  0
ARC
  5
9F2
  8
0
 10
68.591786222157907
 20
62.731791782091847
 30
0.0
 40
0.1995851037171519
 50
89.882647829860758
 51
179.1319057090831
  0
ARC
  5
9F3
  8
0
 10
76.854284810432205
 20
62.731791782091847
 30
0.0
 40
0.1995851037171519
 50
0.8680942909168926
 51
90.117352170139227
  0
ARC
  5
9F4
  8
0
 10
86.591787650166566
 20
62.731791782091847
 30
0.0
 40
0.1995851037171519
 50
89.882647829860758
 51
179.1319057090831
  0
ARC
  5
9F5
  8
0
 10
94.854286238440864
 20
62.731791782091847
 30
0.0
 40
0.1995851037171519
 50
0.8680942909168926
 51
90.117352170139227
  0
ARC
  5
9F6
  8
0
 10
104.5917890781753
 20
62.731791782091847
 30
0.0
 40
0.1995851037171519
 50
89.882647829860758
 51
179.1319057090831
  0
ARC
  5
9F7
  8
0
 10
112.85428766644959
 20
62.731791782091847
 30
0.0
 40
0.1995851037171519
 50
0.8680942909168926
 51
90.117352170139227
  0
ARC
  5
9F8
  8
0
 10
122.591790506184
 20
62.731791782091847
 30
0.0
 40
0.1995851037171519
 50
89.882647829860758
 51
179.1319057090831
  0
ARC
  5
9F9
  8
0
 10
130.8542890944583
 20
62.731791782091847
 30
0.0
 40
0.1995851037171519
 50
0.8680942909168926
 51
90.117352170139227
  0
POLYLINE
  5
9FA
  8
0
 66
     1
 10
0.0
 20
0.0
 30
0.0
  0
VERTEX
  5
C3D
  8
0
 10
68.332764835998205
 20
59.328400889136702
 30
0.0
  0
VERTEX
  5
C3E
  8
0
 10
68.347168102040541
 20
59.265696475962187
 30
0.0
  0
VERTEX
  5
C3F
  8
0
 10
68.390325632964505
 20
59.212167506815511
 30
0.0
  0
VERTEX
  5
C40
  8
0
 10
68.455549990739314
 20
59.176108516854732
 30
0.0
  0
VERTEX
  5
C41
  8
0
 10
68.532734390862402
 20
59.163106995823199
 30
0.0
  0
SEQEND
  5
C42
  8
0
  0
POLYLINE
  5
9FB
  8
0
 66
     1
 10
0.0
 20
0.0
 30
0.0
  0
VERTEX
  5
C43
  8
0
 10
77.113306196592021
 20
59.328400889136702
 30
0.0
  0
VERTEX
  5
C44
  8
0
 10
77.098903543749316
 20
59.265697706162172
 30
0.0
  0
VERTEX
  5
C45
  8
0
 10
77.055746829425516
 20
59.212168678015608
 30
0.0
  0
VERTEX
  5
C46
  8
0
 10
76.990522305050831
 20
59.176108944454803
 30
0.0
  0
VERTEX
  5
C47
  8
0
 10
76.913336641627325
 20
59.163106996523339
 30
0.0
  0
SEQEND
  5
C48
  8
0
  0
POLYLINE
  5
9FC
  8
0
 66
     1
 10
0.0
 20
0.0
 30
0.0
  0
VERTEX
  5
C49
  8
0
 10
86.33276626400675
 20
59.328400889136589
 30
0.0
  0
VERTEX
  5
C4A
  8
0
 10
86.347169530049314
 20
59.265696475961903
 30
0.0
  0
VERTEX
  5
C4B
  8
0
 10
86.390327060973149
 20
59.212167506815511
 30
0.0
  0
VERTEX
  5
C4C
  8
0
 10
86.455551418747973
 20
59.176108516854732
 30
0.0
  0
VERTEX
  5
C4D
  8
0
 10
86.532735818870947
 20
59.163106995823249
 30
0.0
  0
SEQEND
  5
C4E
  8
0
  0
POLYLINE
  5
9FD
  8
0
 66
     1
 10
0.0
 20
0.0
 30
0.0
  0
VERTEX
  5
C4F
  8
0
 10
95.113307624600793
 20
59.328400889136589
 30
0.0
  0
VERTEX
  5
C50
  8
0
 10
95.098904971757975
 20
59.265697706162108
 30
0.0
  0
VERTEX
  5
C51
  8
0
 10
95.055748257434175
 20
59.212168678015608
 30
0.0
  0
VERTEX
  5
C52
  8
0
 10
94.990523733059604
 20
59.176108944454569
 30
0.0
  0
VERTEX
  5
C53
  8
0
 10
94.913338069636325
 20
59.163106996523283
 30
0.0
  0
SEQEND
  5
C54
  8
0
  0
POLYLINE
  5
9FE
  8
0
 66
     1
 10
0.0
 20
0.0
 30
0.0
  0
VERTEX
  5
C55
  8
0
 10
104.33276769201559
 20
59.328400889136589
 30
0.0
  0
VERTEX
  5
C56
  8
0
 10
104.3471703448582
 20
59.265697706162108
 30
0.0
  0
VERTEX
  5
C57
  8
0
 10
104.3903270591821
 20
59.212168678015608
 30
0.0
  0
VERTEX
  5
C58
  8
0
 10
104.4555515835563
 20
59.176108944454569
 30
0.0
  0
VERTEX
  5
C59
  8
0
 10
104.53273724698001
 20
59.163106996523339
 30
0.0
  0
SEQEND
  5
C5A
  8
0
  0
POLYLINE
  5
9FF
  8
0
 66
     1
 10
0.0
 20
0.0
 30
0.0
  0
VERTEX
  5
C5B
  8
0
 10
113.1133090526094
 20
59.328400889136589
 30
0.0
  0
VERTEX
  5
C5C
  8
0
 10
113.0989057865666
 20
59.265696475961903
 30
0.0
  0
VERTEX
  5
C5D
  8
0
 10
113.0557482556427
 20
59.212167506815511
 30
0.0
  0
VERTEX
  5
C5E
  8
0
 10
112.9905238978683
 20
59.176108516854732
 30
0.0
  0
VERTEX
  5
C5F
  8
0
 10
112.913339497745
 20
59.163106995823249
 30
0.0
  0
SEQEND
  5
C60
  8
0
  0
POLYLINE
  5
A00
  8
0
 66
     1
 10
0.0
 20
0.0
 30
0.0
  0
VERTEX
  5
C61
  8
0
 10
122.3327691200241
 20
59.328400889136702
 30
0.0
  0
VERTEX
  5
C62
  8
0
 10
122.347171772867
 20
59.265697706162172
 30
0.0
  0
VERTEX
  5
C63
  8
0
 10
122.3903284871908
 20
59.212168678015608
 30
0.0
  0
VERTEX
  5
C64
  8
0
 10
122.455553011565
 20
59.176108944454803
 30
0.0
  0
VERTEX
  5
C65
  8
0
 10
122.53273867498871
 20
59.163106996523283
 30
0.0
  0
SEQEND
  5
C66
  8
0
  0
POLYLINE
  5
A01
  8
0
 66
     1
 10
0.0
 20
0.0
 30
0.0
  0
VERTEX
  5
C67
  8
0
 10
131.113310480618
 20
59.328400889136702
 30
0.0
  0
VERTEX
  5
C68
  8
0
 10
131.09890721457481
 20
59.265696475962187
 30
0.0
  0
VERTEX
  5
C69
  8
0
 10
131.0557496836513
 20
59.212167506815511
 30
0.0
  0
VERTEX
  5
C6A
  8
0
 10
130.99052532587689
 20
59.176108516854732
 30
0.0
  0
VERTEX
  5
C6B
  8
0
 10
130.91334092575369
 20
59.163106995823249
 30
0.0
  0
SEQEND
  5
C6C
  8
0
  0
POLYLINE
  5
A03
  8
0
 66
     1
 10
0.0
 20
0.0
 30
0.0
  0
VERTEX
  5
C6D
  8
0
 10
99.723037658308144
 20
102.1319846004105
 30
0.0
  0
VERTEX
  5
C6E
  8
0
 10
87.329784916636015
 20
102.16213033364591
 30
0.0
  0
VERTEX
  5
C6F
  8
0
 10
73.412168346614123
 20
102.20532505967429
 30
0.0
  0
VERTEX
  5
C70
  8
0
 10
62.843012540572772
 20
102.2438793538506
 30
0.0
  0
VERTEX
  5
C71
  8
0
 10
52.529016352283179
 20
102.2750959201162
 30
0.0
  0
VERTEX
  5
C72
  8
0
 10
37.238573193471673
 20
102.30007060430169
 30
0.0
  0
SEQEND
  5
C73
  8
0
  0
POLYLINE
  5
A04
  8
0
 66
     1
 10
0.0
 20
0.0
 30
0.0
  0
VERTEX
  5
C74
  8
0
 10
37.238573193471673
 20
102.30007060430169
 30
0.0
  0
VERTEX
  5
C75
  8
0
 10
37.088311011850813
 20
102.3101552921021
 30
0.0
  0
VERTEX
  5
C76
  8
0
 10
37.013509468616348
 20
102.3220970648494
 30
0.0
  0
VERTEX
  5
C77
  8
0
 10
36.938681063979971
 20
102.3387851997731
 30
0.0
  0
VERTEX
  5
C78
  8
0
 10
36.788366006354977
 20
102.3872974683221
 30
0.0
  0
VERTEX
  5
C79
  8
0
 10
36.712646792847863
 20
102.4197714011984
 30
0.0
  0
VERTEX
  5
C7A
  8
0
 10
36.63659111901427
 20
102.45822355204891
 30
0.0
  0
VERTEX
  5
C7B
  8
0
 10
36.5607934917008
 20
102.5027755668832
 30
0.0
  0
VERTEX
  5
C7C
  8
0
 10
36.48599529856665
 20
102.55334760879541
 30
0.0
  0
VERTEX
  5
C7D
  8
0
 10
36.340707841940571
 20
102.6729221395815
 30
0.0
  0
VERTEX
  5
C7E
  8
0
 10
36.270734216989347
 20
102.74222921388009
 30
0.0
  0
VERTEX
  5
C7F
  8
0
 10
36.202967801713271
 20
102.8180444045948
 30
0.0
  0
VERTEX
  5
C80
  8
0
 10
36.137781716141717
 20
102.9004473678322
 30
0.0
  0
VERTEX
  5
C81
  8
0
 10
36.075588825007458
 20
102.98947055879469
 30
0.0
  0
VERTEX
  5
C82
  8
0
 10
36.016838549846632
 20
103.08508559908
 30
0.0
  0
VERTEX
  5
C83
  8
0
 10
35.962010618596992
 20
103.18719054088059
 30
0.0
  0
VERTEX
  5
C84
  8
0
 10
35.938513009240857
 20
103.23571607728969
 30
0.0
  0
VERTEX
  5
C85
  8
0
 10
35.911606617898087
 20
103.295597532381
 30
0.0
  0
VERTEX
  5
C86
  8
0
 10
35.866139060891442
 20
103.41002195715861
 30
0.0
  0
VERTEX
  5
C87
  8
0
 10
35.826118095215982
 20
103.53007400488281
 30
0.0
  0
VERTEX
  5
C88
  8
0
 10
35.792036327612443
 20
103.6552531957136
 30
0.0
  0
VERTEX
  5
C89
  8
0
 10
35.764352021815967
 20
103.78494769070279
 30
0.0
  0
VERTEX
  5
C8A
  8
0
 10
35.754730803314033
 20
103.84060581279149
 30
0.0
  0
VERTEX
  5
C8B
  8
0
 10
35.743471908359652
 20
103.9184377718932
 30
0.0
  0
VERTEX
  5
C8C
  8
0
 10
35.729734272669823
 20
104.05490430911971
 30
0.0
  0
VERTEX
  5
C8D
  8
0
 10
35.723393330266511
 20
104.1934470896105
 30
0.0
  0
VERTEX
  5
C8E
  8
0
 10
35.723037658308272
 20
104.2617364476847
 30
0.0
  0
VERTEX
  5
C8F
  8
0
 10
35.724606639263023
 20
104.333088186889
 30
0.0
  0
VERTEX
  5
C90
  8
0
 10
35.733425760162497
 20
104.4728305014753
 30
0.0
  0
SEQEND
  5
C91
  8
0
  0
POLYLINE
  5
A06
  8
0
 66
     1
 10
0.0
 20
0.0
 30
0.0
  0
VERTEX
  5
C92
  8
0
 10
34.214702642548453
 20
99.18701557582979
 30
0.0
  0
VERTEX
  5
C93
  8
0
 10
34.073395337137868
 20
99.191304538569995
 30
0.0
  0
VERTEX
  5
C94
  8
0
 10
33.932293193643552
 20
99.202946587493685
 30
0.0
  0
VERTEX
  5
C95
  8
0
 10
33.652078746613263
 20
99.24825989758854
 30
0.0
  0
VERTEX
  5
C96
  8
0
 10
33.513592629326808
 20
99.281906434357737
 30
0.0
  0
VERTEX
  5
C97
  8
0
 10
33.376593649457853
 20
99.322858149206667
 30
0.0
  0
VERTEX
  5
C98
  8
0
 10
33.241376232130513
 20
99.371097258933688
 30
0.0
  0
VERTEX
  5
C99
  8
0
 10
33.108224981067004
 20
99.426606835037461
 30
0.0
  0
VERTEX
  5
C9A
  8
0
 10
32.977415832789241
 20
99.489372138716732
 30
0.0
  0
VERTEX
  5
C9B
  8
0
 10
32.849215861518807
 20
99.559382546571044
 30
0.0
  0
VERTEX
  5
C9C
  8
0
 10
32.601669963280422
 20
99.721128723503014
 30
0.0
  0
VERTEX
  5
C9D
  8
0
 10
32.482818196251401
 20
99.812882571382104
 30
0.0
  0
VERTEX
  5
C9E
  8
0
 10
32.367565886807938
 20
99.911922630539223
 30
0.0
  0
VERTEX
  5
C9F
  8
0
 10
32.256146195468553
 20
100.018292354378
 30
0.0
  0
VERTEX
  5
CA0
  8
0
 10
32.14879028945154
 20
100.1320536023032
 30
0.0
  0
VERTEX
  5
CA1
  8
0
 10
32.045730467275462
 20
100.25328886682119
 30
0.0
  0
VERTEX
  5
CA2
  8
0
 10
31.947204172259038
 20
100.3821028679402
 30
0.0
  0
VERTEX
  5
CA3
  8
0
 10
31.85345946202176
 20
100.51862240627121
 30
0.0
  0
VERTEX
  5
CA4
  8
0
 10
31.764762099685068
 20
100.6629932407247
 30
0.0
  0
VERTEX
  5
CA5
  8
0
 10
31.681404498972139
 20
100.81537189151329
 30
0.0
  0
VERTEX
  5
CA6
  8
0
 10
31.60371654700873
 20
100.97590918854949
 30
0.0
  0
VERTEX
  5
CA7
  8
0
 10
31.53207840272535
 20
101.1447197139416
 30
0.0
  0
VERTEX
  5
CA8
  8
0
 10
31.466933410957381
 20
101.3218311450927
 30
0.0
  0
VERTEX
  5
CA9
  8
0
 10
31.439552442261181
 20
101.4052192078512
 30
0.0
  0
VERTEX
  5
CAA
  8
0
 10
31.408799696745412
 20
101.50709973909071
 30
0.0
  0
VERTEX
  5
CAB
  8
0
 10
31.35826785713607
 20
101.7001039485027
 30
0.0
  0
VERTEX
  5
CAC
  8
0
 10
31.315992110982279
 20
101.89994960775709
 30
0.0
  0
VERTEX
  5
CAD
  8
0
 10
31.282612476434451
 20
102.1052286531424
 30
0.0
  0
VERTEX
  5
CAE
  8
0
 10
31.268895898665281
 20
102.21403441989079
 30
0.0
  0
VERTEX
  5
CAF
  8
0
 10
31.25886304635014
 20
102.31189428503821
 30
0.0
  0
VERTEX
  5
CB0
  8
0
 10
31.244955231646831
 20
102.51417608998609
 30
0.0
  0
VERTEX
  5
CB1
  8
0
 10
31.240230979872191
 20
102.7096891016966
 30
0.0
  0
SEQEND
  5
CB2
  8
0
  0
POLYLINE
  5
A07
  8
0
 66
     1
 10
0.0
 20
0.0
 30
0.0
  0
VERTEX
  5
CB3
  8
0
 10
34.188455723165823
 20
97.833031003513057
 30
0.0
  0
VERTEX
  5
CB4
  8
0
 10
33.411201384103379
 20
97.971282388180754
 30
0.0
  0
VERTEX
  5
CB5
  8
0
 10
33.026774580305421
 20
98.149470969217319
 30
0.0
  0
VERTEX
  5
CB6
  8
0
 10
32.649496508074549
 20
98.408590244574171
 30
0.0
  0
VERTEX
  5
CB7
  8
0
 10
32.28667955149092
 20
98.756509118176055
 30
0.0
  0
VERTEX
  5
CB8
  8
0
 10
31.950114583790089
 20
99.199794714343525
 30
0.0
  0
VERTEX
  5
CB9
  8
0
 10
31.65614722506837
 20
99.740431960434208
 30
0.0
  0
VERTEX
  5
CBA
  8
0
 10
31.424419040484391
 20
100.3720428482424
 30
0.0
  0
VERTEX
  5
CBB
  8
0
 10
31.33509055536604
 20
100.73163987354221
 30
0.0
  0
VERTEX
  5
CBC
  8
0
 10
31.274917644023962
 20
101.0762005246058
 30
0.0
  0
VERTEX
  5
CBD
  8
0
 10
31.223037658308161
 20
101.82278685683529
 30
0.0
  0
SEQEND
  5
CBE
  8
0
  0
POLYLINE
  5
A08
  8
0
 66
     1
 10
0.0
 20
0.0
 30
0.0
  0
VERTEX
  5
CBF
  8
0
 10
31.239893503845231
 20
129.3352665093052
 30
0.0
  0
VERTEX
  5
CC0
  8
0
 10
31.24567764180426
 20
129.57040399635969
 30
0.0
  0
VERTEX
  5
CC1
  8
0
 10
31.251753583335251
 20
129.67650729227449
 30
0.0
  0
VERTEX
  5
CC2
  8
0
 10
31.262158828111751
 20
129.80644659928581
 30
0.0
  0
VERTEX
  5
CC3
  8
0
 10
31.288954244037321
 20
130.0380207398575
 30
0.0
  0
VERTEX
  5
CC4
  8
0
 10
31.32536156502556
 20
130.26223149544501
 30
0.0
  0
VERTEX
  5
CC5
  8
0
 10
31.343136680013121
 20
130.35285165324001
 30
0.0
  0
VERTEX
  5
CC6
  8
0
 10
31.37056846731241
 20
130.47736280761211
 30
0.0
  0
VERTEX
  5
CC7
  8
0
 10
31.423786499934408
 20
130.68257895499261
 30
0.0
  0
VERTEX
  5
CC8
  8
0
 10
31.484315470236311
 20
130.8776265646666
 30
0.0
  0
VERTEX
  5
CC9
  8
0
 10
31.55155919407105
 20
131.0625904947405
 30
0.0
  0
VERTEX
  5
CCA
  8
0
 10
31.625016286598679
 20
131.2377255811345
 30
0.0
  0
VERTEX
  5
CCB
  8
0
 10
31.664559325927371
 20
131.32300107371219
 30
0.0
  0
VERTEX
  5
CCC
  8
0
 10
31.704262478385431
 20
131.40335436797429
 30
0.0
  0
VERTEX
  5
CCD
  8
0
 10
31.788932325502628
 20
131.5598098801868
 30
0.0
  0
VERTEX
  5
CCE
  8
0
 10
31.878703473524642
 20
131.70740641599619
 30
0.0
  0
VERTEX
  5
CCF
  8
0
 10
31.973284260828219
 20
131.84642665702509
 30
0.0
  0
VERTEX
  5
CD0
  8
0
 10
32.175806439794883
 20
132.09968973191729
 30
0.0
  0
VERTEX
  5
CD1
  8
0
 10
32.283243227818048
 20
132.2143219654117
 30
0.0
  0
VERTEX
  5
CD2
  8
0
 10
32.394471561842472
 20
132.3211630505879
 30
0.0
  0
VERTEX
  5
CD3
  8
0
 10
32.509250971048232
 20
132.42033657045539
 30
0.0
  0
VERTEX
  5
CD4
  8
0
 10
32.627341536316983
 20
132.51194425192301
 30
0.0
  0
VERTEX
  5
CD5
  8
0
 10
32.748502640029074
 20
132.59606925649729
 30
0.0
  0
VERTEX
  5
CD6
  8
0
 10
32.87249216716566
 20
132.67277909818259
 30
0.0
  0
VERTEX
  5
CD7
  8
0
 10
33.127977513534347
 20
132.8041596968057
 30
0.0
  0
VERTEX
  5
CD8
  8
0
 10
33.258977463726978
 20
132.8589077678489
 30
0.0
  0
VERTEX
  5
CD9
  8
0
 10
33.39181338846538
 20
132.90639850881661
 30
0.0
  0
VERTEX
  5
CDA
  8
0
 10
33.52622988212886
 20
132.94665163641031
 30
0.0
  0
VERTEX
  5
CDB
  8
0
 10
33.661966673297798
 20
132.97968107933031
 30
0.0
  0
VERTEX
  5
CDC
  8
0
 10
33.936342996364942
 20
133.0241044108549
 30
0.0
  0
VERTEX
  5
CDD
  8
0
 10
34.07444904282147
 20
133.03550830775961
 30
0.0
  0
VERTEX
  5
CDE
  8
0
 10
34.212763306994589
 20
133.03970859939281
 30
0.0
  0
SEQEND
  5
CDF
  8
0
  0
POLYLINE
  5
A09
  8
0
 66
     1
 10
0.0
 20
0.0
 30
0.0
  0
VERTEX
  5
CE0
  8
0
 10
31.223037658308161
 20
130.40775252118959
 30
0.0
  0
VERTEX
  5
CE1
  8
0
 10
31.248751682998211
 20
130.9929787392158
 30
0.0
  0
VERTEX
  5
CE2
  8
0
 10
31.281981079084289
 20
131.29084857564899
 30
0.0
  0
VERTEX
  5
CE3
  8
0
 10
31.44895753073126
 20
132.11000443633591
 30
0.0
  0
VERTEX
  5
CE4
  8
0
 10
31.698964464664979
 20
132.82135475697001
 30
0.0
  0
VERTEX
  5
CE5
  8
0
 10
32.005379358474329
 20
133.4115728915942
 30
0.0
  0
VERTEX
  5
CE6
  8
0
 10
32.348702523711381
 20
133.8861094052408
 30
0.0
  0
VERTEX
  5
CE7
  8
0
 10
32.71222128265061
 20
134.25175533784909
 30
0.0
  0
VERTEX
  5
CE8
  8
0
 10
33.081958123083382
 20
134.51765295044379
 30
0.0
  0
VERTEX
  5
CE9
  8
0
 10
33.818423615210122
 20
134.79946547480111
 30
0.0
  0
VERTEX
  5
CEA
  8
0
 10
34.184579953858702
 20
134.83303393886419
 30
0.0
  0
SEQEND
  5
CEB
  8
0
  0
LINE
  5
A0A
  8
0
 10
168.2230376583079
 20
130.40775252119039
 30
0.0
 11
168.22303765830841
 21
101.8227868568361
 31
0.0
  0
POLYLINE
  5
A0B
  8
0
 66
     1
 10
0.0
 20
0.0
 30
0.0
  0
VERTEX
  5
CEC
  8
0
 10
165.23137267406821
 20
99.187015575830515
 30
0.0
  0
VERTEX
  5
CED
  8
0
 10
165.3726799794789
 20
99.191304538570705
 30
0.0
  0
VERTEX
  5
CEE
  8
0
 10
165.51378212297311
 20
99.202946587494395
 30
0.0
  0
VERTEX
  5
CEF
  8
0
 10
165.79399657000349
 20
99.248259897589264
 30
0.0
  0
VERTEX
  5
CF0
  8
0
 10
165.93248268728991
 20
99.281906434358518
 30
0.0
  0
VERTEX
  5
CF1
  8
0
 10
166.06948166715881
 20
99.322858149207434
 30
0.0
  0
VERTEX
  5
CF2
  8
0
 10
166.20469908448609
 20
99.371097258934469
 30
0.0
  0
VERTEX
  5
CF3
  8
0
 10
166.3378503355496
 20
99.426606835038243
 30
0.0
  0
VERTEX
  5
CF4
  8
0
 10
166.46865948382739
 20
99.489372138717513
 30
0.0
  0
VERTEX
  5
CF5
  8
0
 10
166.5968594550979
 20
99.559382546571825
 30
0.0
  0
VERTEX
  5
CF6
  8
0
 10
166.84440535333621
 20
99.721128723503796
 30
0.0
  0
VERTEX
  5
CF7
  8
0
 10
166.9632571203652
 20
99.812882571382886
 30
0.0
  0
VERTEX
  5
CF8
  8
0
 10
167.07850942980869
 20
99.911922630540005
 30
0.0
  0
VERTEX
  5
CF9
  8
0
 10
167.18992912114811
 20
100.0182923543788
 30
0.0
  0
VERTEX
  5
CFA
  8
0
 10
167.29728502716509
 20
100.132053602304
 30
0.0
  0
VERTEX
  5
CFB
  8
0
 10
167.4003448493412
 20
100.253288866822
 30
0.0
  0
VERTEX
  5
CFC
  8
0
 10
167.49887114435759
 20
100.382102867941
 30
0.0
  0
VERTEX
  5
CFD
  8
0
 10
167.5926158545949
 20
100.5186224062719
 30
0.0
  0
VERTEX
  5
CFE
  8
0
 10
167.68131321693161
 20
100.6629932407255
 30
0.0
  0
VERTEX
  5
CFF
  8
0
 10
167.76467081764449
 20
100.8153718915141
 30
0.0
  0
VERTEX
  5
D00
  8
0
 10
167.8423587696079
 20
100.9759091885503
 30
0.0
  0
VERTEX
  5
D01
  8
0
 10
167.9139969138912
 20
101.14471971394239
 30
0.0
  0
VERTEX
  5
D02
  8
0
 10
167.97914190565911
 20
101.3218311450935
 30
0.0
  0
VERTEX
  5
D03
  8
0
 10
168.00652287435531
 20
101.405219207852
 30
0.0
  0
VERTEX
  5
D04
  8
0
 10
168.0372756198712
 20
101.5070997390914
 30
0.0
  0
VERTEX
  5
D05
  8
0
 10
168.0878074594805
 20
101.7001039485034
 30
0.0
  0
VERTEX
  5
D06
  8
0
 10
168.13008320563421
 20
101.8999496077579
 30
0.0
  0
VERTEX
  5
D07
  8
0
 10
168.16346284018209
 20
102.1052286531431
 30
0.0
  0
VERTEX
  5
D08
  8
0
 10
168.17717941795121
 20
102.2140344198915
 30
0.0
  0
VERTEX
  5
D09
  8
0
 10
168.1872122702664
 20
102.311894285039
 30
0.0
  0
VERTEX
  5
D0A
  8
0
 10
168.20112008496969
 20
102.5141760899869
 30
0.0
  0
VERTEX
  5
D0B
  8
0
 10
168.20584433674441
 20
102.70968910169741
 30
0.0
  0
SEQEND
  5
D0C
  8
0
  0
POLYLINE
  5
A0C
  8
0
 66
     1
 10
0.0
 20
0.0
 30
0.0
  0
VERTEX
  5
D0D
  8
0
 10
165.25761959345081
 20
97.833031003513781
 30
0.0
  0
VERTEX
  5
D0E
  8
0
 10
166.03487393251331
 20
97.971282388181535
 30
0.0
  0
VERTEX
  5
D0F
  8
0
 10
166.41930073631119
 20
98.149470969218115
 30
0.0
  0
VERTEX
  5
D10
  8
0
 10
166.79657880854211
 20
98.408590244574896
 30
0.0
  0
VERTEX
  5
D11
  8
0
 10
167.15939576512571
 20
98.756509118176837
 30
0.0
  0
VERTEX
  5
D12
  8
0
 10
167.4959607328266
 20
99.199794714344307
 30
0.0
  0
VERTEX
  5
D13
  8
0
 10
167.78992809154829
 20
99.740431960434989
 30
0.0
  0
VERTEX
  5
D14
  8
0
 10
168.02165627613229
 20
100.3720428482432
 30
0.0
  0
VERTEX
  5
D15
  8
0
 10
168.11098476125059
 20
100.731639873543
 30
0.0
  0
VERTEX
  5
D16
  8
0
 10
168.17115767259261
 20
101.07620052460651
 30
0.0
  0
VERTEX
  5
D17
  8
0
 10
168.22303765830841
 20
101.8227868568361
 30
0.0
  0
SEQEND
  5
D18
  8
0
  0
POLYLINE
  5
A0D
  8
0
 66
     1
 10
0.0
 20
0.0
 30
0.0
  0
VERTEX
  5
D19
  8
0
 10
168.20618181277081
 20
129.33526650930591
 30
0.0
  0
VERTEX
  5
D1A
  8
0
 10
168.2003976748118
 20
129.57040399636051
 30
0.0
  0
VERTEX
  5
D1B
  8
0
 10
168.19432173328079
 20
129.6765072922752
 30
0.0
  0
VERTEX
  5
D1C
  8
0
 10
168.18391648850431
 20
129.8064465992866
 30
0.0
  0
VERTEX
  5
D1D
  8
0
 10
168.1571210725788
 20
130.03802073985821
 30
0.0
  0
VERTEX
  5
D1E
  8
0
 10
168.1207137515905
 20
130.2622314954458
 30
0.0
  0
VERTEX
  5
D1F
  8
0
 10
168.10293863660289
 20
130.3528516532408
 30
0.0
  0
VERTEX
  5
D20
  8
0
 10
168.07550684930371
 20
130.47736280761291
 30
0.0
  0
VERTEX
  5
D21
  8
0
 10
168.02228881668171
 20
130.6825789549934
 30
0.0
  0
VERTEX
  5
D22
  8
0
 10
167.96175984637969
 20
130.87762656466739
 30
0.0
  0
VERTEX
  5
D23
  8
0
 10
167.89451612254501
 20
131.0625904947413
 30
0.0
  0
VERTEX
  5
D24
  8
0
 10
167.82105903001741
 20
131.23772558113529
 30
0.0
  0
VERTEX
  5
D25
  8
0
 10
167.7815159906888
 20
131.32300107371299
 30
0.0
  0
VERTEX
  5
D26
  8
0
 10
167.7418128382306
 20
131.40335436797511
 30
0.0
  0
VERTEX
  5
D27
  8
0
 10
167.6571429911134
 20
131.5598098801876
 30
0.0
  0
VERTEX
  5
D28
  8
0
 10
167.56737184309139
 20
131.70740641599701
 30
0.0
  0
VERTEX
  5
D29
  8
0
 10
167.47279105578801
 20
131.84642665702589
 30
0.0
  0
VERTEX
  5
D2A
  8
0
 10
167.27026887682121
 20
132.09968973191809
 30
0.0
  0
VERTEX
  5
D2B
  8
0
 10
167.16283208879801
 20
132.21432196541249
 30
0.0
  0
VERTEX
  5
D2C
  8
0
 10
167.05160375477359
 20
132.32116305058869
 30
0.0
  0
VERTEX
  5
D2D
  8
0
 10
166.9368243455678
 20
132.42033657045619
 30
0.0
  0
VERTEX
  5
D2E
  8
0
 10
166.8187337802992
 20
132.51194425192381
 30
0.0
  0
VERTEX
  5
D2F
  8
0
 10
166.69757267658699
 20
132.59606925649811
 30
0.0
  0
VERTEX
  5
D30
  8
0
 10
166.5735831494504
 20
132.67277909818341
 30
0.0
  0
VERTEX
  5
D31
  8
0
 10
166.31809780308171
 20
132.80415969680649
 30
0.0
  0
VERTEX
  5
D32
  8
0
 10
166.18709785288911
 20
132.8589077678497
 30
0.0
  0
VERTEX
  5
D33
  8
0
 10
166.05426192815071
 20
132.9063985088174
 30
0.0
  0
VERTEX
  5
D34
  8
0
 10
165.9198454344872
 20
132.9466516364111
 30
0.0
  0
VERTEX
  5
D35
  8
0
 10
165.7841086433184
 20
132.9796810793311
 30
0.0
  0
VERTEX
  5
D36
  8
0
 10
165.50973232025109
 20
133.0241044108557
 30
0.0
  0
VERTEX
  5
D37
  8
0
 10
165.37162627379459
 20
133.03550830776041
 30
0.0
  0
VERTEX
  5
D38
  8
0
 10
165.2333120096215
 20
133.03970859939361
 30
0.0
  0
SEQEND
  5
D39
  8
0
  0
POLYLINE
  5
A0E
  8
0
 66
     1
 10
0.0
 20
0.0
 30
0.0
  0
VERTEX
  5
D3A
  8
0
 10
168.2230376583079
 20
130.40775252119039
 30
0.0
  0
VERTEX
  5
D3B
  8
0
 10
168.197323633618
 20
130.9929787392166
 30
0.0
  0
VERTEX
  5
D3C
  8
0
 10
168.1640942375318
 20
131.29084857564979
 30
0.0
  0
VERTEX
  5
D3D
  8
0
 10
167.9971177858848
 20
132.11000443633671
 30
0.0
  0
VERTEX
  5
D3E
  8
0
 10
167.74711085195111
 20
132.82135475697081
 30
0.0
  0
VERTEX
  5
D3F
  8
0
 10
167.44069595814159
 20
133.411572891595
 30
0.0
  0
VERTEX
  5
D40
  8
0
 10
167.09737279290459
 20
133.8861094052416
 30
0.0
  0
VERTEX
  5
D41
  8
0
 10
166.73385403396529
 20
134.25175533784989
 30
0.0
  0
VERTEX
  5
D42
  8
0
 10
166.36411719353271
 20
134.51765295044461
 30
0.0
  0
VERTEX
  5
D43
  8
0
 10
165.6276517014058
 20
134.79946547480191
 30
0.0
  0
VERTEX
  5
D44
  8
0
 10
165.26149536275719
 20
134.83303393886499
 30
0.0
  0
SEQEND
  5
D45
  8
0
  0
LINE
  5
A0F
  8
0
 10
31.223037658308161
 20
169.12407219016009
 30
0.0
 11
31.24023097984832
 21
168.139067457549
 31
0.0
  0
POLYLINE
  5
A10
  8
0
 66
     1
 10
0.0
 20
0.0
 30
0.0
  0
VERTEX
  5
D46
  8
0
 10
33.872517707446043
 20
169.39983348543731
 30
0.0
  0
VERTEX
  5
D47
  8
0
 10
33.946449105411489
 20
170.28864318604991
 30
0.0
  0
VERTEX
  5
D48
  8
0
 10
34.133698845666579
 20
172.35635381268929
 30
0.0
  0
VERTEX
  5
D49
  8
0
 10
34.339924785127323
 20
174.38668609496341
 30
0.0
  0
VERTEX
  5
D4A
  8
0
 10
34.565909773555518
 20
176.37932055814659
 30
0.0
  0
VERTEX
  5
D4B
  8
0
 10
34.812424989612403
 20
178.33394945241471
 30
0.0
  0
VERTEX
  5
D4C
  8
0
 10
35.07276262106609
 20
180.19940649480861
 30
0.0
  0
SEQEND
  5
D4D
  8
0
  0
POLYLINE
  5
A11
  8
0
 66
     1
 10
0.0
 20
0.0
 30
0.0
  0
VERTEX
  5
D4E
  8
0
 10
35.07275566196563
 20
180.1993578499046
 30
0.0
  0
VERTEX
  5
D4F
  8
0
 10
35.15021648391064
 20
180.70319599707611
 30
0.0
  0
VERTEX
  5
D50
  8
0
 10
35.239710320410722
 20
181.2288311135768
 30
0.0
  0
VERTEX
  5
D51
  8
0
 10
35.333575423057368
 20
181.7232049455973
 30
0.0
  0
VERTEX
  5
D52
  8
0
 10
35.431618286035253
 20
182.1852096838501
 30
0.0
  0
VERTEX
  5
D53
  8
0
 10
35.533760386338827
 20
182.61476930022849
 30
0.0
  0
VERTEX
  5
D54
  8
0
 10
35.640060783671863
 20
183.01259570368961
 30
0.0
  0
VERTEX
  5
D55
  8
0
 10
35.750655976545893
 20
183.37975225151749
 30
0.0
  0
VERTEX
  5
D56
  8
0
 10
35.865832729083422
 20
183.7176578297248
 30
0.0
  0
VERTEX
  5
D57
  8
0
 10
35.98604584622035
 20
184.028082341052
 30
0.0
  0
VERTEX
  5
D58
  8
0
 10
36.112062204117819
 20
184.3132072247719
 30
0.0
  0
VERTEX
  5
D59
  8
0
 10
36.244800699648181
 20
184.57502524394309
 30
0.0
  0
VERTEX
  5
D5A
  8
0
 10
36.385874614840311
 20
184.81623720527929
 30
0.0
  0
VERTEX
  5
D5B
  8
0
 10
36.536922125123169
 20
185.0386061424206
 30
0.0
  0
VERTEX
  5
D5C
  8
0
 10
36.700464846697862
 20
185.2441403384266
 30
0.0
  0
VERTEX
  5
D5D
  8
0
 10
36.879365652790511
 20
185.4338924634803
 30
0.0
  0
VERTEX
  5
D5E
  8
0
 10
37.075023014813041
 20
185.6063559234625
 30
0.0
  0
VERTEX
  5
D5F
  8
0
 10
37.28927079741004
 20
185.7599197407452
 30
0.0
  0
VERTEX
  5
D60
  8
0
 10
37.520897576985931
 20
185.89065460041689
 30
0.0
  0
VERTEX
  5
D61
  8
0
 10
37.768312425914253
 20
185.9951970078107
 30
0.0
  0
VERTEX
  5
D62
  8
0
 10
38.027810921801461
 20
186.0701656007582
 30
0.0
  0
VERTEX
  5
D63
  8
0
 10
38.293908612211908
 20
186.11317021027
 30
0.0
  0
VERTEX
  5
D64
  8
0
 10
38.511760490694648
 20
186.1240721248349
 30
0.0
  0
SEQEND
  5
D65
  8
0
  0
LINE
  5
A12
  8
0
 10
160.93431482592101
 20
186.1240721248349
 30
0.0
 11
38.511760490694648
 21
186.1240721248349
 31
0.0
  0
LINE
  5
A13
  8
1
 10
99.723037658308144
 20
164.12421939468859
 30
0.0
 11
99.723037658308144
 21
189.1240728318478
 31
0.0
  0
POLYLINE
  5
A14
  8
0
 66
     1
 10
0.0
 20
0.0
 30
0.0
  0
VERTEX
  5
D66
  8
0
 10
33.573498522723753
 20
169.12407036915991
 30
0.0
  0
VERTEX
  5
D67
  8
0
 10
33.616704860651218
 20
169.12719800230809
 30
0.0
  0
VERTEX
  5
D68
  8
0
 10
33.659055099111363
 20
169.1365290062482
 30
0.0
  0
VERTEX
  5
D69
  8
0
 10
33.69963131113014
 20
169.15187477146571
 30
0.0
  0
VERTEX
  5
D6A
  8
0
 10
33.737573046240414
 20
169.17291418393501
 30
0.0
  0
VERTEX
  5
D6B
  8
0
 10
33.772076638777548
 20
169.19920024972029
 30
0.0
  0
VERTEX
  5
D6C
  8
0
 10
33.802427572385568
 20
169.23018559607851
 30
0.0
  0
VERTEX
  5
D6D
  8
0
 10
33.827993588213637
 20
169.26522428195821
 30
0.0
  0
VERTEX
  5
D6E
  8
0
 10
33.848239840320048
 20
169.30358358790139
 30
0.0
  0
VERTEX
  5
D6F
  8
0
 10
33.862743183870641
 20
169.3444621885445
 30
0.0
  0
VERTEX
  5
D70
  8
0
 10
33.871200141241388
 20
169.3870054459195
 30
0.0
  0
VERTEX
  5
D71
  8
0
 10
33.872518446546231
 20
169.3998382910377
 30
0.0
  0
SEQEND
  5
D72
  8
0
  0
LINE
  5
A15
  8
0
 10
168.22288015603101
 20
169.1150488907403
 30
0.0
 11
31.223037658308161
 21
169.1256648480948
 31
0.0
  0
LINE
  5
A16
  8
0
 10
167.20150423703529
 20
167.12442461922009
 30
0.0
 11
32.24146173560365
 21
167.1240728107926
 31
0.0
  0
ARC
  5
A17
  8
0
 10
32.275496629888607
 20
168.15907090447831
 30
0.0
 40
1.0355575444957159
 50
182.89961103941801
 51
268.11656334138439
  0
ARC
  5
A18
  8
0
 10
32.260669788827499
 20
168.15689699923041
 30
0.0
 40
1.020594559767654
 50
181.00099441870071
 51
182.8198324624997
  0
LINE
  5
A19
  8
0
 10
168.22291058887191
 20
169.11679238703221
 30
0.0
 11
168.20584433676811
 21
168.139067457549
 31
0.0
  0
POLYLINE
  5
A1A
  8
0
 66
     1
 10
0.0
 20
0.0
 30
0.0
  0
VERTEX
  5
D73
  8
0
 10
165.5735576091696
 20
169.39983348543731
 30
0.0
  0
VERTEX
  5
D74
  8
0
 10
165.49962621120449
 20
170.28864318604991
 30
0.0
  0
VERTEX
  5
D75
  8
0
 10
165.3123764709492
 20
172.35635381268929
 30
0.0
  0
VERTEX
  5
D76
  8
0
 10
165.1061505314884
 20
174.38668609496341
 30
0.0
  0
VERTEX
  5
D77
  8
0
 10
164.88016554306051
 20
176.37932055814659
 30
0.0
  0
VERTEX
  5
D78
  8
0
 10
164.63365032700321
 20
178.33394945241471
 30
0.0
  0
VERTEX
  5
D79
  8
0
 10
164.37331269554991
 20
180.19940649480861
 30
0.0
  0
SEQEND
  5
D7A
  8
0
  0
POLYLINE
  5
A1B
  8
0
 66
     1
 10
0.0
 20
0.0
 30
0.0
  0
VERTEX
  5
D7B
  8
0
 10
164.3733196546504
 20
180.1993578499046
 30
0.0
  0
VERTEX
  5
D7C
  8
0
 10
164.29585883270499
 20
180.70319599707611
 30
0.0
  0
VERTEX
  5
D7D
  8
0
 10
164.20636499620539
 20
181.2288311135768
 30
0.0
  0
VERTEX
  5
D7E
  8
0
 10
164.11249989355849
 20
181.7232049455973
 30
0.0
  0
VERTEX
  5
D7F
  8
0
 10
164.0144570305805
 20
182.1852096838501
 30
0.0
  0
VERTEX
  5
D80
  8
0
 10
163.9123149302772
 20
182.61476930022849
 30
0.0
  0
VERTEX
  5
D81
  8
0
 10
163.80601453294381
 20
183.01259570368961
 30
0.0
  0
VERTEX
  5
D82
  8
0
 10
163.6954193400698
 20
183.37975225151749
 30
0.0
  0
VERTEX
  5
D83
  8
0
 10
163.5802425875323
 20
183.7176578297248
 30
0.0
  0
VERTEX
  5
D84
  8
0
 10
163.46002947039551
 20
184.028082341052
 30
0.0
  0
VERTEX
  5
D85
  8
0
 10
163.3340131124981
 20
184.3132072247719
 30
0.0
  0
VERTEX
  5
D86
  8
0
 10
163.20127461696731
 20
184.57502524394309
 30
0.0
  0
VERTEX
  5
D87
  8
0
 10
163.06020070177581
 20
184.81623720527929
 30
0.0
  0
VERTEX
  5
D88
  8
0
 10
162.90915319149221
 20
185.0386061424206
 30
0.0
  0
VERTEX
  5
D89
  8
0
 10
162.74561046991789
 20
185.2441403384266
 30
0.0
  0
VERTEX
  5
D8A
  8
0
 10
162.56670966382521
 20
185.4338924634803
 30
0.0
  0
VERTEX
  5
D8B
  8
0
 10
162.37105230180271
 20
185.6063559234625
 30
0.0
  0
VERTEX
  5
D8C
  8
0
 10
162.15680451920531
 20
185.7599197407452
 30
0.0
  0
VERTEX
  5
D8D
  8
0
 10
161.92517773962979
 20
185.89065460041689
 30
0.0
  0
VERTEX
  5
D8E
  8
0
 10
161.67776289070159
 20
185.9951970078107
 30
0.0
  0
VERTEX
  5
D8F
  8
0
 10
161.4182643948146
 20
186.0701656007582
 30
0.0
  0
VERTEX
  5
D90
  8
0
 10
161.1521667044037
 20
186.11317021027
 30
0.0
  0
VERTEX
  5
D91
  8
0
 10
160.93431482592101
 20
186.1240721248349
 30
0.0
  0
SEQEND
  5
D92
  8
0
  0
POLYLINE
  5
A1C
  8
0
 66
     1
 10
0.0
 20
0.0
 30
0.0
  0
VERTEX
  5
D93
  8
0
 10
165.87257679389199
 20
169.12407036915991
 30
0.0
  0
VERTEX
  5
D94
  8
0
 10
165.82937045596449
 20
169.12719800230809
 30
0.0
  0
VERTEX
  5
D95
  8
0
 10
165.78702021750459
 20
169.1365290062482
 30
0.0
  0
VERTEX
  5
D96
  8
0
 10
165.7464440054855
 20
169.15187477146571
 30
0.0
  0
VERTEX
  5
D97
  8
0
 10
165.70850227037531
 20
169.17291418393501
 30
0.0
  0
VERTEX
  5
D98
  8
0
 10
165.673998677838
 20
169.19920024972029
 30
0.0
  0
VERTEX
  5
D99
  8
0
 10
165.64364774423021
 20
169.23018559607851
 30
0.0
  0
VERTEX
  5
D9A
  8
0
 10
165.61808172840199
 20
169.26522428195821
 30
0.0
  0
VERTEX
  5
D9B
  8
0
 10
165.59783547629601
 20
169.30358358790139
 30
0.0
  0
VERTEX
  5
D9C
  8
0
 10
165.5833321327452
 20
169.3444621885445
 30
0.0
  0
VERTEX
  5
D9D
  8
0
 10
165.57487517537419
 20
169.3870054459195
 30
0.0
  0
VERTEX
  5
D9E
  8
0
 10
165.57355687006961
 20
169.3998382910377
 30
0.0
  0
SEQEND
  5
D9F
  8
0
  0
ARC
  5
A1D
  8
0
 10
167.1714086140783
 20
168.1586966457734
 30
0.0
 40
1.03470980058747
 50
271.55105768229851
 51
357.1187617942993
  0
ARC
  5
A1E
  8
0
 10
167.1854055277889
 20
168.1568969992303
 30
0.0
 40
1.020594559767654
 50
357.18016753750032
 51
358.99900558129917
  0
POLYLINE
  5
A1F
  8
0
 66
     1
 10
0.0
 20
0.0
 30
0.0
  0
VERTEX
  5
DA0
  8
0
 10
162.20750212314439
 20
102.30007060430169
 30
0.0
  0
VERTEX
  5
DA1
  8
0
 10
162.35776430476531
 20
102.3101552921021
 30
0.0
  0
VERTEX
  5
DA2
  8
0
 10
162.43256584799971
 20
102.3220970648494
 30
0.0
  0
VERTEX
  5
DA3
  8
0
 10
162.50739425263609
 20
102.3387851997731
 30
0.0
  0
VERTEX
  5
DA4
  8
0
 10
162.65770931026111
 20
102.3872974683221
 30
0.0
  0
VERTEX
  5
DA5
  8
0
 10
162.7334285237682
 20
102.4197714011984
 30
0.0
  0
VERTEX
  5
DA6
  8
0
 10
162.80948419760179
 20
102.45822355204891
 30
0.0
  0
VERTEX
  5
DA7
  8
0
 10
162.8852818249153
 20
102.5027755668832
 30
0.0
  0
VERTEX
  5
DA8
  8
0
 10
162.96008001804941
 20
102.55334760879541
 30
0.0
  0
VERTEX
  5
DA9
  8
0
 10
163.10536747467549
 20
102.6729221395815
 30
0.0
  0
VERTEX
  5
DAA
  8
0
 10
163.17534109962671
 20
102.74222921388009
 30
0.0
  0
VERTEX
  5
DAB
  8
0
 10
163.24310751490279
 20
102.8180444045948
 30
0.0
  0
VERTEX
  5
DAC
  8
0
 10
163.3082936004744
 20
102.9004473678322
 30
0.0
  0
VERTEX
  5
DAD
  8
0
 10
163.3704864916086
 20
102.98947055879469
 30
0.0
  0
VERTEX
  5
DAE
  8
0
 10
163.42923676676941
 20
103.08508559908
 30
0.0
  0
VERTEX
  5
DAF
  8
0
 10
163.4840646980191
 20
103.18719054088059
 30
0.0
  0
VERTEX
  5
DB0
  8
0
 10
163.5075623073752
 20
103.23571607728969
 30
0.0
  0
VERTEX
  5
DB1
  8
0
 10
163.534468698718
 20
103.295597532381
 30
0.0
  0
VERTEX
  5
DB2
  8
0
 10
163.57993625572459
 20
103.41002195715861
 30
0.0
  0
VERTEX
  5
DB3
  8
0
 10
163.61995722140011
 20
103.53007400488281
 30
0.0
  0
VERTEX
  5
DB4
  8
0
 10
163.6540389890036
 20
103.6552531957136
 30
0.0
  0
VERTEX
  5
DB5
  8
0
 10
163.68172329480009
 20
103.78494769070279
 30
0.0
  0
VERTEX
  5
DB6
  8
0
 10
163.691344513302
 20
103.84060581279149
 30
0.0
  0
VERTEX
  5
DB7
  8
0
 10
163.70260340825641
 20
103.9184377718932
 30
0.0
  0
VERTEX
  5
DB8
  8
0
 10
163.7163410439463
 20
104.05490430911971
 30
0.0
  0
VERTEX
  5
DB9
  8
0
 10
163.72268198634961
 20
104.1934470896105
 30
0.0
  0
VERTEX
  5
DBA
  8
0
 10
163.72303765830779
 20
104.2617364476847
 30
0.0
  0
VERTEX
  5
DBB
  8
0
 10
163.72146867735299
 20
104.333088186889
 30
0.0
  0
VERTEX
  5
DBC
  8
0
 10
163.71264955645361
 20
104.4728305014753
 30
0.0
  0
SEQEND
  5
DBD
  8
0
  0
LINE
  5
A20
  8
0
 10
39.060942231720787
 20
128.6521888238928
 30
0.0
 11
160.38513308489371
 21
128.6521888239009
 31
0.0
  0
ARC
  5
A21
  8
0
 10
-20.613268313353618
 20
87.622972590777536
 30
0.0
 40
185.5904574417161
 50
12.29134407275807
 51
12.77211929610627
  0
POLYLINE
  5
A22
  8
0
 66
     1
 10
0.0
 20
0.0
 30
0.0
  0
VERTEX
  5
DBE
  8
0
 10
163.71264955645361
 20
104.4728305014753
 30
0.0
  0
VERTEX
  5
DBF
  8
0
 10
163.48486693468271
 20
106.8177823624093
 30
0.0
  0
VERTEX
  5
DC0
  8
0
 10
163.22454538943029
 20
109.173849429925
 30
0.0
  0
VERTEX
  5
DC1
  8
0
 10
162.93150896808271
 20
111.5408749120103
 30
0.0
  0
VERTEX
  5
DC2
  8
0
 10
162.60556825122481
 20
113.9188045818603
 30
0.0
  0
VERTEX
  5
DC3
  8
0
 10
162.2465325580412
 20
116.3075680792701
 30
0.0
  0
VERTEX
  5
DC4
  8
0
 10
161.9399829889764
 20
118.5836411548828
 30
0.0
  0
VERTEX
  5
DC5
  8
0
 10
161.59960195351451
 20
121.0527510358374
 30
0.0
  0
VERTEX
  5
DC6
  8
0
 10
161.11994465833411
 20
124.42628040914479
 30
0.0
  0
VERTEX
  5
DC7
  8
0
 10
160.7230376583081
 20
127.13198460041041
 30
0.0
  0
VERTEX
  5
DC8
  8
0
 10
160.7230376583081
 20
127.13198460041041
 30
0.0
  0
SEQEND
  5
DC9
  8
0
  0
POLYLINE
  5
A2B
  8
0
 66
     1
 10
0.0
 20
0.0
 30
0.0
  0
VERTEX
  5
DCA
  8
0
 10
99.723037658308144
 20
102.1319846004105
 30
0.0
  0
VERTEX
  5
DCB
  8
0
 10
112.1162903999803
 20
102.16213033364591
 30
0.0
  0
VERTEX
  5
DCC
  8
0
 10
126.03390697000221
 20
102.20532505967429
 30
0.0
  0
VERTEX
  5
DCD
  8
0
 10
136.60306277604349
 20
102.2438793538506
 30
0.0
  0
VERTEX
  5
DCE
  8
0
 10
146.91705896433311
 20
102.2750959201162
 30
0.0
  0
VERTEX
  5
DCF
  8
0
 10
162.20750212314459
 20
102.30007060430169
 30
0.0
  0
SEQEND
  5
DD0
  8
0
  0
LINE
  5
A2C
  8
0
 10
150.4782903946155
 20
53.342690318867568
 30
0.0
 11
150.6527679409574
 21
63.338502254773381
 31
0.0
  0
LINE
  5
A2D
  8
0
 10
149.0538366805082
 20
62.735734425453501
 30
0.0
 11
149.21779290301549
 21
53.342688730267383
 31
0.0
  0
LINE
  5
A2E
  8
0
 10
140.22828958134389
 20
53.342690314967491
 30
0.0
 11
140.3922457761515
 21
62.735734425453501
 31
0.0
  0
LINE
  5
A2F
  8
0
 10
138.78976257592009
 20
63.541992752217062
 30
0.0
 11
138.96779208974399
 21
53.342688733267408
 31
0.0
  0
LINE
  5
A30
  8
0
 10
140.4670490076858
 20
55.452549939350739
 30
0.0
 11
148.97903344907391
 21
55.452549937950693
 31
0.0
  0
LINE
  5
A31
  8
0
 10
148.9133423537624
 20
59.163106995823313
 30
0.0
 11
140.53274010299751
 21
59.163106995823313
 31
0.0
  0
LINE
  5
A32
  8
0
 10
140.35327528416559
 20
60.503116434631153
 30
0.0
 11
149.0928071725034
 21
60.503116434631153
 31
0.0
  0
LINE
  5
A33
  8
0
 10
140.37350894221061
 20
61.662301927793841
 30
0.0
 11
149.07257351445369
 21
61.662301927793997
 31
0.0
  0
LINE
  5
A34
  8
0
 10
148.85388173604511
 20
62.931376467174537
 30
0.0
 11
140.59220072061439
 21
62.931376467174537
 31
0.0
  0
ARC
  5
A35
  8
0
 10
150.45279838609321
 20
63.341992736350299
 30
0.0
 40
0.2000000158667632
 50
358.99999999999977
 51
90.0
  0
LINE
  5
A36
  8
0
 10
139.4672729844699
 20
52.876870076312201
 30
0.0
 11
139.7288086591183
 21
52.876870076312201
 31
0.0
  0
ARC
  5
A37
  8
0
 10
139.46393819977251
 20
53.373991417506687
 30
0.0
 40
0.4971325262541522
 50
183.60991855487731
 51
270.384345243236
  0
ARC
  5
A38
  8
0
 10
139.73214344381589
 20
53.373991417506687
 30
0.0
 40
0.4971325262541522
 50
269.61565475676412
 51
356.3900814451211
  0
LINE
  5
A39
  8
0
 10
149.9788094722899
 20
52.876870076312201
 30
0.0
 11
149.7172737976415
 21
52.876870076312201
 31
0.0
  0
ARC
  5
A3A
  8
0
 10
149.9821442569874
 20
53.373991417506687
 30
0.0
 40
0.4971325262541522
 50
269.61565475676412
 51
356.3900814451211
  0
ARC
  5
A3B
  8
0
 10
149.713939012944
 20
53.373991417506687
 30
0.0
 40
0.4971325262541522
 50
183.60991855487731
 51
270.384345243236
  0
POLYLINE
  5
A3C
  8
0
 66
     1
 10
0.0
 20
0.0
 30
0.0
  0
VERTEX
  5
DD1
  8
0
 10
140.2670809359214
 20
55.565009670972501
 30
0.0
  0
VERTEX
  5
DD2
  8
0
 10
140.28175232878539
 20
55.52283068782625
 30
0.0
  0
VERTEX
  5
DD3
  8
0
 10
140.32497225841431
 20
55.486612056752698
 30
0.0
  0
VERTEX
  5
DD4
  8
0
 10
140.39008188827941
 20
55.461933933495203
 30
0.0
  0
VERTEX
  5
DD5
  8
0
 10
140.4670498650857
 20
55.452598443654523
 30
0.0
  0
SEQEND
  5
DD6
  8
0
  0
POLYLINE
  5
A3D
  8
0
 66
     1
 10
0.0
 20
0.0
 30
0.0
  0
VERTEX
  5
DD7
  8
0
 10
149.17900214653841
 20
55.565009681872397
 30
0.0
  0
VERTEX
  5
DD8
  8
0
 10
149.16432971997401
 20
55.522831178426337
 30
0.0
  0
VERTEX
  5
DD9
  8
0
 10
149.1211094262452
 20
55.486613109053017
 30
0.0
  0
VERTEX
  5
DDA
  8
0
 10
149.05600001528001
 20
55.461935423395317
 30
0.0
  0
VERTEX
  5
DDB
  8
0
 10
148.9790325915738
 20
55.452600098054539
 30
0.0
  0
SEQEND
  5
DDC
  8
0
  0
ARC
  5
A3E
  8
0
 10
140.59179193419271
 20
62.731791782091847
 30
0.0
 40
0.1995851037171519
 50
89.882647829860758
 51
179.1319057090831
  0
ARC
  5
A3F
  8
0
 10
148.85429052246701
 20
62.731791782091847
 30
0.0
 40
0.1995851037171519
 50
0.8680942909168912
 51
90.117352170139227
  0
POLYLINE
  5
A40
  8
0
 66
     1
 10
0.0
 20
0.0
 30
0.0
  0
VERTEX
  5
DDD
  8
0
 10
140.3327705480329
 20
59.328400889136702
 30
0.0
  0
VERTEX
  5
DDE
  8
0
 10
140.34717320087569
 20
59.265697706162172
 30
0.0
  0
VERTEX
  5
DDF
  8
0
 10
140.39032991519949
 20
59.212168678015608
 30
0.0
  0
VERTEX
  5
DE0
  8
0
 10
140.45555443957369
 20
59.176108944454803
 30
0.0
  0
VERTEX
  5
DE1
  8
0
 10
140.53274010299751
 20
59.163106996523283
 30
0.0
  0
SEQEND
  5
DE2
  8
0
  0
POLYLINE
  5
A41
  8
0
 66
     1
 10
0.0
 20
0.0
 30
0.0
  0
VERTEX
  5
DE3
  8
0
 10
149.11331190862671
 20
59.328400889136702
 30
0.0
  0
VERTEX
  5
DE4
  8
0
 10
149.09890864258361
 20
59.265696475962187
 30
0.0
  0
VERTEX
  5
DE5
  8
0
 10
149.05575111165999
 20
59.212167506815511
 30
0.0
  0
VERTEX
  5
DE6
  8
0
 10
148.9905267538856
 20
59.176108516854732
 30
0.0
  0
VERTEX
  5
DE7
  8
0
 10
148.9133423537624
 20
59.163106995823249
 30
0.0
  0
SEQEND
  5
DE8
  8
0
  0
LINE
  5
A42
  8
0
 10
48.967784922000249
 20
53.342690318867568
 30
0.0
 11
48.793307375658571
 21
63.338502254773381
 31
0.0
  0
LINE
  5
A43
  8
0
 10
50.392222597966963
 20
62.734815600981761
 30
0.0
 11
50.228282441300792
 21
53.342690318867568
 31
0.0
  0
LINE
  5
A44
  8
0
 10
59.217785735272003
 20
53.342690314967491
 30
0.0
 11
59.053829540464513
 21
62.735734425453501
 31
0.0
  0
LINE
  5
A45
  8
0
 10
60.656312740695803
 20
63.541992752217062
 30
0.0
 11
60.478283226872414
 21
53.342688733267408
 31
0.0
  0
LINE
  5
A46
  8
0
 10
49.467265844326278
 20
52.876870076312201
 30
0.0
 11
49.728801518974649
 21
52.876870076312201
 31
0.0
  0
LINE
  5
A47
  8
0
 10
58.979026308930372
 20
55.452549939350739
 30
0.0
 11
50.467041867542257
 21
55.452549937950693
 31
0.0
  0
LINE
  5
A48
  8
0
 10
50.5327329628538
 20
59.163106995823313
 30
0.0
 11
58.913335213618829
 21
59.163106995823313
 31
0.0
  0
LINE
  5
A49
  8
0
 10
59.092800032450718
 20
60.503116434631153
 30
0.0
 11
50.353268144112292
 21
60.503116434631153
 31
0.0
  0
LINE
  5
A4A
  8
0
 10
59.072566374405433
 20
61.662301927793841
 30
0.0
 11
50.373501802162139
 21
61.662301927793997
 31
0.0
  0
LINE
  5
A4B
  8
0
 10
50.59219358057095
 20
62.931376467174537
 30
0.0
 11
58.853874596001617
 21
62.931376467174537
 31
0.0
  0
ARC
  5
A4C
  8
0
 10
49.463931059628919
 20
53.373991417506687
 30
0.0
 40
0.4971325262541522
 50
183.60991855487731
 51
270.384345243236
  0
ARC
  5
A4D
  8
0
 10
48.993276930522882
 20
63.341992736350299
 30
0.0
 40
0.2000000158667632
 50
90.0
 51
181.0
  0
ARC
  5
A4E
  8
0
 10
49.732136303672227
 20
53.373991417506687
 30
0.0
 40
0.4971325262541522
 50
269.61565475676412
 51
356.3900814451211
  0
LINE
  5
A4F
  8
0
 10
59.978802332146238
 20
52.876870076312201
 30
0.0
 11
59.717266657497881
 21
52.876870076312201
 31
0.0
  0
ARC
  5
A50
  8
0
 10
59.98213711684371
 20
53.373991417506687
 30
0.0
 40
0.4971325262541522
 50
269.61565475676412
 51
356.3900814451211
  0
ARC
  5
A51
  8
0
 10
59.713931872800401
 20
53.373991417506687
 30
0.0
 40
0.4971325262541522
 50
183.60991855487731
 51
270.384345243236
  0
POLYLINE
  5
A52
  8
0
 66
     1
 10
0.0
 20
0.0
 30
0.0
  0
VERTEX
  5
DE9
  8
0
 10
50.267073170077587
 20
55.565009681872397
 30
0.0
  0
VERTEX
  5
DEA
  8
0
 10
50.281745596641883
 20
55.522831178426337
 30
0.0
  0
VERTEX
  5
DEB
  8
0
 10
50.324965890370599
 20
55.486613109053017
 30
0.0
  0
VERTEX
  5
DEC
  8
0
 10
50.390075301335912
 20
55.461935423395317
 30
0.0
  0
VERTEX
  5
DED
  8
0
 10
50.467042725042177
 20
55.452600098054539
 30
0.0
  0
SEQEND
  5
DEE
  8
0
  0
POLYLINE
  5
A53
  8
0
 66
     1
 10
0.0
 20
0.0
 30
0.0
  0
VERTEX
  5
DEF
  8
0
 10
59.178994380694398
 20
55.565009670972501
 30
0.0
  0
VERTEX
  5
DF0
  8
0
 10
59.164322987830417
 20
55.52283068782625
 30
0.0
  0
VERTEX
  5
DF1
  8
0
 10
59.121103058201747
 20
55.486612056752698
 30
0.0
  0
VERTEX
  5
DF2
  8
0
 10
59.055993428336421
 20
55.461933933495203
 30
0.0
  0
VERTEX
  5
DF3
  8
0
 10
58.979025451530269
 20
55.452598443654523
 30
0.0
  0
SEQEND
  5
DF4
  8
0
  0
ARC
  5
A54
  8
0
 10
50.591784794149191
 20
62.731791782091847
 30
0.0
 40
0.1995851037171519
 50
89.882647829860758
 51
179.1319057090831
  0
ARC
  5
A55
  8
0
 10
58.854283382423482
 20
62.731791782091847
 30
0.0
 40
0.1995851037171519
 50
0.8680942909168912
 51
90.117352170139227
  0
POLYLINE
  5
A56
  8
0
 66
     1
 10
0.0
 20
0.0
 30
0.0
  0
VERTEX
  5
DF5
  8
0
 10
50.332763407989482
 20
59.328400889136702
 30
0.0
  0
VERTEX
  5
DF6
  8
0
 10
50.347166674031818
 20
59.265696475962187
 30
0.0
  0
VERTEX
  5
DF7
  8
0
 10
50.390324204955789
 20
59.212167506815511
 30
0.0
  0
VERTEX
  5
DF8
  8
0
 10
50.455548562730598
 20
59.176108516854732
 30
0.0
  0
VERTEX
  5
DF9
  8
0
 10
50.532732962853679
 20
59.163106995823199
 30
0.0
  0
SEQEND
  5
DFA
  8
0
  0
POLYLINE
  5
A57
  8
0
 66
     1
 10
0.0
 20
0.0
 30
0.0
  0
VERTEX
  5
DFB
  8
0
 10
59.113304768583312
 20
59.328400889136702
 30
0.0
  0
VERTEX
  5
DFC
  8
0
 10
59.0989021157406
 20
59.265697706162172
 30
0.0
  0
VERTEX
  5
DFD
  8
0
 10
59.0557454014168
 20
59.212168678015608
 30
0.0
  0
VERTEX
  5
DFE
  8
0
 10
58.990520877042123
 20
59.176108944454803
 30
0.0
  0
VERTEX
  5
DFF
  8
0
 10
58.913335213618609
 20
59.163106996523339
 30
0.0
  0
SEQEND
  5
E00
  8
0
  0
LINE
  5
A58
  8
0
 10
49.639617071516568
 20
169.12407219016009
 30
0.0
 11
49.701041543147312
 21
174.5197439756885
 31
0.0
  0
LINE
  5
A59
  8
0
 10
49.701041543147312
 20
174.5197439756885
 30
0.0
 11
59.235616178606499
 21
174.51974397568841
 31
0.0
  0
LINE
  5
A5A
  8
0
 10
59.235616178606499
 20
174.5197439756885
 30
0.0
 11
59.297012668822838
 21
169.12407219016009
 31
0.0
  0
LINE
  5
A5B
  8
0
 10
49.687475232316501
 20
173.328046942893
 30
0.0
 11
59.249176309415589
 21
173.328046942893
 31
0.0
  0
LINE
  5
A5C
  8
0
 10
140.2104591380097
 20
174.51974397568841
 30
0.0
 11
149.745033773469
 21
174.5197439756885
 31
0.0
  0
LINE
  5
A5D
  8
0
 10
149.745033773469
 20
174.5197439756885
 30
0.0
 11
149.80645824509969
 21
169.12407219016009
 31
0.0
  0
LINE
  5
A5E
  8
0
 10
140.1490626477935
 20
169.12407219016009
 30
0.0
 11
140.21045913800981
 21
174.5197439756885
 31
0.0
  0
LINE
  5
A5F
  8
0
 10
140.19689900720061
 20
173.328046942893
 30
0.0
 11
149.75860008429979
 21
173.328046942893
 31
0.0
  0
POLYLINE
  5
A6C
  8
0
 66
     1
 10
0.0
 20
0.0
 30
0.0
  0
VERTEX
  5
E01
  8
0
 10
35.733425760162731
 20
104.4728305014753
 30
0.0
  0
VERTEX
  5
E02
  8
0
 10
35.961208381933602
 20
106.8177823624093
 30
0.0
  0
VERTEX
  5
E03
  8
0
 10
36.221529927185998
 20
109.173849429925
 30
0.0
  0
VERTEX
  5
E04
  8
0
 10
36.514566348533549
 20
111.5408749120103
 30
0.0
  0
VERTEX
  5
E05
  8
0
 10
36.840507065391527
 20
113.9188045818603
 30
0.0
  0
VERTEX
  5
E06
  8
0
 10
37.199542758575149
 20
116.3075680792701
 30
0.0
  0
VERTEX
  5
E07
  8
0
 10
37.50609232763987
 20
118.5836411548828
 30
0.0
  0
VERTEX
  5
E08
  8
0
 10
37.846473363101843
 20
121.0527510358374
 30
0.0
  0
VERTEX
  5
E09
  8
0
 10
38.326130658282182
 20
124.42628040914479
 30
0.0
  0
VERTEX
  5
E0A
  8
0
 10
38.723037658308158
 20
127.13198460041041
 30
0.0
  0
VERTEX
  5
E0B
  8
0
 10
38.723037658308158
 20
127.13198460041041
 30
0.0
  0
SEQEND
  5
E0C
  8
0
  0
TEXT
  5
B1F
  8
0
 62
     3
 10
0.0
 20
0.0
 30
0.0
 40
10.0
  1
FPH137SL
  7
STANDARD1
  0
ENDSEC
  0
EOF
