  0
SECTION
  2
HEADER
  9
$ACADVER
  1
AC1009
  9
$INSBASE
 10
0.0
 20
0.0
 30
0.0
  9
$EXTMIN
 10
0.0
 20
-2.960436562073669
 30
0.0
  9
$EXTMAX
 10
172.57925639143821
 20
124.5163327355373
 30
0.0
  9
$LIMMIN
 10
0.0
 20
0.0
  9
$LIMMAX
 10
187.5
 20
135.0
  9
$ORTHOMODE
 70
     1
  9
$REGENMODE
 70
     1
  9
$FILLMODE
 70
     1
  9
$QTEXTMODE
 70
     0
  9
$MIRRTEXT
 70
     0
  9
$DRAGMODE
 70
     2
  9
$LTSCALE
 40
5.0
  9
$OSMODE
 70
    55
  9
$ATTMODE
 70
     1
  9
$TEXTSIZE
 40
0.2
  9
$TRACEWID
 40
0.05
  9
$TEXTSTYLE
  7
STANDARD
  9
$CLAYER
  8
0
  9
$CELTYPE
  6
BYLAYER
  9
$CECOLOR
 62
   256
  9
$DIMSCALE
 40
0.5
  9
$DIMASZ
 40
3.0
  9
$DIMEXO
 40
2.0
  9
$DIMDLI
 40
0.38
  9
$DIMRND
 40
0.0
  9
$DIMDLE
 40
0.0
  9
$DIMEXE
 40
2.0
  9
$DIMTP
 40
0.0
  9
$DIMTM
 40
0.0
  9
$DIMTXT
 40
3.2000000000000002
  9
$DIMCEN
 40
0.0
  9
$DIMTSZ
 40
0.0
  9
$DIMTOL
 70
     0
  9
$DIMLIM
 70
     0
  9
$DIMTIH
 70
     0
  9
$DIMTOH
 70
     0
  9
$DIMSE1
 70
     0
  9
$DIMSE2
 70
     0
  9
$DIMTAD
 70
     1
  9
$DIMZIN
 70
     0
  9
$DIMBLK
  1

  9
$DIMASO
 70
     1
  9
$DIMSHO
 70
     0
  9
$DIMPOST
  1

  9
$DIMAPOST
  1

  9
$DIMALT
 70
     0
  9
$DIMALTD
 70
     2
  9
$DIMALTF
 40
25.399999999999999
  9
$DIMLFAC
 40
1.0
  9
$DIMTOFL
 70
     0
  9
$DIMTVP
 40
1.6000000000000001
  9
$DIMTIX
 70
     1
  9
$DIMSOXD
 70
     0
  9
$DIMSAH
 70
     0
  9
$DIMBLK1
  1

  9
$DIMBLK2
  1

  9
$DIMSTYLE
  2
STANDARD
  9
$DIMCLRD
 70
     0
  9
$DIMCLRE
 70
     0
  9
$DIMCLRT
 70
     0
  9
$DIMTFAC
 40
1.0
  9
$DIMGAP
 40
0.09
  9
$LUNITS
 70
     2
  9
$LUPREC
 70
     4
  9
$SKETCHINC
 40
0.1
  9
$FILLETRAD
 40
0.4
  9
$AUNITS
 70
     0
  9
$AUPREC
 70
     4
  9
$MENU
  1
E:\r13\win\SUPPORT\ACAD
  9
$ELEVATION
 40
0.0
  9
$PELEVATION
 40
0.0
  9
$THICKNESS
 40
0.0
  9
$LIMCHECK
 70
     0
  9
$BLIPMODE
 70
     0
  9
$CHAMFERA
 40
0.0
  9
$CHAMFERB
 40
0.0
  9
$SKPOLY
 70
     0
  9
$TDCREATE
 40
2449840.6175347222
  9
$TDUPDATE
 40
2456598.6633485998
  9
$TDINDWG
 40
0.0001634491
  9
$TDUSRTIMER
 40
0.0001634491
  9
$USRTIMER
 70
     1
  9
$ANGBASE
 50
0.0
  9
$ANGDIR
 70
     0
  9
$PDMODE
 70
     0
  9
$PDSIZE
 40
0.0
  9
$PLINEWID
 40
0.0
  9
$COORDS
 70
     1
  9
$SPLFRAME
 70
     0
  9
$SPLINETYPE
 70
     6
  9
$SPLINESEGS
 70
     8
  9
$ATTDIA
 70
     0
  9
$ATTREQ
 70
     1
  9
$HANDLING
 70
     1
  9
$HANDSEED
  5
2F2
  9
$SURFTAB1
 70
     6
  9
$SURFTAB2
 70
     6
  9
$SURFTYPE
 70
     6
  9
$SURFU
 70
     6
  9
$SURFV
 70
     6
  9
$UCSNAME
  2

  9
$UCSORG
 10
0.0
 20
0.0
 30
0.0
  9
$UCSXDIR
 10
1.0
 20
0.0
 30
0.0
  9
$UCSYDIR
 10
0.0
 20
1.0
 30
0.0
  9
$PUCSNAME
  2

  9
$PUCSORG
 10
0.0
 20
0.0
 30
0.0
  9
$PUCSXDIR
 10
1.0
 20
0.0
 30
0.0
  9
$PUCSYDIR
 10
0.0
 20
1.0
 30
0.0
  9
$USERI1
 70
     0
  9
$USERI2
 70
     1
  9
$USERI3
 70
     1
  9
$USERI4
 70
     0
  9
$USERI5
 70
     0
  9
$USERR1
 40
0.0
  9
$USERR2
 40
0.0
  9
$USERR3
 40
0.0
  9
$USERR4
 40
0.0
  9
$USERR5
 40
0.0
  9
$WORLDVIEW
 70
     1
  9
$SHADEDGE
 70
     3
  9
$SHADEDIF
 70
    70
  9
$TILEMODE
 70
     1
  9
$MAXACTVP
 70
    16
  9
$PLIMCHECK
 70
     0
  9
$PEXTMIN
 10
1.0000000000000000E+020
 20
1.0000000000000000E+020
 30
1.0000000000000000E+020
  9
$PEXTMAX
 10
-1.0000000000000000E+020
 20
-1.0000000000000000E+020
 30
-1.0000000000000000E+020
  9
$PLIMMIN
 10
0.0
 20
0.0
  9
$PLIMMAX
 10
12.0
 20
9.0
  9
$UNITMODE
 70
     0
  9
$VISRETAIN
 70
     0
  9
$PLINEGEN
 70
     0
  9
$PSLTSCALE
 70
     0
  0
ENDSEC
  0
SECTION
  2
TABLES
  0
TABLE
  2
VPORT
 70
     1
  0
VPORT
  2
*ACTIVE
 70
     0
 10
0.0
 20
0.0
 11
1.0
 21
1.0
 12
93.74713919532617
 22
86.941769983850563
 13
0.0
 23
0.0
 14
5.0
 24
5.0
 15
5.0
 25
5.0
 16
0.0
 26
0.0
 36
1.0
 17
0.0
 27
0.0
 37
0.0
 40
181.41026326986619
 41
1.7807262569832401
 42
50.0
 43
0.0
 44
0.0
 50
0.0
 51
0.0
 71
     0
 72
   500
 73
     1
 74
     0
 75
     0
 76
     0
 77
     0
 78
     1
  0
ENDTAB
  0
TABLE
  2
LTYPE
 70
     4
  0
LTYPE
  2
CONTINUOUS
 70
     0
  3
Solid Line
 72
    65
 73
     0
 40
0.0
  0
LTYPE
  2
CENTER
 70
     0
  3
____ _ ____ _ ____ _ ____ _ ____ _ ____ _ ____
 72
    65
 73
     4
 40
2.0
 49
1.25
 49
-0.25
 49
0.25
 49
-0.25
  0
LTYPE
  2
HIDDEN
 70
     0
  3
_ _ _ _ _ _ _ _ _ _ _ _ _ _ _ _ _ _ _ _ _ _ _
 72
    65
 73
     2
 40
0.375
 49
0.25
 49
-0.125
  0
LTYPE
  2
PHANTOM2
 70
     0
  3
___ _ _ ___ _ _ ___ _ _ ___ _ _
 72
    65
 73
     6
 40
1.25
 49
0.625
 49
-0.125
 49
0.125
 49
-0.125
 49
0.125
 49
-0.125
  0
ENDTAB
  0
TABLE
  2
LAYER
 70
     3
  0
LAYER
  2
0
 70
     0
 62
     7
  6
CONTINUOUS
  0
LAYER
  2
1
 70
     0
 62
     1
  6
CENTER
  0
LAYER
  2
2
 70
     0
 62
     2
  6
HIDDEN
  0
ENDTAB
  0
TABLE
  2
STYLE
 70
     4
  0
STYLE
  2
STANDARD
 70
     0
 40
0.0
 41
1.0
 50
0.0
 71
     0
 42
0.2
  3
TXT
  4
BIGFONT
  0
STYLE
  2
COMPLEX
 70
     0
 40
3.5
 41
0.4
 50
0.0
 71
     0
 42
4.0
  3
TXT
  4

  0
STYLE
  2
COMPLEX1
 70
     0
 40
4.0
 41
0.05
 50
0.0
 71
     0
 42
4.0
  3
TXT
  4

  0
STYLE
  2
STANDARD1
 70
     0
 40
0.0
 41
1.0
 50
0.0
 71
     0
 42
3.0
  3
txt
  4

  0
ENDTAB
  0
TABLE
  2
VIEW
 70
     1
  0
VIEW
  2
ALL
 70
     0
 40
175.0
 10
143.23529411764699
 20
87.5
 41
0.0
 11
0.0
 21
0.0
 31
1.0
 12
0.0
 22
0.0
 32
0.0
 42
0.0
 43
0.0
 44
0.0
 50
0.0
 71
     0
  0
ENDTAB
  0
TABLE
  2
UCS
 70
     0
  0
ENDTAB
  0
TABLE
  2
APPID
 70
     3
  0
APPID
  2
ACAD
 70
     0
  0
APPID
  2
ACAD_MLEADERVER
 70
     0
  0
APPID
  2
ACAD_NAV_VCDISPLAY
 70
     0
  0
ENDTAB
  0
TABLE
  2
DIMSTYLE
 70
     1
  0
DIMSTYLE
  2
STANDARD
 70
     0
  3

  4

  5

  6

  7

 40
1.0
 41
0.18
 42
0.0625
 43
0.38
 44
0.18
 45
0.0
 46
0.0
 47
0.0
 48
0.0
140
0.18
141
0.09
142
0.0
143
25.399999999999999
144
1.0
145
0.0
146
1.0
147
0.09
 71
     0
 72
     0
 73
     1
 74
     1
 75
     0
 76
     0
 77
     0
 78
     0
170
     0
171
     2
172
     0
173
     0
174
     0
175
     0
176
     0
177
     0
178
     0
  0
ENDTAB
  0
ENDSEC
  0
SECTION
  2
BLOCKS
  0
BLOCK
  8
0
  2
$MODEL_SPACE
 70
     0
 10
0.0
 20
0.0
 30
0.0
  3
$MODEL_SPACE
  1

  0
ENDBLK
  5
138
  8
0
  0
BLOCK
 67
     1
  8
0
  2
$PAPER_SPACE
 70
     0
 10
0.0
 20
0.0
 30
0.0
  3
$PAPER_SPACE
  1

  0
ENDBLK
  5
136
 67
     1
  8
0
  0
ENDSEC
  0
SECTION
  2
ENTITIES
  0
LINE
  5
37
  8
1
 10
85.460507018366755
 20
60.314802505153182
 30
0.0
 11
80.460507018366755
 21
60.314802505153182
 31
0.0
  0
CIRCLE
  5
38
  8
2
 10
82.960507018366755
 20
60.314802505153182
 30
0.0
 40
1.149999999999999
  0
ARC
  5
39
  8
0
 10
82.511267943429644
 20
115.0163327355373
 30
0.0
 40
5.5809625311687068
 50
58.739047916201621
 51
301.26095208379832
  0
TEXT
  5
3A
  8
0
 10
90.995507018366709
 20
113.7663327355373
 30
0.0
 40
3.5
  1
Kipp
 41
0.4
  7
COMPLEX
 72
     1
 11
93.095507018366703
 21
113.7663327355373
 31
0.0
  0
LINE
  5
3B
  8
1
 10
82.960507018366755
 20
105.5163327355373
 30
0.0
 11
82.960507018366755
 21
124.5163327355373
 31
0.0
  0
LINE
  5
3C
  8
1
 10
82.960507018366783
 20
52.314802505152826
 30
0.0
 11
82.960507018366783
 21
75.821960966959921
 31
0.0
  0
ARC
  5
3D
  8
0
 10
109.4934405759351
 20
72.498537799037621
 30
0.0
 40
0.4
 50
35.000000000000469
 51
110.0000000000541
  0
ARC
  5
3E
  8
0
 10
77.626907683128891
 20
71.158413912917439
 30
0.0
 40
0.8
 50
103.40489505554621
 51
169.99999999996811
  0
ARC
  5
3F
  8
0
 10
111.4811445491067
 20
71.751938486504514
 30
0.0
 40
0.8
 50
215.00000000000071
 51
289.99999999999977
  0
ARC
  5
40
  8
0
 10
121.7016920850625
 20
75.471913567495193
 30
0.0
 40
0.8
 50
289.99999999999977
 51
357.00000000000949
  0
ARC
  5
41
  8
0
 10
120.1001396024638
 20
81.280799751970093
 30
0.0
 40
0.8
 50
34.999999999999723
 51
103.40489505554621
  0
LINE
  5
42
  8
0
 10
122.22727229882091
 20
111.68527783985959
 30
0.0
 11
120.3033275884619
 21
111.8232114616532
 31
0.0
  0
LINE
  5
43
  8
0
 10
122.22727229882091
 20
118.3473876312149
 30
0.0
 11
120.3033275884619
 21
118.20945400942129
 31
0.0
  0
ARC
  5
44
  8
0
 10
118.51565730385219
 20
116.9652724511602
 30
0.0
 40
2.0
 50
0.0
 51
88.579288513929114
  0
ARC
  5
45
  8
0
 10
118.51565730385219
 20
113.06739301991431
 30
0.0
 40
2.0
 50
271.42071148607079
 51
0.0
  0
ARC
  5
46
  8
0
 10
120.9605070183667
 20
112.9803205240315
 30
0.0
 40
2.0
 50
271.66666666999993
 51
0.0
  0
ARC
  5
47
  8
0
 10
120.9605070183667
 20
117.0523449470431
 30
0.0
 40
2.0
 50
0.0
 51
88.333333330000045
  0
LINE
  5
48
  8
0
 10
122.9605070183667
 20
117.0523449470431
 30
0.0
 11
122.9605070183667
 21
112.9803205240315
 31
0.0
  0
LINE
  5
49
  8
0
 10
120.51565730385219
 20
116.9652724511602
 30
0.0
 11
120.51565730385219
 21
113.06739301991431
 31
0.0
  0
ARC
  5
4A
  8
0
 10
82.960507018366755
 20
115.0163327355373
 30
0.0
 40
7.0
 50
45.584691402704983
 51
314.41530859721217
  0
LINE
  5
4B
  8
0
 10
87.859486503873001
 20
110.0163327355372
 30
0.0
 11
121.0186783617044
 21
110.9811666793217
 31
0.0
  0
LINE
  5
4C
  8
0
 10
87.859486503934846
 20
110.01633273553909
 30
0.0
 11
85.407434026953595
 21
110.2456551326223
 31
0.0
  0
LINE
  5
4D
  8
0
 10
85.407434026953396
 20
110.2456551326223
 30
0.0
 11
118.56524440838599
 21
111.0680078346476
 31
0.0
  0
ARC
  5
4E
  8
0
 10
95.420507018366749
 20
112.6163327355373
 30
0.0
 40
0.5
 50
270.0
 51
0.0
  0
LINE
  5
4F
  8
0
 10
90.770507018366715
 20
112.1163327355372
 30
0.0
 11
95.420507018366749
 21
112.1163327355372
 31
0.0
  0
ARC
  5
50
  8
0
 10
90.770507018366715
 20
112.6163327355373
 30
0.0
 40
0.5
 50
180.00000000000011
 51
270.00000000000023
  0
ARC
  5
51
  8
0
 10
90.770507018366715
 20
117.4163327355372
 30
0.0
 40
0.5
 50
89.999999999999844
 51
179.99999999999989
  0
ARC
  5
52
  8
0
 10
95.420507018366749
 20
117.4163327355372
 30
0.0
 40
0.5
 50
0.0
 51
90.0
  0
LINE
  5
53
  8
0
 10
90.770507018366715
 20
117.9163327355372
 30
0.0
 11
95.420507018366749
 21
117.9163327355372
 31
0.0
  0
LINE
  5
54
  8
0
 10
95.920507018366735
 20
117.4163327355372
 30
0.0
 11
95.920507018366735
 21
112.6163327355373
 31
0.0
  0
LINE
  5
55
  8
0
 10
90.270507018366715
 20
117.4163327355372
 30
0.0
 11
90.270507018366715
 21
112.6163327355373
 31
0.0
  0
LINE
  5
56
  8
0
 10
85.407434026953595
 20
119.78701033845221
 30
0.0
 11
118.56524440838599
 21
118.96465763642691
 31
0.0
  0
LINE
  5
57
  8
0
 10
87.859486503934846
 20
120.0163327355354
 30
0.0
 11
85.407434026953595
 21
119.78701033845221
 31
0.0
  0
LINE
  5
58
  8
0
 10
75.960507018366755
 20
66.314802505184076
 30
0.0
 11
87.706621163220433
 21
66.314802505181945
 31
0.0
  0
LINE
  5
59
  8
0
 10
89.960507018137335
 20
65.814802505069366
 30
0.0
 11
109.35663420283571
 21
72.874415460361874
 31
0.0
  0
LINE
  5
5A
  8
0
 10
110.82582380983619
 20
71.293076057573529
 30
0.0
 11
109.82110139365069
 21
72.727968373578037
 31
0.0
  0
LINE
  5
5B
  8
0
 10
121.975308199723
 20
74.720159470866435
 30
0.0
 11
111.7547606637672
 21
71.000184389875784
 31
0.0
  0
LINE
  5
5C
  8
0
 10
122.66050701832719
 20
78.481334279925932
 30
0.0
 11
122.50059564237741
 21
75.43004345749597
 31
0.0
  0
LINE
  5
5D
  8
0
 10
120.75546123789501
 20
81.739660901050954
 30
0.0
 11
122.9605070183667
 21
78.590529164895173
 31
0.0
  0
LINE
  5
5E
  8
0
 10
87.859486504004465
 20
65.814802505002916
 30
0.0
 11
85.407434026953553
 21
73.835104770074906
 31
0.0
  0
LINE
  5
5F
  8
0
 10
87.859486503703764
 20
65.814802505152841
 30
0.0
 11
122.9605070183667
 21
78.590529164895173
 31
0.0
  0
LINE
  5
60
  8
0
 10
87.859486503873001
 20
120.0163327355372
 30
0.0
 11
121.0186764559692
 21
119.0514988472041
 31
0.0
  0
LINE
  5
61
  8
0
 10
75.960507018366755
 20
66.314802505184019
 30
0.0
 11
76.83906164380717
 21
71.297333379968933
 31
0.0
  0
LINE
  5
62
  8
0
 10
75.960507018366755
 20
65.814802505152841
 30
0.0
 11
75.960507018366755
 21
66.314802505184019
 31
0.0
  0
LINE
  5
63
  8
0
 10
89.271992317014124
 20
54.814802505152841
 30
0.0
 11
76.649021719719343
 21
54.814802505152841
 31
0.0
  0
LINE
  5
64
  8
0
 10
76.649021719719343
 20
54.814802505152841
 30
0.0
 11
76.449021719590306
 21
55.014802505281892
 31
0.0
  0
LINE
  5
65
  8
0
 10
76.449021719590306
 20
55.014802505281892
 30
0.0
 11
76.26050701836779
 21
65.814802505152841
 31
0.0
  0
LINE
  5
66
  8
0
 10
89.960507018366769
 20
65.814802505152841
 30
0.0
 11
75.960507018366755
 21
65.814802505152841
 31
0.0
  0
LINE
  5
67
  8
0
 10
89.471992317143204
 20
55.014802505281892
 30
0.0
 11
89.660507018365735
 21
65.814802505152841
 31
0.0
  0
LINE
  5
68
  8
1
 10
73.460507018367011
 20
115.0163327355373
 30
0.0
 11
125.4605070183667
 21
115.0163327355373
 31
0.0
  0
LINE
  5
69
  8
0
 10
76.449021719590306
 20
55.014802505281878
 30
0.0
 11
89.471992317143204
 21
55.014802505281878
 31
0.0
  0
LINE
  5
6A
  8
0
 10
77.441442873851884
 20
71.936618773169457
 30
0.0
 11
119.9146747931868
 21
82.059004612222125
 31
0.0
  0
LINE
  5
6B
  8
1
 10
73.460507018366769
 20
22.117901480541249
 30
0.0
 11
125.4605070183667
 21
22.117901480541249
 31
0.0
  0
LINE
  5
6C
  8
0
 10
87.859486503873001
 20
27.117901480541249
 30
0.0
 11
121.0186764559693
 21
26.153067592208071
 31
0.0
  0
LINE
  5
6D
  8
0
 10
87.859486503873001
 20
17.117901480541249
 30
0.0
 11
121.0186764559693
 21
18.082735368874449
 31
0.0
  0
LINE
  5
6E
  8
0
 10
122.9605070183667
 20
24.153913692047048
 30
0.0
 11
122.9605070183667
 21
20.081889269035472
 31
0.0
  0
ARC
  5
6F
  8
0
 10
120.9605070183667
 20
24.153913692047048
 30
0.0
 40
2.0
 50
0.0
 51
88.333333330000045
  0
ARC
  5
70
  8
0
 10
120.9605070183667
 20
20.081889269035472
 30
0.0
 40
2.0
 50
271.66666666999993
 51
0.0
  0
CIRCLE
  5
71
  8
0
 10
82.960507018366755
 20
22.117901480541249
 30
0.0
 40
7.0
  0
CIRCLE
  5
72
  8
0
 10
82.960507018366755
 20
22.117901480541249
 30
0.0
 40
6.511499999999999
  0
CIRCLE
  5
73
  8
0
 10
82.960507018366755
 20
22.117901480541249
 30
0.0
 40
6.3114999999999988
  0
CIRCLE
  5
74
  8
0
 10
82.960507018366755
 20
22.117901480541249
 30
0.0
 40
6.7000000000000002
  0
CIRCLE
  5
75
  8
0
 10
82.960507018366755
 20
22.117901480541249
 30
0.0
 40
3.0
  0
LINE
  5
76
  8
0
 10
29.667734077699969
 20
65.814802505152841
 30
0.0
 11
29.667734077699969
 21
66.314802505184019
 31
0.0
  0
LINE
  5
77
  8
0
 10
30.356248779052571
 20
54.814802505152819
 30
0.0
 11
30.156248778923519
 21
55.014802505281878
 31
0.0
  0
LINE
  5
78
  8
0
 10
30.156248778923519
 20
55.014802505281878
 30
0.0
 11
29.96773407770101
 21
65.814802505152841
 31
0.0
  0
LINE
  5
79
  8
0
 10
29.667734077699969
 20
65.814802505152841
 30
0.0
 11
43.667734077699961
 21
65.814802505152841
 31
0.0
  0
LINE
  5
7A
  8
0
 10
43.179219376476418
 20
55.014802505281878
 30
0.0
 11
43.367734077698927
 21
65.814802505152841
 31
0.0
  0
LINE
  5
7B
  8
0
 10
42.979219376347359
 20
54.814802505152819
 30
0.0
 11
43.179219376476418
 21
55.014802505281878
 31
0.0
  0
LINE
  5
7C
  8
0
 10
30.356248779052571
 20
54.814802505152819
 30
0.0
 11
42.979219376347359
 21
54.814802505152819
 31
0.0
  0
LINE
  5
7D
  8
0
 10
43.667734077699961
 20
65.814802505152841
 30
0.0
 11
43.667734077699961
 21
66.314802505184019
 31
0.0
  0
LINE
  5
7E
  8
0
 10
43.667734077699961
 20
66.314802505184076
 30
0.0
 11
29.667734077699969
 21
66.314802505130643
 31
0.0
  0
LINE
  5
7F
  8
0
 10
33.888752195034392
 20
82.082136411471424
 30
0.0
 11
39.446715960365587
 21
82.082136411471339
 31
0.0
  0
LINE
  5
80
  8
0
 10
31.718425453018181
 20
74.032060806695227
 30
0.0
 11
32.901951378361723
 21
81.244075128936345
 31
0.0
  0
ARC
  5
81
  8
0
 10
33.888752195034378
 20
81.082136411471424
 30
0.0
 40
1.0
 50
89.999999999999574
 51
170.68055573744959
  0
ARC
  5
82
  8
0
 10
39.44671596036558
 20
81.082136411471339
 30
0.0
 40
1.0
 50
9.3194442625503822
 51
89.999999999998963
  0
LINE
  5
83
  8
0
 10
30.869762936240921
 20
73.13184691722978
 30
0.0
 11
29.667734077699969
 21
66.314802505130643
 31
0.0
  0
LINE
  5
84
  8
0
 10
42.465705219159013
 20
73.13184691722978
 30
0.0
 11
43.667734077699961
 21
66.314802505130643
 31
0.0
  0
ARC
  5
85
  8
0
 10
36.667734077699969
 20
99.334237882456435
 30
0.0
 40
27.51943537730358
 50
259.04266475189911
 51
280.957335248101
  0
ARC
  5
86
  8
0
 10
41.762061568193317
 20
73.016375640289624
 30
0.0
 40
0.7130553999113103
 50
281.03715720475287
 51
48.473942909635852
  0
ARC
  5
87
  8
0
 10
31.57340658720673
 20
73.016375640289624
 30
0.0
 40
0.7130553999112408
 50
131.52605709007199
 51
258.96284279571211
  0
LINE
  5
88
  8
0
 10
33.967734077699383
 20
74.873994550919235
 30
0.0
 11
39.367734077700568
 21
74.873994550919235
 31
0.0
  0
LINE
  5
89
  8
0
 10
39.567734077700571
 20
75.073994550919224
 30
0.0
 11
39.567734077700557
 21
76.020524527733272
 31
0.0
  0
LINE
  5
8A
  8
0
 10
33.76773407769938
 20
75.073994550919224
 30
0.0
 11
33.767734077699373
 21
76.020524527733301
 31
0.0
  0
LINE
  5
8B
  8
0
 10
33.967734077699369
 20
76.220524527733289
 30
0.0
 11
39.367734077700561
 21
76.220524527733261
 31
0.0
  0
ARC
  5
8C
  8
0
 10
39.367734077700568
 20
75.073994550919224
 30
0.0
 40
0.2
 50
270.0
 51
0.0
  0
ARC
  5
8D
  8
0
 10
39.367734077700561
 20
76.020524527733272
 30
0.0
 40
0.2
 50
0.0
 51
89.999999999999716
  0
ARC
  5
8E
  8
0
 10
33.967734077699369
 20
76.020524527733301
 30
0.0
 40
0.2
 50
89.999999999999687
 51
179.99999999999989
  0
ARC
  5
8F
  8
0
 10
33.967734077699383
 20
75.073994550919224
 30
0.0
 40
0.2
 50
180.0
 51
269.99999999999989
  0
ARC
  5
90
  8
0
 10
31.22502504468185
 20
74.113030165427688
 30
0.0
 40
0.5
 50
287.37671312479102
 51
350.68055573744948
  0
ARC
  5
91
  8
0
 10
31.403601024171021
 20
73.062292220598394
 30
0.0
 40
0.5743023799548847
 50
92.919366280204557
 51
121.8340599686305
  0
LINE
  5
92
  8
0
 10
41.61704270238176
 20
74.032060806695227
 30
0.0
 11
40.433516777038207
 21
81.244075128936345
 31
0.0
  0
ARC
  5
93
  8
0
 10
42.11044311071808
 20
74.113030165427688
 30
0.0
 40
0.5
 50
189.31944426255049
 51
252.623286875209
  0
ARC
  5
94
  8
0
 10
41.93186713122892
 20
73.062292220598394
 30
0.0
 40
0.5743023799548847
 50
58.16594003136953
 51
87.080633719795443
  0
LINE
  5
95
  8
1
 10
36.667734077699983
 20
52.314802505152819
 30
0.0
 11
36.667734077699969
 21
84.582136411471367
 31
0.0
  0
LINE
  5
96
  8
1
 10
163.97525924854469
 20
52.314802505152862
 30
0.0
 11
163.97525924854469
 21
84.582136411471396
 31
0.0
  0
ARC
  5
97
  8
0
 10
169.2393923020737
 20
73.062292220598394
 30
0.0
 40
0.5743023799548847
 50
58.16594003136953
 51
87.080633719795443
  0
ARC
  5
98
  8
0
 10
169.41796828156279
 20
74.113030165427688
 30
0.0
 40
0.5
 50
189.31944426255049
 51
252.623286875209
  0
LINE
  5
99
  8
0
 10
168.92456787322649
 20
74.032060806695227
 30
0.0
 11
167.74104194788291
 21
81.244075128936345
 31
0.0
  0
ARC
  5
9A
  8
0
 10
158.71112619501571
 20
73.062292220598394
 30
0.0
 40
0.5743023799548847
 50
92.919366280204557
 51
121.8340599686305
  0
ARC
  5
9B
  8
0
 10
158.53255021552661
 20
74.113030165427688
 30
0.0
 40
0.5
 50
287.37671312479102
 51
350.68055573744948
  0
ARC
  5
9C
  8
0
 10
158.88093175805139
 20
73.016375640289624
 30
0.0
 40
0.7130553999112408
 50
131.52605709007199
 51
170.6805557376864
  0
LINE
  5
9D
  8
0
 10
169.7732303900037
 20
73.13184691722978
 30
0.0
 11
170.97525924854469
 21
66.314802505130643
 31
0.0
  0
LINE
  5
9E
  8
0
 10
158.17728810708559
 20
73.13184691722978
 30
0.0
 11
156.97525924854469
 21
66.314802505130643
 31
0.0
  0
ARC
  5
9F
  8
0
 10
166.75424113121031
 20
81.082136411471339
 30
0.0
 40
1.0
 50
9.3194442625503822
 51
89.999999999998963
  0
ARC
  5
A0
  8
0
 10
161.1962773658791
 20
81.082136411471424
 30
0.0
 40
1.0
 50
89.999999999999574
 51
170.68055573744959
  0
LINE
  5
A1
  8
0
 10
159.02595062386291
 20
74.032060806695227
 30
0.0
 11
160.20947654920641
 21
81.244075128936345
 31
0.0
  0
LINE
  5
A2
  8
0
 10
161.1962773658791
 20
82.082136411471424
 30
0.0
 11
166.75424113121031
 21
82.082136411471339
 31
0.0
  0
LINE
  5
A3
  8
0
 10
170.97525924854469
 20
66.314802505184076
 30
0.0
 11
168.9568892975995
 21
66.314802505176345
 31
0.0
  0
LINE
  5
A4
  8
0
 10
170.97525924854469
 20
65.814802505152841
 30
0.0
 11
170.97525924854469
 21
66.314802505184019
 31
0.0
  0
LINE
  5
A5
  8
0
 10
157.66377394989729
 20
54.814802505152862
 30
0.0
 11
170.28674454719209
 21
54.814802505152862
 31
0.0
  0
LINE
  5
A6
  8
0
 10
170.28674454719209
 20
54.814802505152862
 30
0.0
 11
170.48674454732119
 21
55.014802505281907
 31
0.0
  0
LINE
  5
A7
  8
0
 10
170.48674454732119
 20
55.014802505281907
 30
0.0
 11
170.6752592485436
 21
65.814802505152841
 31
0.0
  0
LINE
  5
A8
  8
0
 10
156.97525924854469
 20
65.814802505152841
 30
0.0
 11
170.97525924854469
 21
65.814802505152841
 31
0.0
  0
LINE
  5
A9
  8
0
 10
157.46377394976821
 20
55.014802505281907
 30
0.0
 11
157.27525924854569
 21
65.814802505152841
 31
0.0
  0
LINE
  5
AA
  8
0
 10
157.66377394989729
 20
54.814802505152862
 30
0.0
 11
157.46377394976821
 21
55.014802505281907
 31
0.0
  0
LINE
  5
AB
  8
0
 10
156.97525924854469
 20
65.814802505152841
 30
0.0
 11
156.97525924854469
 21
66.314802505184019
 31
0.0
  0
ARC
  5
AC
  8
0
 10
169.06958673903799
 20
73.016375640289624
 30
0.0
 40
0.7130553999113103
 50
9.3194442623150717
 51
48.473942909635852
  0
LINE
  5
AD
  8
0
 10
158.9936291994899
 20
73.335104770071268
 30
0.0
 11
158.9936291994899
 21
65.814802505152841
 31
0.0
  0
LINE
  5
AE
  8
0
 10
168.9568892975995
 20
73.335104770071268
 30
0.0
 11
168.9568892975995
 21
65.814802505152841
 31
0.0
  0
LINE
  5
AF
  8
0
 10
158.9936291994899
 20
66.314802505138303
 30
0.0
 11
156.97525924854469
 21
66.314802505130643
 31
0.0
  0
LINE
  5
B0
  8
0
 10
168.17650148833931
 20
78.590529164900119
 30
0.0
 11
167.89442025125291
 21
78.481338168775039
 31
0.0
  0
LINE
  5
B1
  8
0
 10
160.05609824583649
 20
78.481338168775039
 30
0.0
 11
160.68973881793849
 21
74.887783912050367
 31
0.0
  0
LINE
  5
B2
  8
0
 10
159.77401700875021
 20
78.590529164900119
 30
0.0
 11
160.05609824583649
 21
78.481338168775039
 31
0.0
  0
LINE
  5
B3
  8
0
 10
167.2312230756319
 20
74.720160083863959
 30
0.0
 11
160.7192954214575
 21
74.720160083863988
 31
0.0
  0
LINE
  5
B4
  8
0
 10
167.89442025125291
 20
78.481338168775039
 30
0.0
 11
160.05609824583649
 21
78.481338168775039
 31
0.0
  0
LINE
  5
B5
  8
0
 10
159.7943786512848
 20
72.690377176421606
 30
0.0
 11
160.02805823570839
 21
71.365114397668378
 31
0.0
  0
LINE
  5
B6
  8
0
 10
159.73500741442211
 20
72.68838484410395
 30
0.0
 11
158.9936291994899
 21
65.814802505152841
 31
0.0
  0
ARC
  5
B7
  8
0
 10
159.7049310649264
 20
74.714135734382964
 30
0.0
 40
1.0
 50
350.68055573744908
 51
10.00000000002645
  0
ARC
  5
B8
  8
0
 10
159.76483441869451
 20
72.685167731091582
 30
0.0
 40
0.03
 50
10.00000000003058
 51
173.84392913988501
  0
LINE
  5
B9
  8
0
 10
160.17551732300589
 20
71.406556765021577
 30
0.0
 11
160.69173188159911
 21
74.552197016918058
 31
0.0
  0
LINE
  5
BA
  8
0
 10
160.52046211221449
 20
70.951938486502115
 30
0.0
 11
167.2608659512494
 21
70.951938486502115
 31
0.0
  0
ARC
  5
BB
  8
0
 10
160.52046211221449
 20
71.451938486502115
 30
0.0
 40
0.5
 50
190.0000000000301
 51
269.99999999999989
  0
ARC
  5
BC
  8
0
 10
167.430056384875
 20
71.451938486502115
 30
0.0
 40
0.5
 50
270.00000000000011
 51
349.99999999996987
  0
LINE
  5
BD
  8
0
 10
167.77500117408351
 20
71.406556765021577
 30
0.0
 11
167.25878661549041
 21
74.552197016918058
 31
0.0
  0
ARC
  5
BE
  8
0
 10
168.18568407839501
 20
72.685167731091582
 30
0.0
 40
0.03
 50
6.1560708601150163
 51
169.99999999996939
  0
ARC
  5
BF
  8
0
 10
168.24558743216301
 20
74.714135734382964
 30
0.0
 40
1.0
 50
169.99999999997351
 51
189.319444262551
  0
LINE
  5
C0
  8
0
 10
168.1561398458046
 20
72.690377176421606
 30
0.0
 11
167.92246026138099
 21
71.365114397668378
 31
0.0
  0
LINE
  5
C1
  8
0
 10
167.89442025125291
 20
78.481338168775039
 30
0.0
 11
167.26077967915089
 21
74.887783912050367
 31
0.0
  0
LINE
  5
C2
  8
0
 10
160.52046211221449
 20
70.951938486502115
 30
0.0
 11
167.430056384875
 21
70.951938486502115
 31
0.0
  0
LINE
  5
C3
  8
0
 10
168.21551108266729
 20
72.68838484410395
 30
0.0
 11
168.9568892975995
 21
65.814802505152841
 31
0.0
  0
LINE
  5
C4
  8
0
 10
166.402802576017
 20
70.951938486502115
 30
0.0
 11
166.9091190709822
 21
66.257697345317808
 31
0.0
  0
LINE
  5
C5
  8
0
 10
161.5477159210723
 20
70.951938486502129
 30
0.0
 11
161.0413994261072
 21
66.257697345317837
 31
0.0
  0
ARC
  5
C6
  8
0
 10
161.4390928164058
 20
66.214802505152903
 30
0.0
 40
0.4
 50
173.84392913988501
 51
269.99999999999972
  0
ARC
  5
C7
  8
0
 10
166.5114256806836
 20
66.214802505152875
 30
0.0
 40
0.4
 50
269.99999999999937
 51
6.1560708601151299
  0
LINE
  5
C8
  8
0
 10
168.17650148833931
 20
78.590529164900147
 30
0.0
 11
159.77401700875009
 21
78.590529164900119
 31
0.0
  0
TEXT
  5
C9
  8
0
 10
37.944558298057771
 20
75.25507133616118
 30
0.0
 40
4.0
  1
Kipp
 50
90.0
 41
0.05
  7
COMPLEX1
 72
     1
 11
37.944558298057771
 21
75.555071336161177
 31
0.0
  0
LINE
  5
CA
  8
2
 10
33.474408168141721
 20
54.814802505152819
 30
0.0
 11
33.674408168269807
 21
55.014802505280912
 31
0.0
  0
LINE
  5
CB
  8
2
 10
39.861059987258251
 20
54.814802505152819
 30
0.0
 11
39.661059987130152
 21
55.014802505280912
 31
0.0
  0
LINE
  5
CC
  8
2
 10
160.78193333898639
 20
54.814802505152862
 30
0.0
 11
160.98193333911451
 21
55.01480250528094
 31
0.0
  0
LINE
  5
CD
  8
2
 10
167.16858515810301
 20
54.814802505152862
 30
0.0
 11
166.9685851579749
 21
55.01480250528094
 31
0.0
  0
LINE
  5
CE
  8
1
 10
35.671645236088558
 20
60.314802505152826
 30
0.0
 11
28.063736934807221
 21
60.314802505152826
 31
0.0
  0
LINE
  5
CF
  8
1
 10
172.57925639143821
 20
60.314802505152883
 30
0.0
 11
164.97134809015679
 21
60.314802505152883
 31
0.0
  0
LINE
  5
D0
  8
0
 10
89.271992317014195
 20
54.814802505152841
 30
0.0
 11
89.471992317143204
 21
55.014802505281892
 31
0.0
  0
LINE
  5
D1
  8
0
 10
157.46377394976821
 20
55.014802505281878
 30
0.0
 11
170.48674454732111
 21
55.014802505281878
 31
0.0
  0
LINE
  5
D2
  8
0
 10
30.156248778923491
 20
55.014802505281878
 30
0.0
 11
43.179219376476418
 21
55.014802505281907
 31
0.0
  0
LINE
  5
D3
  8
0
 10
122.6605070183271
 20
24.037062483249368
 30
0.0
 11
122.6605070183271
 21
20.19874047783313
 31
0.0
  0
ARC
  5
D4
  8
0
 10
120.66050701832719
 20
24.037062483249368
 30
0.0
 40
2.0
 50
0.0000000000001527
 51
86.66666665843367
  0
ARC
  5
D5
  8
0
 10
120.66050701832719
 20
20.19874047783313
 30
0.0
 40
2.0
 50
270.0
 51
0.0000000000004707
  0
LINE
  5
D6
  8
0
 10
87.988924271450344
 20
26.98770845093458
 30
0.0
 11
120.7767966764039
 21
26.033678799777711
 31
0.0
  0
LINE
  5
D7
  8
0
 10
87.988924271450344
 20
17.24809451014788
 30
0.0
 11
120.7767966764039
 21
18.202124161304791
 31
0.0
  0
LINE
  5
D8
  8
0
 10
122.4728833818514
 20
24.642181719696509
 30
0.0
 11
122.4728833818514
 21
19.5936212413859
 31
0.0
  0
LINE
  5
D9
  8
0
 10
111.1779194571003
 20
25.149309088338612
 30
0.0
 11
111.1779194571003
 21
19.086494826418171
 31
0.0
  0
LINE
  5
DA
  8
0
 10
112.0197089100288
 20
25.948215915089492
 30
0.0
 11
121.7146728347798
 21
25.441089500121731
 31
0.0
  0
LINE
  5
DB
  8
0
 10
112.0197089100288
 20
18.287587045992979
 30
0.0
 11
121.7146728347798
 21
18.794713460960679
 31
0.0
  0
ARC
  5
DC
  8
0
 10
121.67288338185131
 20
24.642181719696509
 30
0.0
 40
0.8
 50
0.0000000000002544
 51
87.005688088857852
  0
ARC
  5
DD
  8
0
 10
121.67288338185131
 20
19.5936212413859
 30
0.0
 40
0.8
 50
272.99431191114161
 51
0.0000000000002799
  0
ARC
  5
DE
  8
0
 10
111.9779194571003
 20
25.149308134664299
 30
0.0
 40
0.8
 50
87.005688088857923
 51
179.99999999999989
  0
ARC
  5
DF
  8
0
 10
111.9779194571003
 20
19.086494826418171
 30
0.0
 40
0.8
 50
179.9999999999998
 51
272.99431191114161
  0
LINE
  5
E0
  8
0
 10
109.6450531219383
 20
26.157494811180761
 30
0.0
 11
109.6450531219382
 21
18.078308149901719
 31
0.0
  0
LINE
  5
E1
  8
0
 10
110.1231870851003
 20
26.243624856621651
 30
0.0
 11
111.1779194571003
 21
25.992248432459832
 31
0.0
  0
LINE
  5
E2
  8
0
 10
110.1231870851003
 20
17.99217810446083
 30
0.0
 11
111.1779194571003
 21
18.243554528622649
 31
0.0
  0
LINE
  5
E3
  8
0
 10
89.960507018366542
 20
19.706578340335479
 30
0.0
 11
89.960507018366457
 21
24.52922462074698
 31
0.0
  0
ARC
  5
E4
  8
0
 10
90.360507018366548
 20
19.706578340335479
 30
0.0
 40
0.4
 50
180.0000000000006
 51
271.66666666999993
  0
ARC
  5
E5
  8
0
 10
90.360507018366462
 20
24.52922462074698
 30
0.0
 40
0.4
 50
88.333333330000116
 51
180.0000000000006
  0
LINE
  5
E6
  8
2
 10
85.960507426009698
 20
67.814802505152841
 30
0.0
 11
79.960506610723826
 21
67.814802505152841
 31
0.0
  0
LINE
  5
E7
  8
2
 10
79.767179352466059
 20
54.814802505152862
 30
0.0
 11
79.967179352594172
 21
55.01480250528094
 31
0.0
  0
LINE
  5
E8
  8
2
 10
86.16717963276389
 20
54.81582924217534
 30
0.0
 11
85.967179632635776
 21
55.015829242303418
 31
0.0
  0
LINE
  5
E9
  8
2
 10
79.967180167880969
 20
55.013238581617323
 30
0.0
 11
79.960506610723826
 21
67.814802505152841
 31
0.0
  0
LINE
  5
EA
  8
2
 10
85.967180167881025
 20
55.014802505281878
 30
0.0
 11
85.960507426009698
 21
67.814802505152841
 31
0.0
  0
LINE
  5
EB
  8
2
 10
39.674407227214239
 20
55.014802505281878
 30
0.0
 11
39.667734485342933
 21
67.814802505152841
 31
0.0
  0
LINE
  5
EC
  8
2
 10
33.674407227214182
 20
55.013238581617323
 30
0.0
 11
33.667733670057039
 21
67.814802505152841
 31
0.0
  0
LINE
  5
ED
  8
2
 10
39.874406692097111
 20
54.81582924217534
 30
0.0
 11
39.67440669196899
 21
55.015829242303418
 31
0.0
  0
LINE
  5
EE
  8
2
 10
33.474406411799279
 20
54.814802505152862
 30
0.0
 11
33.674406411927393
 21
55.01480250528094
 31
0.0
  0
LINE
  5
EF
  8
2
 10
39.667734485342933
 20
67.814802505152841
 30
0.0
 11
33.667733670057039
 21
67.814802505152841
 31
0.0
  0
LINE
  5
F0
  8
2
 10
166.98193239805889
 20
55.014802505281828
 30
0.0
 11
166.9752596561876
 21
67.814802505152784
 31
0.0
  0
LINE
  5
F1
  8
2
 10
160.98193239805889
 20
55.013238581617287
 30
0.0
 11
160.97525884090169
 21
67.814802505152784
 31
0.0
  0
LINE
  5
F2
  8
2
 10
167.18193186294181
 20
54.815829242175298
 30
0.0
 11
166.9819318628137
 21
55.015829242303383
 31
0.0
  0
LINE
  5
F3
  8
2
 10
160.78193158264389
 20
54.814802505152812
 30
0.0
 11
160.98193158277209
 21
55.01480250528089
 31
0.0
  0
LINE
  5
F4
  8
2
 10
166.9752596561876
 20
67.814802505152784
 30
0.0
 11
160.97525884090169
 21
67.814802505152784
 31
0.0
  0
CIRCLE
  5
F5
  8
2
 10
82.960507018366755
 20
115.0163327355373
 30
0.0
 40
3.0
  0
ARC
  5
F6
  8
0
 10
109.2450531219382
 20
23.926765621599479
 30
0.0
 40
0.4
 50
359.99999999999892
 51
90.0
  0
ARC
  5
F7
  8
0
 10
109.2450531219382
 20
20.309037339483019
 30
0.0
 40
0.4
 50
270.0
 51
359.99999999999881
  0
LINE
  5
F8
  8
0
 10
90.372140905886965
 20
24.92905540077918
 30
0.0
 11
109.2450531219382
 21
24.326765621599481
 31
0.0
  0
LINE
  5
F9
  8
0
 10
90.372140905887051
 20
19.306747560303279
 30
0.0
 11
109.2450531219382
 21
19.909037339483021
 31
0.0
  0
LINE
  5
103
  8
1
 10
82.960507018366755
 20
31.617901480541249
 30
0.0
 11
82.960507018366755
 21
12.617901480541249
 31
0.0
  0
TEXT
  5
263
  8
0
 62
     3
 10
0.0
 20
0.0
 30
0.0
 40
10.0
  1
FLR6
  7
STANDARD1
  0
ENDSEC
  0
EOF
