  0
SECTION
  2
HEADER
  9
$ACADVER
  1
AC1009
  9
$INSBASE
 10
0.0
 20
0.0
 30
0.0
  9
$EXTMIN
 10
0.0
 20
-2.960436562073669
 30
0.0
  9
$EXTMAX
 10
271.08609146906178
 20
217.0660376563354
 30
0.0
  9
$LIMMIN
 10
0.0
 20
0.0
  9
$LIMMAX
 10
187.5
 20
135.0
  9
$ORTHOMODE
 70
     1
  9
$REGENMODE
 70
     1
  9
$FILLMODE
 70
     1
  9
$QTEXTMODE
 70
     0
  9
$MIRRTEXT
 70
     0
  9
$DRAGMODE
 70
     2
  9
$LTSCALE
 40
10.0
  9
$OSMODE
 70
    55
  9
$ATTMODE
 70
     1
  9
$TEXTSIZE
 40
4.0
  9
$TRACEWID
 40
0.05
  9
$TEXTSTYLE
  7
STANDARD
  9
$CLAYER
  8
3
  9
$CELTYPE
  6
BYLAYER
  9
$CECOLOR
 62
   256
  9
$DIMSCALE
 40
0.5
  9
$DIMASZ
 40
3.0
  9
$DIMEXO
 40
2.0
  9
$DIMDLI
 40
0.38
  9
$DIMRND
 40
0.0
  9
$DIMDLE
 40
0.0
  9
$DIMEXE
 40
2.0
  9
$DIMTP
 40
0.0
  9
$DIMTM
 40
0.0
  9
$DIMTXT
 40
3.0
  9
$DIMCEN
 40
0.0
  9
$DIMTSZ
 40
0.0
  9
$DIMTOL
 70
     0
  9
$DIMLIM
 70
     0
  9
$DIMTIH
 70
     0
  9
$DIMTOH
 70
     0
  9
$DIMSE1
 70
     0
  9
$DIMSE2
 70
     0
  9
$DIMTAD
 70
     1
  9
$DIMZIN
 70
     0
  9
$DIMBLK
  1

  9
$DIMASO
 70
     0
  9
$DIMSHO
 70
     0
  9
$DIMPOST
  1

  9
$DIMAPOST
  1

  9
$DIMALT
 70
     0
  9
$DIMALTD
 70
     2
  9
$DIMALTF
 40
25.399999999999999
  9
$DIMLFAC
 40
1.0
  9
$DIMTOFL
 70
     0
  9
$DIMTVP
 40
1.6000000000000001
  9
$DIMTIX
 70
     1
  9
$DIMSOXD
 70
     0
  9
$DIMSAH
 70
     0
  9
$DIMBLK1
  1

  9
$DIMBLK2
  1

  9
$DIMSTYLE
  2
STANDARD
  9
$DIMCLRD
 70
     0
  9
$DIMCLRE
 70
     0
  9
$DIMCLRT
 70
     0
  9
$DIMTFAC
 40
1.0
  9
$DIMGAP
 40
0.09
  9
$LUNITS
 70
     2
  9
$LUPREC
 70
     4
  9
$SKETCHINC
 40
0.1
  9
$FILLETRAD
 40
1.25
  9
$AUNITS
 70
     0
  9
$AUPREC
 70
     0
  9
$MENU
  1
E:\r13\win\SUPPORT\ACAD
  9
$ELEVATION
 40
0.0
  9
$PELEVATION
 40
0.0
  9
$THICKNESS
 40
0.0
  9
$LIMCHECK
 70
     0
  9
$BLIPMODE
 70
     0
  9
$CHAMFERA
 40
0.5
  9
$CHAMFERB
 40
0.5
  9
$SKPOLY
 70
     0
  9
$TDCREATE
 40
2449840.6143865739
  9
$TDUPDATE
 40
2456598.6626079632
  9
$TDINDWG
 40
0.2444714815
  9
$TDUSRTIMER
 40
0.2444714815
  9
$USRTIMER
 70
     1
  9
$ANGBASE
 50
0.0
  9
$ANGDIR
 70
     0
  9
$PDMODE
 70
     0
  9
$PDSIZE
 40
0.0
  9
$PLINEWID
 40
0.0
  9
$COORDS
 70
     1
  9
$SPLFRAME
 70
     0
  9
$SPLINETYPE
 70
     6
  9
$SPLINESEGS
 70
     8
  9
$ATTDIA
 70
     0
  9
$ATTREQ
 70
     1
  9
$HANDLING
 70
     1
  9
$HANDSEED
  5
153A
  9
$SURFTAB1
 70
     6
  9
$SURFTAB2
 70
     6
  9
$SURFTYPE
 70
     6
  9
$SURFU
 70
     6
  9
$SURFV
 70
     6
  9
$UCSNAME
  2

  9
$UCSORG
 10
0.0
 20
0.0
 30
0.0
  9
$UCSXDIR
 10
1.0
 20
0.0
 30
0.0
  9
$UCSYDIR
 10
0.0
 20
1.0
 30
0.0
  9
$PUCSNAME
  2

  9
$PUCSORG
 10
0.0
 20
0.0
 30
0.0
  9
$PUCSXDIR
 10
1.0
 20
0.0
 30
0.0
  9
$PUCSYDIR
 10
0.0
 20
1.0
 30
0.0
  9
$USERI1
 70
     0
  9
$USERI2
 70
     1
  9
$USERI3
 70
     1
  9
$USERI4
 70
     0
  9
$USERI5
 70
     0
  9
$USERR1
 40
0.0
  9
$USERR2
 40
0.0
  9
$USERR3
 40
0.0
  9
$USERR4
 40
0.0
  9
$USERR5
 40
0.0
  9
$WORLDVIEW
 70
     1
  9
$SHADEDGE
 70
     3
  9
$SHADEDIF
 70
    70
  9
$TILEMODE
 70
     1
  9
$MAXACTVP
 70
    16
  9
$PLIMCHECK
 70
     0
  9
$PEXTMIN
 10
1.0000000000000000E+020
 20
1.0000000000000000E+020
 30
1.0000000000000000E+020
  9
$PEXTMAX
 10
-1.0000000000000000E+020
 20
-1.0000000000000000E+020
 30
-1.0000000000000000E+020
  9
$PLIMMIN
 10
0.0
 20
0.0
  9
$PLIMMAX
 10
12.0
 20
9.0
  9
$UNITMODE
 70
     0
  9
$VISRETAIN
 70
     0
  9
$PLINEGEN
 70
     0
  9
$PSLTSCALE
 70
     0
  0
ENDSEC
  0
SECTION
  2
TABLES
  0
TABLE
  2
VPORT
 70
     1
  0
VPORT
  2
*ACTIVE
 70
     0
 10
0.0
 20
0.0
 11
1.0
 21
1.0
 12
135.54304636570239
 22
140.4264591372748
 13
0.0
 23
0.0
 14
5.0
 24
5.0
 15
5.0
 25
5.0
 16
0.0
 26
0.0
 36
1.0
 17
0.0
 27
0.0
 37
0.0
 40
289.3241786984994
 41
1.7807262569832401
 42
50.0
 43
0.0
 44
0.0
 50
0.0
 51
0.0
 71
     0
 72
   100
 73
     1
 74
     0
 75
     0
 76
     0
 77
     0
 78
     0
  0
ENDTAB
  0
TABLE
  2
LTYPE
 70
     3
  0
LTYPE
  2
CONTINUOUS
 70
     0
  3
Solid Line
 72
    65
 73
     0
 40
0.0
  0
LTYPE
  2
CENTER
 70
     0
  3
____ _ ____ _ ____ _ ____ _ ____ _ ____ _ ____
 72
    65
 73
     4
 40
2.0
 49
1.25
 49
-0.25
 49
0.25
 49
-0.25
  0
LTYPE
  2
PHANTOM2
 70
     0
  3
___ _ _ ___ _ _ ___ _ _ ___ _ _
 72
    65
 73
     6
 40
1.25
 49
0.625
 49
-0.125
 49
0.125
 49
-0.125
 49
0.125
 49
-0.125
  0
ENDTAB
  0
TABLE
  2
LAYER
 70
     3
  0
LAYER
  2
0
 70
     0
 62
     7
  6
CONTINUOUS
  0
LAYER
  2
1
 70
     0
 62
     1
  6
CENTER
  0
LAYER
  2
3
 70
     0
 62
     3
  6
CONTINUOUS
  0
ENDTAB
  0
TABLE
  2
STYLE
 70
     2
  0
STYLE
  2
STANDARD
 70
     0
 40
0.0
 41
1.0
 50
0.0
 71
     0
 42
4.0
  3
TXT
  4
BIGFONT
  0
STYLE
  2
STANDARD1
 70
     0
 40
0.0
 41
1.0
 50
0.0
 71
     0
 42
3.0
  3
txt
  4

  0
ENDTAB
  0
TABLE
  2
VIEW
 70
     1
  0
VIEW
  2
ALL
 70
     0
 40
179.66152299999999
 10
141.903918
 20
89.830760999999995
 41
0.0
 11
0.0
 21
0.0
 31
1.0
 12
0.0
 22
0.0
 32
0.0
 42
0.0
 43
0.0
 44
0.0
 50
0.0
 71
     0
  0
ENDTAB
  0
TABLE
  2
UCS
 70
     0
  0
ENDTAB
  0
TABLE
  2
APPID
 70
     4
  0
APPID
  2
ACAD
 70
     0
  0
APPID
  2
DCO15
 70
     0
  0
APPID
  2
ACAD_MLEADERVER
 70
     0
  0
APPID
  2
ACAD_NAV_VCDISPLAY
 70
     0
  0
ENDTAB
  0
TABLE
  2
DIMSTYLE
 70
     1
  0
DIMSTYLE
  2
STANDARD
 70
     0
  3

  4

  5

  6

  7

 40
1.0
 41
0.18
 42
0.0625
 43
0.38
 44
0.18
 45
0.0
 46
0.0
 47
0.0
 48
0.0
140
0.18
141
0.09
142
0.0
143
25.399999999999999
144
1.0
145
0.0
146
1.0
147
0.09
 71
     0
 72
     0
 73
     1
 74
     1
 75
     0
 76
     0
 77
     0
 78
     0
170
     0
171
     2
172
     0
173
     0
174
     0
175
     0
176
     0
177
     0
178
     0
  0
ENDTAB
  0
ENDSEC
  0
SECTION
  2
BLOCKS
  0
BLOCK
  8
0
  2
$MODEL_SPACE
 70
     0
 10
0.0
 20
0.0
 30
0.0
  3
$MODEL_SPACE
  1

  0
ENDBLK
  5
1BD
  8
0
  0
BLOCK
 67
     1
  8
0
  2
$PAPER_SPACE
 70
     0
 10
0.0
 20
0.0
 30
0.0
  3
$PAPER_SPACE
  1

  0
ENDBLK
  5
1BB
 67
     1
  8
0
  0
BLOCK
  8
0
  2
*X0
 70
     1
 10
0.0
 20
0.0
 30
0.0
  3
*X0
  1

  0
LINE
  5
11CD
  8
0
 62
     0
 10
145.4869424762459
 20
153.28555449559039
 30
0.0
 11
146.6582288941957
 21
154.45684091354019
 31
0.0
  0
LINE
  5
11CE
  8
0
 62
     0
 10
143.7191755232796
 20
153.28555449559039
 30
0.0
 11
146.6582288941957
 21
156.2246078665066
 31
0.0
  0
LINE
  5
11CF
  8
0
 62
     0
 10
141.95140857031319
 20
153.28555449559039
 30
0.0
 11
146.6582288941957
 21
157.9923748194729
 31
0.0
  0
LINE
  5
11D0
  8
0
 62
     0
 10
140.18364161734689
 20
153.28555449559039
 30
0.0
 11
145.18364161734681
 21
158.28555449559039
 31
0.0
  0
LINE
  5
11D1
  8
0
 62
     0
 10
138.41587466438051
 20
153.2855544955905
 30
0.0
 11
143.41587466438051
 21
158.28555449559039
 31
0.0
  0
LINE
  5
11D2
  8
0
 62
     0
 10
138.05822889419571
 20
154.695675678372
 30
0.0
 11
141.6481077114141
 21
158.28555449559039
 31
0.0
  0
LINE
  5
11D3
  8
0
 62
     0
 10
138.05822889419559
 20
156.4634426313383
 30
0.0
 11
139.88034075844769
 21
158.28555449559039
 31
0.0
  0
LINE
  5
11D4
  8
0
 62
     0
 10
138.05822889419571
 20
158.23120958430471
 30
0.0
 11
138.11257380548139
 21
158.28555449559039
 31
0.0
  0
ENDBLK
  5
11D6
  8
0
  0
BLOCK
  8
0
  2
*X1
 70
     1
 10
0.0
 20
0.0
 30
0.0
  3
*X1
  1

  0
LINE
  5
11D8
  8
0
 62
     0
 10
146.6582288941957
 20
158.23120958430471
 30
0.0
 11
146.60388398290991
 21
158.2855544955905
 31
0.0
  0
LINE
  5
11D9
  8
0
 62
     0
 10
146.6582288941957
 20
156.4634426313383
 30
0.0
 11
144.83611702994349
 21
158.2855544955905
 31
0.0
  0
LINE
  5
11DA
  8
0
 62
     0
 10
146.6582288941957
 20
154.69567567837191
 30
0.0
 11
143.0683500769772
 21
158.2855544955905
 31
0.0
  0
LINE
  5
11DB
  8
0
 62
     0
 10
146.30058312401081
 20
153.2855544955905
 30
0.0
 11
141.30058312401081
 21
158.2855544955905
 31
0.0
  0
LINE
  5
11DC
  8
0
 62
     0
 10
144.5328161710444
 20
153.2855544955905
 30
0.0
 11
139.53281617104449
 21
158.28555449559039
 31
0.0
  0
LINE
  5
11DD
  8
0
 62
     0
 10
142.7650492180781
 20
153.2855544955905
 30
0.0
 11
138.05822889419571
 21
157.9923748194729
 31
0.0
  0
LINE
  5
11DE
  8
0
 62
     0
 10
140.99728226511169
 20
153.2855544955905
 30
0.0
 11
138.05822889419571
 21
156.22460786650649
 31
0.0
  0
LINE
  5
11DF
  8
0
 62
     0
 10
139.2295153121454
 20
153.28555449559039
 30
0.0
 11
138.05822889419571
 21
154.45684091354011
 31
0.0
  0
ENDBLK
  5
11E1
  8
0
  0
BLOCK
  8
0
  2
*X2
 70
     1
 10
0.0
 20
0.0
 30
0.0
  3
*X2
  1

  0
LINE
  5
11E3
  8
0
 62
     0
 10
73.588516756722854
 20
153.28555449559039
 30
0.0
 11
74.850888487322962
 21
154.5479262261905
 31
0.0
  0
LINE
  5
11E4
  8
0
 62
     0
 10
71.820749803756513
 20
153.28555449559039
 30
0.0
 11
74.850888487322962
 21
156.31569317915691
 31
0.0
  0
LINE
  5
11E5
  8
0
 62
     0
 10
70.052982850790144
 20
153.28555449559039
 30
0.0
 11
74.850888487322962
 21
158.08346013212321
 31
0.0
  0
LINE
  5
11E6
  8
0
 62
     0
 10
68.28521589782379
 20
153.28555449559039
 30
0.0
 11
73.28521589782379
 21
158.28555449559039
 31
0.0
  0
LINE
  5
11E7
  8
0
 62
     0
 10
66.517448944857435
 20
153.28555449559039
 30
0.0
 11
71.517448944857406
 21
158.28555449559039
 31
0.0
  0
LINE
  5
11E8
  8
0
 62
     0
 10
66.25088848732301
 20
154.78676099102239
 30
0.0
 11
69.749681991891066
 21
158.28555449559039
 31
0.0
  0
LINE
  5
11E9
  8
0
 62
     0
 10
66.250888487322996
 20
156.5545279439888
 30
0.0
 11
67.981915038924711
 21
158.28555449559039
 31
0.0
  0
ENDBLK
  5
11EB
  8
0
  0
BLOCK
  8
0
  2
*X3
 70
     1
 10
0.0
 20
0.0
 30
0.0
  3
*X3
  1

  0
LINE
  5
11ED
  8
0
 62
     0
 10
74.850888487322891
 20
156.5545279439888
 30
0.0
 11
73.119861935721175
 21
158.2855544955905
 31
0.0
  0
LINE
  5
11EE
  8
0
 62
     0
 10
74.850888487322877
 20
154.78676099102239
 30
0.0
 11
71.352094982754835
 21
158.28555449559039
 31
0.0
  0
LINE
  5
11EF
  8
0
 62
     0
 10
74.584328029788423
 20
153.2855544955905
 30
0.0
 11
69.584328029788466
 21
158.28555449559039
 31
0.0
  0
LINE
  5
11F0
  8
0
 62
     0
 10
72.816561076822111
 20
153.28555449559039
 30
0.0
 11
67.816561076822111
 21
158.28555449559039
 31
0.0
  0
LINE
  5
11F1
  8
0
 62
     0
 10
71.048794123855743
 20
153.28555449559039
 30
0.0
 11
66.250888487322939
 21
158.08346013212321
 31
0.0
  0
LINE
  5
11F2
  8
0
 62
     0
 10
69.281027170889388
 20
153.28555449559039
 30
0.0
 11
66.250888487322925
 21
156.31569317915691
 31
0.0
  0
LINE
  5
11F3
  8
0
 62
     0
 10
67.513260217923062
 20
153.28555449559039
 30
0.0
 11
66.250888487322953
 21
154.5479262261905
 31
0.0
  0
ENDBLK
  5
11F5
  8
0
  0
ENDSEC
  0
SECTION
  2
ENTITIES
  0
LINE
  5
E7E
  8
1
 10
212.35822889419569
 20
202.5660376563354
 30
0.0
 11
127.8582288941957
 21
202.5660376563354
 31
0.0
  0
ARC
  5
E7F
  8
0
 10
142.35822889419569
 20
202.5660376563354
 30
0.0
 40
9.5
 50
43.960390333331041
 51
167.0937516733598
  0
ARC
  5
E80
  8
0
 10
161.7185164128361
 20
157.9820427682441
 30
0.0
 40
40.0
 50
76.417232813746722
 51
108.2431324165678
  0
ARC
  5
E81
  8
0
 10
161.7185164128361
 20
247.15003254442669
 30
0.0
 40
40.0
 50
251.7568675834319
 51
283.58276718625319
  0
ARC
  5
E82
  8
0
 10
142.35822889419569
 20
202.5660376563354
 30
0.0
 40
9.5
 50
192.90624832664011
 51
316.03960966666949
  0
LINE
  5
E83
  8
1
 10
142.35822889419569
 20
217.0660376563354
 30
0.0
 11
142.35822889419569
 21
188.06603765633531
 31
0.0
  0
CIRCLE
  5
E84
  8
0
 10
143.1309436413504
 20
202.5660376563354
 30
0.0
 40
5.3807200853997337
  0
LINE
  5
E86
  8
0
 10
133.0982288941957
 20
200.44415170275539
 30
0.0
 11
133.0982288941957
 21
204.68792360991529
 31
0.0
  0
LINE
  5
E93
  8
0
 10
172.46734056512199
 20
196.72673052136341
 30
0.0
 11
202.6082288941958
 21
197.81603765633531
 31
0.0
  0
LINE
  5
E94
  8
0
 10
172.46734056512199
 20
208.40534479130741
 30
0.0
 11
202.6082288941958
 21
207.3160376563354
 31
0.0
  0
ARC
  5
E95
  8
0
 10
172.28675590098581
 20
201.72346837511151
 30
0.0
 40
5.0
 50
256.41723281374669
 51
272.0697979717865
  0
ARC
  5
E96
  8
0
 10
172.28675590098581
 20
203.40860693755931
 30
0.0
 40
5.0
 50
87.930202028213543
 51
103.58276718625319
  0
ARC
  5
E97
  8
0
 10
202.6082288941958
 20
202.5660376563354
 30
0.0
 40
4.75
 50
270.0
 51
90.0
  0
LINE
  5
E98
  8
0
 10
133.09822889419561
 20
143.3660100055462
 30
0.0
 11
133.0982288941957
 21
128.7855544955905
 31
0.0
  0
LINE
  5
E99
  8
0
 10
151.5982288941957
 20
128.7855544955905
 30
0.0
 11
151.59822889419561
 21
139.78555449559039
 31
0.0
  0
LINE
  5
E9A
  8
0
 10
203.5728406092654
 20
155.09424470299891
 30
0.0
 11
196.310854567554
 21
152.80733590791081
 31
0.0
  0
LINE
  5
E9B
  8
0
 10
193.3071258558287
 20
152.34555449559051
 30
0.0
 11
184.5033693504156
 21
152.34555449559051
 31
0.0
  0
LINE
  5
E9C
  8
0
 10
151.5982288941957
 20
128.7855544955905
 30
0.0
 11
133.0982288941957
 21
128.7855544955905
 31
0.0
  0
LINE
  5
E9D
  8
0
 10
138.05822889419571
 20
158.2855544955905
 30
0.0
 11
138.05822889419571
 21
148.16114130127761
 31
0.0
  0
LINE
  5
E9E
  8
0
 10
149.10822889419569
 20
122.2855544955905
 30
0.0
 11
149.10822889419569
 21
128.7855544955905
 31
0.0
  0
LINE
  5
E9F
  8
0
 10
135.60822889419569
 20
128.7855544955905
 30
0.0
 11
135.60822889419569
 21
122.2855544955905
 31
0.0
  0
LINE
  5
EA1
  8
0
 10
135.60822889419569
 20
122.2855544955905
 30
0.0
 11
149.10822889419569
 21
122.2855544955905
 31
0.0
  0
LINE
  5
EA2
  8
1
 10
142.35822889419569
 20
163.78555449559039
 30
0.0
 11
142.35822889419561
 21
92.285554495590461
 31
0.0
  0
ARC
  5
EB0
  8
0
 10
142.35822889419569
 20
52.785554495590468
 30
0.0
 40
9.5
 50
43.960390333331041
 51
167.0937516733598
  0
ARC
  5
EB1
  8
0
 10
142.35822889419569
 20
52.785554495590468
 30
0.0
 40
9.5
 50
192.90624832664011
 51
316.03960966666949
  0
LINE
  5
EB2
  8
1
 10
212.35822889419569
 20
52.785554495590503
 30
0.0
 11
127.8582288941957
 21
52.785554495590468
 31
0.0
  0
LINE
  5
EB3
  8
1
 10
142.35822889419569
 20
67.285554495590475
 30
0.0
 11
142.35822889419569
 21
38.285554495590468
 31
0.0
  0
LINE
  5
EB4
  8
0
 10
133.09822889419561
 20
50.663668542010562
 30
0.0
 11
133.09822889419561
 21
54.907440449170423
 31
0.0
  0
LINE
  5
EB5
  8
0
 10
172.4673405651219
 20
46.946247360618543
 30
0.0
 11
202.60822889419569
 21
48.035554495590482
 31
0.0
  0
LINE
  5
EB6
  8
0
 10
172.4673405651219
 20
58.624861630562457
 30
0.0
 11
202.60822889419569
 21
57.535554495590503
 31
0.0
  0
ARC
  5
EB7
  8
0
 10
161.71851641283601
 20
8.2015596074992345
 30
0.0
 40
40.0
 50
76.417232813746722
 51
108.2431324165678
  0
ARC
  5
EB8
  8
0
 10
172.2867559009857
 20
51.942985214366608
 30
0.0
 40
5.0
 50
256.41723281374669
 51
272.0697979717865
  0
ARC
  5
EB9
  8
0
 10
161.71851641283601
 20
97.369549383681786
 30
0.0
 40
40.0
 50
251.7568675834319
 51
283.58276718625319
  0
ARC
  5
EBA
  8
0
 10
172.2867559009857
 20
53.628123776814391
 30
0.0
 40
5.0
 50
87.930202028213543
 51
103.58276718625319
  0
ARC
  5
EBB
  8
0
 10
202.60822889419569
 20
52.785554495590503
 30
0.0
 40
4.75
 50
270.0
 51
90.0
  0
CIRCLE
  5
EBC
  8
0
 10
142.35822889419569
 20
52.785554495590468
 30
0.0
 40
9.2500000000000213
  0
CIRCLE
  5
EBE
  8
0
 10
142.35822889419561
 20
52.785554495590468
 30
0.0
 40
4.0
  0
LINE
  5
EBF
  8
0
 10
74.850888487322933
 20
148.8927957281866
 30
0.0
 11
74.850888487322933
 21
158.28555449559039
 31
0.0
  0
LINE
  5
EC0
  8
0
 10
66.25088848732301
 20
158.2855544955905
 30
0.0
 11
66.250888487322939
 21
148.8927957281866
 31
0.0
  0
LINE
  5
EC1
  8
0
 10
77.300888487322936
 20
122.2855544955905
 30
0.0
 11
77.300888487322936
 21
128.7855544955905
 31
0.0
  0
LINE
  5
EC2
  8
0
 10
63.800888487322929
 20
128.7855544955905
 30
0.0
 11
63.800888487322929
 21
122.2855544955905
 31
0.0
  0
LINE
  5
EC4
  8
0
 10
63.800888487322929
 20
122.2855544955905
 30
0.0
 11
77.300888487322936
 21
122.2855544955905
 31
0.0
  0
LINE
  5
EC5
  8
0
 10
64.34744994411875
 20
147.01336026625569
 30
0.0
 11
76.754327030527122
 21
147.01336026625569
 31
0.0
  0
LINE
  5
EC6
  8
0
 10
79.800888487322936
 20
128.7855544955905
 30
0.0
 11
61.300888487322929
 21
128.7855544955905
 31
0.0
  0
LINE
  5
EC7
  8
1
 10
70.550888487322936
 20
169.57058872112731
 30
0.0
 11
70.550888487322908
 21
92.285554495590446
 31
0.0
  0
ARC
  5
EC8
  8
0
 10
203.86981531642721
 20
161.28563795816009
 30
0.0
 40
3.5
 50
355.33664836780463
 51
90.395685692583854
  0
ARC
  5
EC9
  8
0
 10
226.81085593686939
 20
-64.065049744680493
 30
0.0
 40
230.0
 50
95.730460647055494
 51
113.38817846563499
  0
ARC
  5
ECA
  8
0
 10
137.0982288941957
 20
143.3660100055462
 30
0.0
 40
4.0
 50
113.3881784656329
 51
180.0
  0
ARC
  5
ECB
  8
0
 10
248.84273482747579
 20
-57.555536171792539
 30
0.0
 40
220.0
 50
107.8410827436654
 51
116.23286702971259
  0
ARC
  5
ECC
  8
0
 10
184.5033693504156
 20
142.34555449559039
 30
0.0
 40
10.0
 50
90.0
 51
107.8410827436654
  0
ARC
  5
ECD
  8
0
 10
193.3071258558287
 20
162.34555449559039
 30
0.0
 40
10.0
 50
270.0
 51
287.47999999999939
  0
ARC
  5
ECE
  8
0
 10
199.47617838737821
 20
161.9657335256459
 30
0.0
 40
8.0
 50
300.80266237156633
 51
350.14910440292891
  0
LINE
  5
ECF
  8
0
 10
207.35822889419569
 20
161.57019148641211
 30
0.0
 11
207.35822889419569
 21
160.597055401331
 31
0.0
  0
LINE
  5
ED0
  8
0
 10
72.388154247937024
 20
148.16114130127761
 30
0.0
 11
68.713622726708849
 21
148.16114130127761
 31
0.0
  0
POLYLINE
  5
ED1
  8
0
 10
72.388154247937024
 20
148.16114130127764
 30
0.0
 66
     1
 70
     8
  0
VERTEX
  8
0
  5
122E
 10
72.3882
 20
148.161
 30
0.000000
  70
    32
  0
VERTEX
  8
0
  5
122F
 10
72.4608
 20
148.172
 30
0.000000
  70
    32
  0
VERTEX
  8
0
  5
1230
 10
72.5331
 20
148.183
 30
0.000000
  70
    32
  0
VERTEX
  8
0
  5
1231
 10
72.6049
 20
148.195
 30
0.000000
  70
    32
  0
VERTEX
  8
0
  5
1232
 10
72.6763
 20
148.207
 30
0.000000
  70
    32
  0
VERTEX
  8
0
  5
1233
 10
72.7472
 20
148.219
 30
0.000000
  70
    32
  0
VERTEX
  8
0
  5
1234
 10
72.8177
 20
148.232
 30
0.000000
  70
    32
  0
VERTEX
  8
0
  5
1235
 10
72.8877
 20
148.245
 30
0.000000
  70
    32
  0
VERTEX
  8
0
  5
1236
 10
72.9573
 20
148.259
 30
0.000000
  70
    32
  0
VERTEX
  8
0
  5
1237
 10
73.0263
 20
148.273
 30
0.000000
  70
    32
  0
VERTEX
  8
0
  5
1238
 10
73.0948
 20
148.288
 30
0.000000
  70
    32
  0
VERTEX
  8
0
  5
1239
 10
73.1627
 20
148.302
 30
0.000000
  70
    32
  0
VERTEX
  8
0
  5
123A
 10
73.2302
 20
148.318
 30
0.000000
  70
    32
  0
VERTEX
  8
0
  5
123B
 10
73.2970
 20
148.333
 30
0.000000
  70
    32
  0
VERTEX
  8
0
  5
123C
 10
73.3633
 20
148.349
 30
0.000000
  70
    32
  0
VERTEX
  8
0
  5
123D
 10
73.4289
 20
148.366
 30
0.000000
  70
    32
  0
VERTEX
  8
0
  5
123E
 10
73.4940
 20
148.382
 30
0.000000
  70
    32
  0
VERTEX
  8
0
  5
123F
 10
73.5585
 20
148.399
 30
0.000000
  70
    32
  0
VERTEX
  8
0
  5
1240
 10
73.6223
 20
148.417
 30
0.000000
  70
    32
  0
VERTEX
  8
0
  5
1241
 10
73.6855
 20
148.435
 30
0.000000
  70
    32
  0
VERTEX
  8
0
  5
1242
 10
73.7480
 20
148.453
 30
0.000000
  70
    32
  0
VERTEX
  8
0
  5
1243
 10
73.8098
 20
148.472
 30
0.000000
  70
    32
  0
VERTEX
  8
0
  5
1244
 10
73.8710
 20
148.491
 30
0.000000
  70
    32
  0
VERTEX
  8
0
  5
1245
 10
73.9314
 20
148.510
 30
0.000000
  70
    32
  0
VERTEX
  8
0
  5
1246
 10
73.9912
 20
148.530
 30
0.000000
  70
    32
  0
VERTEX
  8
0
  5
1247
 10
74.0502
 20
148.550
 30
0.000000
  70
    32
  0
VERTEX
  8
0
  5
1248
 10
74.1085
 20
148.570
 30
0.000000
  70
    32
  0
VERTEX
  8
0
  5
1249
 10
74.1660
 20
148.591
 30
0.000000
  70
    32
  0
VERTEX
  8
0
  5
124A
 10
74.2228
 20
148.612
 30
0.000000
  70
    32
  0
VERTEX
  8
0
  5
124B
 10
74.2788
 20
148.633
 30
0.000000
  70
    32
  0
VERTEX
  8
0
  5
124C
 10
74.3340
 20
148.654
 30
0.000000
  70
    32
  0
VERTEX
  8
0
  5
124D
 10
74.3884
 20
148.676
 30
0.000000
  70
    32
  0
VERTEX
  8
0
  5
124E
 10
74.4421
 20
148.699
 30
0.000000
  70
    32
  0
VERTEX
  8
0
  5
124F
 10
74.4949
 20
148.721
 30
0.000000
  70
    32
  0
VERTEX
  8
0
  5
1250
 10
74.5468
 20
148.744
 30
0.000000
  70
    32
  0
VERTEX
  8
0
  5
1251
 10
74.5979
 20
148.767
 30
0.000000
  70
    32
  0
VERTEX
  8
0
  5
1252
 10
74.6482
 20
148.791
 30
0.000000
  70
    32
  0
VERTEX
  8
0
  5
1253
 10
74.6976
 20
148.814
 30
0.000000
  70
    32
  0
VERTEX
  8
0
  5
1254
 10
74.7462
 20
148.838
 30
0.000000
  70
    32
  0
VERTEX
  8
0
  5
1255
 10
74.7938
 20
148.863
 30
0.000000
  70
    32
  0
VERTEX
  8
0
  5
1256
 10
74.8406
 20
148.887
 30
0.000000
  70
    32
  0
VERTEX
  8
0
  5
1257
 10
74.8865
 20
148.912
 30
0.000000
  70
    32
  0
VERTEX
  8
0
  5
1258
 10
74.9314
 20
148.937
 30
0.000000
  70
    32
  0
VERTEX
  8
0
  5
1259
 10
74.9754
 20
148.963
 30
0.000000
  70
    32
  0
VERTEX
  8
0
  5
125A
 10
75.0185
 20
148.988
 30
0.000000
  70
    32
  0
VERTEX
  8
0
  5
125B
 10
75.0607
 20
149.014
 30
0.000000
  70
    32
  0
VERTEX
  8
0
  5
125C
 10
75.1019
 20
149.040
 30
0.000000
  70
    32
  0
VERTEX
  8
0
  5
125D
 10
75.1422
 20
149.066
 30
0.000000
  70
    32
  0
VERTEX
  8
0
  5
125E
 10
75.1814
 20
149.093
 30
0.000000
  70
    32
  0
VERTEX
  8
0
  5
125F
 10
75.2198
 20
149.120
 30
0.000000
  70
    32
  0
VERTEX
  8
0
  5
1260
 10
75.2571
 20
149.147
 30
0.000000
  70
    32
  0
VERTEX
  8
0
  5
1261
 10
75.2934
 20
149.174
 30
0.000000
  70
    32
  0
VERTEX
  8
0
  5
1262
 10
75.3288
 20
149.201
 30
0.000000
  70
    32
  0
VERTEX
  8
0
  5
1263
 10
75.3631
 20
149.229
 30
0.000000
  70
    32
  0
VERTEX
  8
0
  5
1264
 10
75.3964
 20
149.257
 30
0.000000
  70
    32
  0
VERTEX
  8
0
  5
1265
 10
75.4287
 20
149.285
 30
0.000000
  70
    32
  0
VERTEX
  8
0
  5
1266
 10
75.4600
 20
149.313
 30
0.000000
  70
    32
  0
VERTEX
  8
0
  5
1267
 10
75.4902
 20
149.341
 30
0.000000
  70
    32
  0
VERTEX
  8
0
  5
1268
 10
75.5194
 20
149.370
 30
0.000000
  70
    32
  0
VERTEX
  8
0
  5
1269
 10
75.5476
 20
149.399
 30
0.000000
  70
    32
  0
VERTEX
  8
0
  5
126A
 10
75.5747
 20
149.427
 30
0.000000
  70
    32
  0
VERTEX
  8
0
  5
126B
 10
75.6008
 20
149.456
 30
0.000000
  70
    32
  0
VERTEX
  8
0
  5
126C
 10
75.6257
 20
149.486
 30
0.000000
  70
    32
  0
VERTEX
  8
0
  5
126D
 10
75.6497
 20
149.515
 30
0.000000
  70
    32
  0
VERTEX
  8
0
  5
126E
 10
75.6725
 20
149.544
 30
0.000000
  70
    32
  0
VERTEX
  8
0
  5
126F
 10
75.6943
 20
149.574
 30
0.000000
  70
    32
  0
VERTEX
  8
0
  5
1270
 10
75.7150
 20
149.604
 30
0.000000
  70
    32
  0
VERTEX
  8
0
  5
1271
 10
75.7346
 20
149.633
 30
0.000000
  70
    32
  0
VERTEX
  8
0
  5
1272
 10
75.7531
 20
149.663
 30
0.000000
  70
    32
  0
VERTEX
  8
0
  5
1273
 10
75.7705
 20
149.693
 30
0.000000
  70
    32
  0
VERTEX
  8
0
  5
1274
 10
75.7868
 20
149.723
 30
0.000000
  70
    32
  0
VERTEX
  8
0
  5
1275
 10
75.8020
 20
149.754
 30
0.000000
  70
    32
  0
VERTEX
  8
0
  5
1276
 10
75.8161
 20
149.784
 30
0.000000
  70
    32
  0
VERTEX
  8
0
  5
1277
 10
75.8291
 20
149.814
 30
0.000000
  70
    32
  0
VERTEX
  8
0
  5
1278
 10
75.8410
 20
149.845
 30
0.000000
  70
    32
  0
VERTEX
  8
0
  5
1279
 10
75.8518
 20
149.875
 30
0.000000
  70
    32
  0
VERTEX
  8
0
  5
127A
 10
75.8615
 20
149.906
 30
0.000000
  70
    32
  0
VERTEX
  8
0
  5
127B
 10
75.8700
 20
149.936
 30
0.000000
  70
    32
  0
VERTEX
  8
0
  5
127C
 10
75.8775
 20
149.967
 30
0.000000
  70
    32
  0
VERTEX
  8
0
  5
127D
 10
75.8838
 20
149.998
 30
0.000000
  70
    32
  0
VERTEX
  8
0
  5
127E
 10
75.8889
 20
150.028
 30
0.000000
  70
    32
  0
VERTEX
  8
0
  5
127F
 10
75.8930
 20
150.059
 30
0.000000
  70
    32
  0
VERTEX
  8
0
  5
1280
 10
75.8959
 20
150.090
 30
0.000000
  70
    32
  0
VERTEX
  8
0
  5
1281
 10
75.8978
 20
150.121
 30
0.000000
  70
    32
  0
VERTEX
  8
0
  5
1282
 10
75.8984
 20
150.151
 30
0.000000
  70
    32
  0
VERTEX
  8
0
  5
1283
 10
75.8980
 20
150.182
 30
0.000000
  70
    32
  0
VERTEX
  8
0
  5
1284
 10
75.8964
 20
150.213
 30
0.000000
  70
    32
  0
VERTEX
  8
0
  5
1285
 10
75.8938
 20
150.244
 30
0.000000
  70
    32
  0
VERTEX
  8
0
  5
1286
 10
75.8899
 20
150.275
 30
0.000000
  70
    32
  0
VERTEX
  8
0
  5
1287
 10
75.8850
 20
150.305
 30
0.000000
  70
    32
  0
VERTEX
  8
0
  5
1288
 10
75.8790
 20
150.336
 30
0.000000
  70
    32
  0
VERTEX
  8
0
  5
1289
 10
75.8718
 20
150.367
 30
0.000000
  70
    32
  0
VERTEX
  8
0
  5
128A
 10
75.8635
 20
150.397
 30
0.000000
  70
    32
  0
VERTEX
  8
0
  5
128B
 10
75.8541
 20
150.428
 30
0.000000
  70
    32
  0
VERTEX
  8
0
  5
128C
 10
75.8435
 20
150.458
 30
0.000000
  70
    32
  0
VERTEX
  8
0
  5
128D
 10
75.8319
 20
150.489
 30
0.000000
  70
    32
  0
VERTEX
  8
0
  5
128E
 10
75.8191
 20
150.519
 30
0.000000
  70
    32
  0
VERTEX
  8
0
  5
128F
 10
75.8053
 20
150.549
 30
0.000000
  70
    32
  0
VERTEX
  8
0
  5
1290
 10
75.7903
 20
150.580
 30
0.000000
  70
    32
  0
VERTEX
  8
0
  5
1291
 10
75.7742
 20
150.610
 30
0.000000
  70
    32
  0
VERTEX
  8
0
  5
1292
 10
75.7571
 20
150.640
 30
0.000000
  70
    32
  0
VERTEX
  8
0
  5
1293
 10
75.7388
 20
150.670
 30
0.000000
  70
    32
  0
VERTEX
  8
0
  5
1294
 10
75.7194
 20
150.700
 30
0.000000
  70
    32
  0
VERTEX
  8
0
  5
1295
 10
75.6990
 20
150.729
 30
0.000000
  70
    32
  0
VERTEX
  8
0
  5
1296
 10
75.6775
 20
150.759
 30
0.000000
  70
    32
  0
VERTEX
  8
0
  5
1297
 10
75.6548
 20
150.788
 30
0.000000
  70
    32
  0
VERTEX
  8
0
  5
1298
 10
75.6312
 20
150.818
 30
0.000000
  70
    32
  0
VERTEX
  8
0
  5
1299
 10
75.6064
 20
150.847
 30
0.000000
  70
    32
  0
VERTEX
  8
0
  5
129A
 10
75.5806
 20
150.876
 30
0.000000
  70
    32
  0
VERTEX
  8
0
  5
129B
 10
75.5537
 20
150.905
 30
0.000000
  70
    32
  0
VERTEX
  8
0
  5
129C
 10
75.5258
 20
150.934
 30
0.000000
  70
    32
  0
VERTEX
  8
0
  5
129D
 10
75.4968
 20
150.962
 30
0.000000
  70
    32
  0
VERTEX
  8
0
  5
129E
 10
75.4668
 20
150.990
 30
0.000000
  70
    32
  0
VERTEX
  8
0
  5
129F
 10
75.4358
 20
151.019
 30
0.000000
  70
    32
  0
VERTEX
  8
0
  5
12A0
 10
75.4037
 20
151.047
 30
0.000000
  70
    32
  0
VERTEX
  8
0
  5
12A1
 10
75.3706
 20
151.075
 30
0.000000
  70
    32
  0
VERTEX
  8
0
  5
12A2
 10
75.3365
 20
151.102
 30
0.000000
  70
    32
  0
VERTEX
  8
0
  5
12A3
 10
75.3014
 20
151.130
 30
0.000000
  70
    32
  0
VERTEX
  8
0
  5
12A4
 10
75.2653
 20
151.157
 30
0.000000
  70
    32
  0
VERTEX
  8
0
  5
12A5
 10
75.2281
 20
151.184
 30
0.000000
  70
    32
  0
VERTEX
  8
0
  5
12A6
 10
75.1901
 20
151.211
 30
0.000000
  70
    32
  0
VERTEX
  8
0
  5
12A7
 10
75.1510
 20
151.237
 30
0.000000
  70
    32
  0
VERTEX
  8
0
  5
12A8
 10
75.1109
 20
151.264
 30
0.000000
  70
    32
  0
VERTEX
  8
0
  5
12A9
 10
75.0700
 20
151.290
 30
0.000000
  70
    32
  0
VERTEX
  8
0
  5
12AA
 10
75.0280
 20
151.316
 30
0.000000
  70
    32
  0
VERTEX
  8
0
  5
12AB
 10
74.9851
 20
151.341
 30
0.000000
  70
    32
  0
VERTEX
  8
0
  5
12AC
 10
74.9413
 20
151.367
 30
0.000000
  70
    32
  0
VERTEX
  8
0
  5
12AD
 10
74.8965
 20
151.392
 30
0.000000
  70
    32
  0
VERTEX
  8
0
  5
12AE
 10
74.8509
 20
151.417
 30
0.000000
  70
    32
  0
SEQEND
  8
0
  5
12AF
  0
POLYLINE
  5
ED2
  8
0
 10
76.754327030527108
 20
147.01336026625572
 30
0.0
 66
     1
 70
     8
  0
VERTEX
  8
0
  5
12B0
 10
76.7543
 20
147.013
 30
0.000000
  70
    32
  0
VERTEX
  8
0
  5
12B1
 10
76.8637
 20
147.051
 30
0.000000
  70
    32
  0
VERTEX
  8
0
  5
12B2
 10
76.9716
 20
147.090
 30
0.000000
  70
    32
  0
VERTEX
  8
0
  5
12B3
 10
77.0780
 20
147.129
 30
0.000000
  70
    32
  0
VERTEX
  8
0
  5
12B4
 10
77.1829
 20
147.168
 30
0.000000
  70
    32
  0
VERTEX
  8
0
  5
12B5
 10
77.2862
 20
147.209
 30
0.000000
  70
    32
  0
VERTEX
  8
0
  5
12B6
 10
77.3880
 20
147.249
 30
0.000000
  70
    32
  0
VERTEX
  8
0
  5
12B7
 10
77.4881
 20
147.291
 30
0.000000
  70
    32
  0
VERTEX
  8
0
  5
12B8
 10
77.5866
 20
147.333
 30
0.000000
  70
    32
  0
VERTEX
  8
0
  5
12B9
 10
77.6835
 20
147.376
 30
0.000000
  70
    32
  0
VERTEX
  8
0
  5
12BA
 10
77.7787
 20
147.419
 30
0.000000
  70
    32
  0
VERTEX
  8
0
  5
12BB
 10
77.8722
 20
147.463
 30
0.000000
  70
    32
  0
VERTEX
  8
0
  5
12BC
 10
77.9640
 20
147.507
 30
0.000000
  70
    32
  0
VERTEX
  8
0
  5
12BD
 10
78.0540
 20
147.552
 30
0.000000
  70
    32
  0
VERTEX
  8
0
  5
12BE
 10
78.1423
 20
147.598
 30
0.000000
  70
    32
  0
VERTEX
  8
0
  5
12BF
 10
78.2288
 20
147.644
 30
0.000000
  70
    32
  0
VERTEX
  8
0
  5
12C0
 10
78.3135
 20
147.691
 30
0.000000
  70
    32
  0
VERTEX
  8
0
  5
12C1
 10
78.3964
 20
147.738
 30
0.000000
  70
    32
  0
VERTEX
  8
0
  5
12C2
 10
78.4774
 20
147.785
 30
0.000000
  70
    32
  0
VERTEX
  8
0
  5
12C3
 10
78.5566
 20
147.833
 30
0.000000
  70
    32
  0
VERTEX
  8
0
  5
12C4
 10
78.6339
 20
147.882
 30
0.000000
  70
    32
  0
VERTEX
  8
0
  5
12C5
 10
78.7093
 20
147.931
 30
0.000000
  70
    32
  0
VERTEX
  8
0
  5
12C6
 10
78.7828
 20
147.980
 30
0.000000
  70
    32
  0
VERTEX
  8
0
  5
12C7
 10
78.8544
 20
148.030
 30
0.000000
  70
    32
  0
VERTEX
  8
0
  5
12C8
 10
78.9240
 20
148.080
 30
0.000000
  70
    32
  0
VERTEX
  8
0
  5
12C9
 10
78.9916
 20
148.131
 30
0.000000
  70
    32
  0
VERTEX
  8
0
  5
12CA
 10
79.0573
 20
148.182
 30
0.000000
  70
    32
  0
VERTEX
  8
0
  5
12CB
 10
79.1210
 20
148.234
 30
0.000000
  70
    32
  0
VERTEX
  8
0
  5
12CC
 10
79.1827
 20
148.286
 30
0.000000
  70
    32
  0
VERTEX
  8
0
  5
12CD
 10
79.2423
 20
148.338
 30
0.000000
  70
    32
  0
VERTEX
  8
0
  5
12CE
 10
79.3000
 20
148.390
 30
0.000000
  70
    32
  0
VERTEX
  8
0
  5
12CF
 10
79.3555
 20
148.443
 30
0.000000
  70
    32
  0
VERTEX
  8
0
  5
12D0
 10
79.4090
 20
148.497
 30
0.000000
  70
    32
  0
VERTEX
  8
0
  5
12D1
 10
79.4604
 20
148.550
 30
0.000000
  70
    32
  0
VERTEX
  8
0
  5
12D2
 10
79.5098
 20
148.604
 30
0.000000
  70
    32
  0
VERTEX
  8
0
  5
12D3
 10
79.5570
 20
148.658
 30
0.000000
  70
    32
  0
VERTEX
  8
0
  5
12D4
 10
79.6021
 20
148.713
 30
0.000000
  70
    32
  0
VERTEX
  8
0
  5
12D5
 10
79.6451
 20
148.767
 30
0.000000
  70
    32
  0
VERTEX
  8
0
  5
12D6
 10
79.6860
 20
148.822
 30
0.000000
  70
    32
  0
VERTEX
  8
0
  5
12D7
 10
79.7247
 20
148.878
 30
0.000000
  70
    32
  0
VERTEX
  8
0
  5
12D8
 10
79.7613
 20
148.933
 30
0.000000
  70
    32
  0
VERTEX
  8
0
  5
12D9
 10
79.7957
 20
148.989
 30
0.000000
  70
    32
  0
VERTEX
  8
0
  5
12DA
 10
79.8279
 20
149.045
 30
0.000000
  70
    32
  0
VERTEX
  8
0
  5
12DB
 10
79.8580
 20
149.101
 30
0.000000
  70
    32
  0
VERTEX
  8
0
  5
12DC
 10
79.8859
 20
149.157
 30
0.000000
  70
    32
  0
VERTEX
  8
0
  5
12DD
 10
79.9116
 20
149.213
 30
0.000000
  70
    32
  0
VERTEX
  8
0
  5
12DE
 10
79.9351
 20
149.270
 30
0.000000
  70
    32
  0
VERTEX
  8
0
  5
12DF
 10
79.9564
 20
149.326
 30
0.000000
  70
    32
  0
VERTEX
  8
0
  5
12E0
 10
79.9755
 20
149.383
 30
0.000000
  70
    32
  0
VERTEX
  8
0
  5
12E1
 10
79.9924
 20
149.440
 30
0.000000
  70
    32
  0
VERTEX
  8
0
  5
12E2
 10
80.0071
 20
149.497
 30
0.000000
  70
    32
  0
VERTEX
  8
0
  5
12E3
 10
80.0195
 20
149.554
 30
0.000000
  70
    32
  0
VERTEX
  8
0
  5
12E4
 10
80.0297
 20
149.611
 30
0.000000
  70
    32
  0
VERTEX
  8
0
  5
12E5
 10
80.0378
 20
149.668
 30
0.000000
  70
    32
  0
VERTEX
  8
0
  5
12E6
 10
80.0436
 20
149.726
 30
0.000000
  70
    32
  0
VERTEX
  8
0
  5
12E7
 10
80.0471
 20
149.783
 30
0.000000
  70
    32
  0
VERTEX
  8
0
  5
12E8
 10
80.0485
 20
149.840
 30
0.000000
  70
    32
  0
VERTEX
  8
0
  5
12E9
 10
80.0476
 20
149.897
 30
0.000000
  70
    32
  0
VERTEX
  8
0
  5
12EA
 10
80.0445
 20
149.955
 30
0.000000
  70
    32
  0
VERTEX
  8
0
  5
12EB
 10
80.0391
 20
150.012
 30
0.000000
  70
    32
  0
VERTEX
  8
0
  5
12EC
 10
80.0315
 20
150.069
 30
0.000000
  70
    32
  0
VERTEX
  8
0
  5
12ED
 10
80.0218
 20
150.126
 30
0.000000
  70
    32
  0
VERTEX
  8
0
  5
12EE
 10
80.0097
 20
150.183
 30
0.000000
  70
    32
  0
VERTEX
  8
0
  5
12EF
 10
79.9955
 20
150.240
 30
0.000000
  70
    32
  0
VERTEX
  8
0
  5
12F0
 10
79.9791
 20
150.297
 30
0.000000
  70
    32
  0
VERTEX
  8
0
  5
12F1
 10
79.9604
 20
150.354
 30
0.000000
  70
    32
  0
VERTEX
  8
0
  5
12F2
 10
79.9396
 20
150.411
 30
0.000000
  70
    32
  0
VERTEX
  8
0
  5
12F3
 10
79.9165
 20
150.467
 30
0.000000
  70
    32
  0
VERTEX
  8
0
  5
12F4
 10
79.8913
 20
150.524
 30
0.000000
  70
    32
  0
VERTEX
  8
0
  5
12F5
 10
79.8638
 20
150.580
 30
0.000000
  70
    32
  0
VERTEX
  8
0
  5
12F6
 10
79.8342
 20
150.636
 30
0.000000
  70
    32
  0
VERTEX
  8
0
  5
12F7
 10
79.8024
 20
150.692
 30
0.000000
  70
    32
  0
VERTEX
  8
0
  5
12F8
 10
79.7684
 20
150.748
 30
0.000000
  70
    32
  0
VERTEX
  8
0
  5
12F9
 10
79.7323
 20
150.803
 30
0.000000
  70
    32
  0
VERTEX
  8
0
  5
12FA
 10
79.6940
 20
150.859
 30
0.000000
  70
    32
  0
VERTEX
  8
0
  5
12FB
 10
79.6535
 20
150.914
 30
0.000000
  70
    32
  0
VERTEX
  8
0
  5
12FC
 10
79.6110
 20
150.968
 30
0.000000
  70
    32
  0
VERTEX
  8
0
  5
12FD
 10
79.5663
 20
151.023
 30
0.000000
  70
    32
  0
VERTEX
  8
0
  5
12FE
 10
79.5195
 20
151.077
 30
0.000000
  70
    32
  0
VERTEX
  8
0
  5
12FF
 10
79.4706
 20
151.131
 30
0.000000
  70
    32
  0
VERTEX
  8
0
  5
1300
 10
79.4196
 20
151.185
 30
0.000000
  70
    32
  0
VERTEX
  8
0
  5
1301
 10
79.3665
 20
151.238
 30
0.000000
  70
    32
  0
VERTEX
  8
0
  5
1302
 10
79.3113
 20
151.291
 30
0.000000
  70
    32
  0
VERTEX
  8
0
  5
1303
 10
79.2541
 20
151.344
 30
0.000000
  70
    32
  0
VERTEX
  8
0
  5
1304
 10
79.1949
 20
151.396
 30
0.000000
  70
    32
  0
VERTEX
  8
0
  5
1305
 10
79.1336
 20
151.448
 30
0.000000
  70
    32
  0
VERTEX
  8
0
  5
1306
 10
79.0704
 20
151.499
 30
0.000000
  70
    32
  0
VERTEX
  8
0
  5
1307
 10
79.0051
 20
151.551
 30
0.000000
  70
    32
  0
VERTEX
  8
0
  5
1308
 10
78.9378
 20
151.601
 30
0.000000
  70
    32
  0
VERTEX
  8
0
  5
1309
 10
78.8686
 20
151.652
 30
0.000000
  70
    32
  0
VERTEX
  8
0
  5
130A
 10
78.7974
 20
151.702
 30
0.000000
  70
    32
  0
VERTEX
  8
0
  5
130B
 10
78.7243
 20
151.751
 30
0.000000
  70
    32
  0
VERTEX
  8
0
  5
130C
 10
78.6493
 20
151.800
 30
0.000000
  70
    32
  0
VERTEX
  8
0
  5
130D
 10
78.5724
 20
151.849
 30
0.000000
  70
    32
  0
VERTEX
  8
0
  5
130E
 10
78.4936
 20
151.897
 30
0.000000
  70
    32
  0
VERTEX
  8
0
  5
130F
 10
78.4129
 20
151.945
 30
0.000000
  70
    32
  0
VERTEX
  8
0
  5
1310
 10
78.3304
 20
151.992
 30
0.000000
  70
    32
  0
VERTEX
  8
0
  5
1311
 10
78.2460
 20
152.039
 30
0.000000
  70
    32
  0
VERTEX
  8
0
  5
1312
 10
78.1599
 20
152.085
 30
0.000000
  70
    32
  0
VERTEX
  8
0
  5
1313
 10
78.0720
 20
152.130
 30
0.000000
  70
    32
  0
VERTEX
  8
0
  5
1314
 10
77.9823
 20
152.175
 30
0.000000
  70
    32
  0
VERTEX
  8
0
  5
1315
 10
77.8909
 20
152.220
 30
0.000000
  70
    32
  0
VERTEX
  8
0
  5
1316
 10
77.7977
 20
152.264
 30
0.000000
  70
    32
  0
VERTEX
  8
0
  5
1317
 10
77.7029
 20
152.307
 30
0.000000
  70
    32
  0
VERTEX
  8
0
  5
1318
 10
77.6063
 20
152.350
 30
0.000000
  70
    32
  0
VERTEX
  8
0
  5
1319
 10
77.5081
 20
152.393
 30
0.000000
  70
    32
  0
VERTEX
  8
0
  5
131A
 10
77.4083
 20
152.434
 30
0.000000
  70
    32
  0
VERTEX
  8
0
  5
131B
 10
77.3069
 20
152.475
 30
0.000000
  70
    32
  0
VERTEX
  8
0
  5
131C
 10
77.2039
 20
152.516
 30
0.000000
  70
    32
  0
VERTEX
  8
0
  5
131D
 10
77.0993
 20
152.555
 30
0.000000
  70
    32
  0
VERTEX
  8
0
  5
131E
 10
76.9932
 20
152.595
 30
0.000000
  70
    32
  0
VERTEX
  8
0
  5
131F
 10
76.8856
 20
152.633
 30
0.000000
  70
    32
  0
VERTEX
  8
0
  5
1320
 10
76.7765
 20
152.671
 30
0.000000
  70
    32
  0
VERTEX
  8
0
  5
1321
 10
76.6660
 20
152.708
 30
0.000000
  70
    32
  0
VERTEX
  8
0
  5
1322
 10
76.5540
 20
152.745
 30
0.000000
  70
    32
  0
VERTEX
  8
0
  5
1323
 10
76.4406
 20
152.781
 30
0.000000
  70
    32
  0
VERTEX
  8
0
  5
1324
 10
76.3258
 20
152.816
 30
0.000000
  70
    32
  0
VERTEX
  8
0
  5
1325
 10
76.2097
 20
152.850
 30
0.000000
  70
    32
  0
VERTEX
  8
0
  5
1326
 10
76.0922
 20
152.884
 30
0.000000
  70
    32
  0
VERTEX
  8
0
  5
1327
 10
75.9735
 20
152.917
 30
0.000000
  70
    32
  0
VERTEX
  8
0
  5
1328
 10
75.8535
 20
152.950
 30
0.000000
  70
    32
  0
VERTEX
  8
0
  5
1329
 10
75.7322
 20
152.981
 30
0.000000
  70
    32
  0
VERTEX
  8
0
  5
132A
 10
75.6097
 20
153.012
 30
0.000000
  70
    32
  0
VERTEX
  8
0
  5
132B
 10
75.4860
 20
153.042
 30
0.000000
  70
    32
  0
VERTEX
  8
0
  5
132C
 10
75.3612
 20
153.072
 30
0.000000
  70
    32
  0
VERTEX
  8
0
  5
132D
 10
75.2352
 20
153.100
 30
0.000000
  70
    32
  0
VERTEX
  8
0
  5
132E
 10
75.1082
 20
153.128
 30
0.000000
  70
    32
  0
VERTEX
  8
0
  5
132F
 10
74.9801
 20
153.155
 30
0.000000
  70
    32
  0
VERTEX
  8
0
  5
1330
 10
74.8509
 20
153.181
 30
0.000000
  70
    32
  0
SEQEND
  8
0
  5
1331
  0
POLYLINE
  5
ED3
  8
0
 10
76.110487625273137
 20
158.86815995994957
 30
0.0
 66
     1
 70
     8
  0
VERTEX
  8
0
  5
1332
 10
76.1105
 20
158.868
 30
0.000000
  70
    32
  0
VERTEX
  8
0
  5
1333
 10
76.0871
 20
158.846
 30
0.000000
  70
    32
  0
VERTEX
  8
0
  5
1334
 10
76.0639
 20
158.824
 30
0.000000
  70
    32
  0
VERTEX
  8
0
  5
1335
 10
76.0409
 20
158.801
 30
0.000000
  70
    32
  0
VERTEX
  8
0
  5
1336
 10
76.0182
 20
158.778
 30
0.000000
  70
    32
  0
VERTEX
  8
0
  5
1337
 10
75.9957
 20
158.754
 30
0.000000
  70
    32
  0
VERTEX
  8
0
  5
1338
 10
75.9734
 20
158.730
 30
0.000000
  70
    32
  0
VERTEX
  8
0
  5
1339
 10
75.9513
 20
158.706
 30
0.000000
  70
    32
  0
VERTEX
  8
0
  5
133A
 10
75.9295
 20
158.681
 30
0.000000
  70
    32
  0
VERTEX
  8
0
  5
133B
 10
75.9079
 20
158.656
 30
0.000000
  70
    32
  0
VERTEX
  8
0
  5
133C
 10
75.8866
 20
158.631
 30
0.000000
  70
    32
  0
VERTEX
  8
0
  5
133D
 10
75.8655
 20
158.606
 30
0.000000
  70
    32
  0
VERTEX
  8
0
  5
133E
 10
75.8447
 20
158.580
 30
0.000000
  70
    32
  0
VERTEX
  8
0
  5
133F
 10
75.8241
 20
158.553
 30
0.000000
  70
    32
  0
VERTEX
  8
0
  5
1340
 10
75.8038
 20
158.527
 30
0.000000
  70
    32
  0
VERTEX
  8
0
  5
1341
 10
75.7837
 20
158.500
 30
0.000000
  70
    32
  0
VERTEX
  8
0
  5
1342
 10
75.7639
 20
158.473
 30
0.000000
  70
    32
  0
VERTEX
  8
0
  5
1343
 10
75.7443
 20
158.445
 30
0.000000
  70
    32
  0
VERTEX
  8
0
  5
1344
 10
75.7250
 20
158.417
 30
0.000000
  70
    32
  0
VERTEX
  8
0
  5
1345
 10
75.7060
 20
158.389
 30
0.000000
  70
    32
  0
VERTEX
  8
0
  5
1346
 10
75.6873
 20
158.360
 30
0.000000
  70
    32
  0
VERTEX
  8
0
  5
1347
 10
75.6688
 20
158.332
 30
0.000000
  70
    32
  0
VERTEX
  8
0
  5
1348
 10
75.6507
 20
158.303
 30
0.000000
  70
    32
  0
VERTEX
  8
0
  5
1349
 10
75.6328
 20
158.273
 30
0.000000
  70
    32
  0
VERTEX
  8
0
  5
134A
 10
75.6152
 20
158.244
 30
0.000000
  70
    32
  0
VERTEX
  8
0
  5
134B
 10
75.5978
 20
158.214
 30
0.000000
  70
    32
  0
VERTEX
  8
0
  5
134C
 10
75.5808
 20
158.184
 30
0.000000
  70
    32
  0
VERTEX
  8
0
  5
134D
 10
75.5641
 20
158.153
 30
0.000000
  70
    32
  0
VERTEX
  8
0
  5
134E
 10
75.5476
 20
158.122
 30
0.000000
  70
    32
  0
VERTEX
  8
0
  5
134F
 10
75.5315
 20
158.091
 30
0.000000
  70
    32
  0
VERTEX
  8
0
  5
1350
 10
75.5156
 20
158.060
 30
0.000000
  70
    32
  0
VERTEX
  8
0
  5
1351
 10
75.5001
 20
158.029
 30
0.000000
  70
    32
  0
VERTEX
  8
0
  5
1352
 10
75.4849
 20
157.997
 30
0.000000
  70
    32
  0
VERTEX
  8
0
  5
1353
 10
75.4699
 20
157.965
 30
0.000000
  70
    32
  0
VERTEX
  8
0
  5
1354
 10
75.4553
 20
157.933
 30
0.000000
  70
    32
  0
VERTEX
  8
0
  5
1355
 10
75.4410
 20
157.900
 30
0.000000
  70
    32
  0
VERTEX
  8
0
  5
1356
 10
75.4270
 20
157.868
 30
0.000000
  70
    32
  0
VERTEX
  8
0
  5
1357
 10
75.4134
 20
157.835
 30
0.000000
  70
    32
  0
VERTEX
  8
0
  5
1358
 10
75.4000
 20
157.802
 30
0.000000
  70
    32
  0
VERTEX
  8
0
  5
1359
 10
75.3870
 20
157.768
 30
0.000000
  70
    32
  0
VERTEX
  8
0
  5
135A
 10
75.3743
 20
157.735
 30
0.000000
  70
    32
  0
VERTEX
  8
0
  5
135B
 10
75.3619
 20
157.701
 30
0.000000
  70
    32
  0
VERTEX
  8
0
  5
135C
 10
75.3498
 20
157.667
 30
0.000000
  70
    32
  0
VERTEX
  8
0
  5
135D
 10
75.3381
 20
157.633
 30
0.000000
  70
    32
  0
VERTEX
  8
0
  5
135E
 10
75.3267
 20
157.599
 30
0.000000
  70
    32
  0
VERTEX
  8
0
  5
135F
 10
75.3156
 20
157.564
 30
0.000000
  70
    32
  0
VERTEX
  8
0
  5
1360
 10
75.3049
 20
157.530
 30
0.000000
  70
    32
  0
VERTEX
  8
0
  5
1361
 10
75.2945
 20
157.495
 30
0.000000
  70
    32
  0
VERTEX
  8
0
  5
1362
 10
75.2844
 20
157.460
 30
0.000000
  70
    32
  0
VERTEX
  8
0
  5
1363
 10
75.2747
 20
157.425
 30
0.000000
  70
    32
  0
VERTEX
  8
0
  5
1364
 10
75.2653
 20
157.389
 30
0.000000
  70
    32
  0
VERTEX
  8
0
  5
1365
 10
75.2563
 20
157.354
 30
0.000000
  70
    32
  0
VERTEX
  8
0
  5
1366
 10
75.2476
 20
157.318
 30
0.000000
  70
    32
  0
VERTEX
  8
0
  5
1367
 10
75.2393
 20
157.283
 30
0.000000
  70
    32
  0
VERTEX
  8
0
  5
1368
 10
75.2312
 20
157.247
 30
0.000000
  70
    32
  0
VERTEX
  8
0
  5
1369
 10
75.2236
 20
157.211
 30
0.000000
  70
    32
  0
VERTEX
  8
0
  5
136A
 10
75.2163
 20
157.175
 30
0.000000
  70
    32
  0
VERTEX
  8
0
  5
136B
 10
75.2093
 20
157.139
 30
0.000000
  70
    32
  0
VERTEX
  8
0
  5
136C
 10
75.2027
 20
157.102
 30
0.000000
  70
    32
  0
VERTEX
  8
0
  5
136D
 10
75.1965
 20
157.066
 30
0.000000
  70
    32
  0
VERTEX
  8
0
  5
136E
 10
75.1906
 20
157.029
 30
0.000000
  70
    32
  0
VERTEX
  8
0
  5
136F
 10
75.1850
 20
156.993
 30
0.000000
  70
    32
  0
VERTEX
  8
0
  5
1370
 10
75.1798
 20
156.956
 30
0.000000
  70
    32
  0
VERTEX
  8
0
  5
1371
 10
75.1750
 20
156.919
 30
0.000000
  70
    32
  0
VERTEX
  8
0
  5
1372
 10
75.1705
 20
156.883
 30
0.000000
  70
    32
  0
VERTEX
  8
0
  5
1373
 10
75.1663
 20
156.846
 30
0.000000
  70
    32
  0
VERTEX
  8
0
  5
1374
 10
75.1626
 20
156.809
 30
0.000000
  70
    32
  0
VERTEX
  8
0
  5
1375
 10
75.1592
 20
156.772
 30
0.000000
  70
    32
  0
VERTEX
  8
0
  5
1376
 10
75.1561
 20
156.735
 30
0.000000
  70
    32
  0
VERTEX
  8
0
  5
1377
 10
75.1534
 20
156.698
 30
0.000000
  70
    32
  0
VERTEX
  8
0
  5
1378
 10
75.1511
 20
156.660
 30
0.000000
  70
    32
  0
VERTEX
  8
0
  5
1379
 10
75.1491
 20
156.623
 30
0.000000
  70
    32
  0
VERTEX
  8
0
  5
137A
 10
75.1475
 20
156.586
 30
0.000000
  70
    32
  0
VERTEX
  8
0
  5
137B
 10
75.1462
 20
156.549
 30
0.000000
  70
    32
  0
VERTEX
  8
0
  5
137C
 10
75.1453
 20
156.511
 30
0.000000
  70
    32
  0
VERTEX
  8
0
  5
137D
 10
75.1448
 20
156.474
 30
0.000000
  70
    32
  0
VERTEX
  8
0
  5
137E
 10
75.1446
 20
156.437
 30
0.000000
  70
    32
  0
VERTEX
  8
0
  5
137F
 10
75.1448
 20
156.400
 30
0.000000
  70
    32
  0
VERTEX
  8
0
  5
1380
 10
75.1453
 20
156.362
 30
0.000000
  70
    32
  0
VERTEX
  8
0
  5
1381
 10
75.1462
 20
156.325
 30
0.000000
  70
    32
  0
VERTEX
  8
0
  5
1382
 10
75.1475
 20
156.288
 30
0.000000
  70
    32
  0
VERTEX
  8
0
  5
1383
 10
75.1491
 20
156.251
 30
0.000000
  70
    32
  0
VERTEX
  8
0
  5
1384
 10
75.1511
 20
156.213
 30
0.000000
  70
    32
  0
VERTEX
  8
0
  5
1385
 10
75.1534
 20
156.176
 30
0.000000
  70
    32
  0
VERTEX
  8
0
  5
1386
 10
75.1561
 20
156.139
 30
0.000000
  70
    32
  0
VERTEX
  8
0
  5
1387
 10
75.1592
 20
156.102
 30
0.000000
  70
    32
  0
VERTEX
  8
0
  5
1388
 10
75.1626
 20
156.065
 30
0.000000
  70
    32
  0
VERTEX
  8
0
  5
1389
 10
75.1664
 20
156.028
 30
0.000000
  70
    32
  0
VERTEX
  8
0
  5
138A
 10
75.1705
 20
155.991
 30
0.000000
  70
    32
  0
VERTEX
  8
0
  5
138B
 10
75.1750
 20
155.954
 30
0.000000
  70
    32
  0
VERTEX
  8
0
  5
138C
 10
75.1798
 20
155.918
 30
0.000000
  70
    32
  0
VERTEX
  8
0
  5
138D
 10
75.1850
 20
155.881
 30
0.000000
  70
    32
  0
VERTEX
  8
0
  5
138E
 10
75.1906
 20
155.844
 30
0.000000
  70
    32
  0
VERTEX
  8
0
  5
138F
 10
75.1965
 20
155.808
 30
0.000000
  70
    32
  0
VERTEX
  8
0
  5
1390
 10
75.2027
 20
155.771
 30
0.000000
  70
    32
  0
VERTEX
  8
0
  5
1391
 10
75.2093
 20
155.735
 30
0.000000
  70
    32
  0
VERTEX
  8
0
  5
1392
 10
75.2163
 20
155.699
 30
0.000000
  70
    32
  0
VERTEX
  8
0
  5
1393
 10
75.2236
 20
155.663
 30
0.000000
  70
    32
  0
VERTEX
  8
0
  5
1394
 10
75.2313
 20
155.627
 30
0.000000
  70
    32
  0
VERTEX
  8
0
  5
1395
 10
75.2393
 20
155.591
 30
0.000000
  70
    32
  0
VERTEX
  8
0
  5
1396
 10
75.2476
 20
155.555
 30
0.000000
  70
    32
  0
VERTEX
  8
0
  5
1397
 10
75.2563
 20
155.520
 30
0.000000
  70
    32
  0
VERTEX
  8
0
  5
1398
 10
75.2654
 20
155.484
 30
0.000000
  70
    32
  0
VERTEX
  8
0
  5
1399
 10
75.2747
 20
155.449
 30
0.000000
  70
    32
  0
VERTEX
  8
0
  5
139A
 10
75.2845
 20
155.414
 30
0.000000
  70
    32
  0
VERTEX
  8
0
  5
139B
 10
75.2945
 20
155.379
 30
0.000000
  70
    32
  0
VERTEX
  8
0
  5
139C
 10
75.3049
 20
155.344
 30
0.000000
  70
    32
  0
VERTEX
  8
0
  5
139D
 10
75.3156
 20
155.309
 30
0.000000
  70
    32
  0
VERTEX
  8
0
  5
139E
 10
75.3267
 20
155.275
 30
0.000000
  70
    32
  0
VERTEX
  8
0
  5
139F
 10
75.3381
 20
155.241
 30
0.000000
  70
    32
  0
VERTEX
  8
0
  5
13A0
 10
75.3498
 20
155.207
 30
0.000000
  70
    32
  0
VERTEX
  8
0
  5
13A1
 10
75.3619
 20
155.173
 30
0.000000
  70
    32
  0
VERTEX
  8
0
  5
13A2
 10
75.3743
 20
155.139
 30
0.000000
  70
    32
  0
VERTEX
  8
0
  5
13A3
 10
75.3870
 20
155.105
 30
0.000000
  70
    32
  0
VERTEX
  8
0
  5
13A4
 10
75.4000
 20
155.072
 30
0.000000
  70
    32
  0
VERTEX
  8
0
  5
13A5
 10
75.4134
 20
155.039
 30
0.000000
  70
    32
  0
VERTEX
  8
0
  5
13A6
 10
75.4271
 20
155.006
 30
0.000000
  70
    32
  0
VERTEX
  8
0
  5
13A7
 10
75.4410
 20
154.974
 30
0.000000
  70
    32
  0
VERTEX
  8
0
  5
13A8
 10
75.4554
 20
154.941
 30
0.000000
  70
    32
  0
VERTEX
  8
0
  5
13A9
 10
75.4700
 20
154.909
 30
0.000000
  70
    32
  0
VERTEX
  8
0
  5
13AA
 10
75.4849
 20
154.877
 30
0.000000
  70
    32
  0
VERTEX
  8
0
  5
13AB
 10
75.5001
 20
154.845
 30
0.000000
  70
    32
  0
VERTEX
  8
0
  5
13AC
 10
75.5157
 20
154.814
 30
0.000000
  70
    32
  0
VERTEX
  8
0
  5
13AD
 10
75.5315
 20
154.782
 30
0.000000
  70
    32
  0
VERTEX
  8
0
  5
13AE
 10
75.5477
 20
154.751
 30
0.000000
  70
    32
  0
VERTEX
  8
0
  5
13AF
 10
75.5641
 20
154.721
 30
0.000000
  70
    32
  0
VERTEX
  8
0
  5
13B0
 10
75.5808
 20
154.690
 30
0.000000
  70
    32
  0
VERTEX
  8
0
  5
13B1
 10
75.5979
 20
154.660
 30
0.000000
  70
    32
  0
VERTEX
  8
0
  5
13B2
 10
75.6152
 20
154.630
 30
0.000000
  70
    32
  0
SEQEND
  8
0
  5
13B3
  0
ARC
  5
ED4
  8
0
 10
75.586182723711175
 20
159.47239862984591
 30
0.0
 40
0.8
 50
310.9485553384975
 51
0.7091766292514306
  0
LINE
  5
ED5
  8
0
 10
76.386182725242946
 20
159.68736440573491
 30
0.0
 11
76.386182725242946
 21
153.43299929148921
 31
0.0
  0
ARC
  5
ED6
  8
0
 10
82.699931115245136
 20
158.34589876814701
 30
0.0
 40
8.0
 50
207.6756501154475
 51
226.9090172032935
  0
LINE
  5
ED7
  8
0
 10
66.202338341038015
 20
164.78555449559039
 30
0.0
 11
74.899438633607843
 21
164.78555449559039
 31
0.0
  0
ARC
  5
ED8
  8
0
 10
74.899438633607843
 20
164.2855544955905
 30
0.0
 40
0.5
 50
12.65659409713297
 51
90.0
  0
LINE
  5
ED9
  8
0
 10
75.387289040698064
 20
164.3951080455189
 30
0.0
 11
76.386182725242946
 21
159.68736440573491
 31
0.0
  0
ARC
  5
EDA
  8
0
 10
58.401845859400737
 20
158.34589876814701
 30
0.0
 40
8.0
 50
313.0909827967065
 51
332.32434988455248
  0
LINE
  5
EDB
  8
0
 10
65.714487933947808
 20
164.3951080455189
 30
0.0
 11
64.715594249402926
 21
159.68736440573491
 31
0.0
  0
ARC
  5
EDC
  8
0
 10
66.202338341038015
 20
164.2855544955905
 30
0.0
 40
0.5
 50
90.0
 51
167.343405902867
  0
LINE
  5
EDD
  8
0
 10
64.715594249402926
 20
159.68736440573491
 30
0.0
 11
64.715594249402926
 21
153.43299929148921
 31
0.0
  0
POLYLINE
  5
EDE
  8
0
 10
64.991289349372735
 20
158.86815995994957
 30
0.0
 66
     1
 70
     8
  0
VERTEX
  8
0
  5
13B4
 10
64.9913
 20
158.868
 30
0.000000
  70
    32
  0
VERTEX
  8
0
  5
13B5
 10
65.0147
 20
158.846
 30
0.000000
  70
    32
  0
VERTEX
  8
0
  5
13B6
 10
65.0379
 20
158.824
 30
0.000000
  70
    32
  0
VERTEX
  8
0
  5
13B7
 10
65.0608
 20
158.801
 30
0.000000
  70
    32
  0
VERTEX
  8
0
  5
13B8
 10
65.0836
 20
158.778
 30
0.000000
  70
    32
  0
VERTEX
  8
0
  5
13B9
 10
65.1061
 20
158.754
 30
0.000000
  70
    32
  0
VERTEX
  8
0
  5
13BA
 10
65.1284
 20
158.730
 30
0.000000
  70
    32
  0
VERTEX
  8
0
  5
13BB
 10
65.1504
 20
158.706
 30
0.000000
  70
    32
  0
VERTEX
  8
0
  5
13BC
 10
65.1723
 20
158.681
 30
0.000000
  70
    32
  0
VERTEX
  8
0
  5
13BD
 10
65.1938
 20
158.656
 30
0.000000
  70
    32
  0
VERTEX
  8
0
  5
13BE
 10
65.2152
 20
158.631
 30
0.000000
  70
    32
  0
VERTEX
  8
0
  5
13BF
 10
65.2363
 20
158.606
 30
0.000000
  70
    32
  0
VERTEX
  8
0
  5
13C0
 10
65.2571
 20
158.580
 30
0.000000
  70
    32
  0
VERTEX
  8
0
  5
13C1
 10
65.2777
 20
158.553
 30
0.000000
  70
    32
  0
VERTEX
  8
0
  5
13C2
 10
65.2980
 20
158.527
 30
0.000000
  70
    32
  0
VERTEX
  8
0
  5
13C3
 10
65.3181
 20
158.500
 30
0.000000
  70
    32
  0
VERTEX
  8
0
  5
13C4
 10
65.3379
 20
158.473
 30
0.000000
  70
    32
  0
VERTEX
  8
0
  5
13C5
 10
65.3575
 20
158.445
 30
0.000000
  70
    32
  0
VERTEX
  8
0
  5
13C6
 10
65.3767
 20
158.417
 30
0.000000
  70
    32
  0
VERTEX
  8
0
  5
13C7
 10
65.3957
 20
158.389
 30
0.000000
  70
    32
  0
VERTEX
  8
0
  5
13C8
 10
65.4145
 20
158.360
 30
0.000000
  70
    32
  0
VERTEX
  8
0
  5
13C9
 10
65.4329
 20
158.332
 30
0.000000
  70
    32
  0
VERTEX
  8
0
  5
13CA
 10
65.4511
 20
158.303
 30
0.000000
  70
    32
  0
VERTEX
  8
0
  5
13CB
 10
65.4690
 20
158.273
 30
0.000000
  70
    32
  0
VERTEX
  8
0
  5
13CC
 10
65.4866
 20
158.244
 30
0.000000
  70
    32
  0
VERTEX
  8
0
  5
13CD
 10
65.5039
 20
158.214
 30
0.000000
  70
    32
  0
VERTEX
  8
0
  5
13CE
 10
65.5210
 20
158.184
 30
0.000000
  70
    32
  0
VERTEX
  8
0
  5
13CF
 10
65.5377
 20
158.153
 30
0.000000
  70
    32
  0
VERTEX
  8
0
  5
13D0
 10
65.5542
 20
158.122
 30
0.000000
  70
    32
  0
VERTEX
  8
0
  5
13D1
 10
65.5703
 20
158.091
 30
0.000000
  70
    32
  0
VERTEX
  8
0
  5
13D2
 10
65.5861
 20
158.060
 30
0.000000
  70
    32
  0
VERTEX
  8
0
  5
13D3
 10
65.6017
 20
158.029
 30
0.000000
  70
    32
  0
VERTEX
  8
0
  5
13D4
 10
65.6169
 20
157.997
 30
0.000000
  70
    32
  0
VERTEX
  8
0
  5
13D5
 10
65.6318
 20
157.965
 30
0.000000
  70
    32
  0
VERTEX
  8
0
  5
13D6
 10
65.6465
 20
157.933
 30
0.000000
  70
    32
  0
VERTEX
  8
0
  5
13D7
 10
65.6608
 20
157.900
 30
0.000000
  70
    32
  0
VERTEX
  8
0
  5
13D8
 10
65.6748
 20
157.868
 30
0.000000
  70
    32
  0
VERTEX
  8
0
  5
13D9
 10
65.6884
 20
157.835
 30
0.000000
  70
    32
  0
VERTEX
  8
0
  5
13DA
 10
65.7018
 20
157.802
 30
0.000000
  70
    32
  0
VERTEX
  8
0
  5
13DB
 10
65.7148
 20
157.768
 30
0.000000
  70
    32
  0
VERTEX
  8
0
  5
13DC
 10
65.7275
 20
157.735
 30
0.000000
  70
    32
  0
VERTEX
  8
0
  5
13DD
 10
65.7399
 20
157.701
 30
0.000000
  70
    32
  0
VERTEX
  8
0
  5
13DE
 10
65.7520
 20
157.667
 30
0.000000
  70
    32
  0
VERTEX
  8
0
  5
13DF
 10
65.7637
 20
157.633
 30
0.000000
  70
    32
  0
VERTEX
  8
0
  5
13E0
 10
65.7751
 20
157.599
 30
0.000000
  70
    32
  0
VERTEX
  8
0
  5
13E1
 10
65.7862
 20
157.564
 30
0.000000
  70
    32
  0
VERTEX
  8
0
  5
13E2
 10
65.7969
 20
157.530
 30
0.000000
  70
    32
  0
VERTEX
  8
0
  5
13E3
 10
65.8073
 20
157.495
 30
0.000000
  70
    32
  0
VERTEX
  8
0
  5
13E4
 10
65.8173
 20
157.460
 30
0.000000
  70
    32
  0
VERTEX
  8
0
  5
13E5
 10
65.8271
 20
157.425
 30
0.000000
  70
    32
  0
VERTEX
  8
0
  5
13E6
 10
65.8364
 20
157.389
 30
0.000000
  70
    32
  0
VERTEX
  8
0
  5
13E7
 10
65.8455
 20
157.354
 30
0.000000
  70
    32
  0
VERTEX
  8
0
  5
13E8
 10
65.8542
 20
157.318
 30
0.000000
  70
    32
  0
VERTEX
  8
0
  5
13E9
 10
65.8625
 20
157.283
 30
0.000000
  70
    32
  0
VERTEX
  8
0
  5
13EA
 10
65.8705
 20
157.247
 30
0.000000
  70
    32
  0
VERTEX
  8
0
  5
13EB
 10
65.8782
 20
157.211
 30
0.000000
  70
    32
  0
VERTEX
  8
0
  5
13EC
 10
65.8855
 20
157.175
 30
0.000000
  70
    32
  0
VERTEX
  8
0
  5
13ED
 10
65.8925
 20
157.139
 30
0.000000
  70
    32
  0
VERTEX
  8
0
  5
13EE
 10
65.8991
 20
157.102
 30
0.000000
  70
    32
  0
VERTEX
  8
0
  5
13EF
 10
65.9053
 20
157.066
 30
0.000000
  70
    32
  0
VERTEX
  8
0
  5
13F0
 10
65.9112
 20
157.029
 30
0.000000
  70
    32
  0
VERTEX
  8
0
  5
13F1
 10
65.9168
 20
156.993
 30
0.000000
  70
    32
  0
VERTEX
  8
0
  5
13F2
 10
65.9220
 20
156.956
 30
0.000000
  70
    32
  0
VERTEX
  8
0
  5
13F3
 10
65.9268
 20
156.919
 30
0.000000
  70
    32
  0
VERTEX
  8
0
  5
13F4
 10
65.9313
 20
156.883
 30
0.000000
  70
    32
  0
VERTEX
  8
0
  5
13F5
 10
65.9354
 20
156.846
 30
0.000000
  70
    32
  0
VERTEX
  8
0
  5
13F6
 10
65.9392
 20
156.809
 30
0.000000
  70
    32
  0
VERTEX
  8
0
  5
13F7
 10
65.9426
 20
156.772
 30
0.000000
  70
    32
  0
VERTEX
  8
0
  5
13F8
 10
65.9457
 20
156.735
 30
0.000000
  70
    32
  0
VERTEX
  8
0
  5
13F9
 10
65.9484
 20
156.698
 30
0.000000
  70
    32
  0
VERTEX
  8
0
  5
13FA
 10
65.9507
 20
156.660
 30
0.000000
  70
    32
  0
VERTEX
  8
0
  5
13FB
 10
65.9527
 20
156.623
 30
0.000000
  70
    32
  0
VERTEX
  8
0
  5
13FC
 10
65.9543
 20
156.586
 30
0.000000
  70
    32
  0
VERTEX
  8
0
  5
13FD
 10
65.9556
 20
156.549
 30
0.000000
  70
    32
  0
VERTEX
  8
0
  5
13FE
 10
65.9565
 20
156.511
 30
0.000000
  70
    32
  0
VERTEX
  8
0
  5
13FF
 10
65.9570
 20
156.474
 30
0.000000
  70
    32
  0
VERTEX
  8
0
  5
1400
 10
65.9572
 20
156.437
 30
0.000000
  70
    32
  0
VERTEX
  8
0
  5
1401
 10
65.9570
 20
156.400
 30
0.000000
  70
    32
  0
VERTEX
  8
0
  5
1402
 10
65.9565
 20
156.362
 30
0.000000
  70
    32
  0
VERTEX
  8
0
  5
1403
 10
65.9556
 20
156.325
 30
0.000000
  70
    32
  0
VERTEX
  8
0
  5
1404
 10
65.9543
 20
156.288
 30
0.000000
  70
    32
  0
VERTEX
  8
0
  5
1405
 10
65.9527
 20
156.251
 30
0.000000
  70
    32
  0
VERTEX
  8
0
  5
1406
 10
65.9507
 20
156.213
 30
0.000000
  70
    32
  0
VERTEX
  8
0
  5
1407
 10
65.9484
 20
156.176
 30
0.000000
  70
    32
  0
VERTEX
  8
0
  5
1408
 10
65.9457
 20
156.139
 30
0.000000
  70
    32
  0
VERTEX
  8
0
  5
1409
 10
65.9426
 20
156.102
 30
0.000000
  70
    32
  0
VERTEX
  8
0
  5
140A
 10
65.9392
 20
156.065
 30
0.000000
  70
    32
  0
VERTEX
  8
0
  5
140B
 10
65.9354
 20
156.028
 30
0.000000
  70
    32
  0
VERTEX
  8
0
  5
140C
 10
65.9313
 20
155.991
 30
0.000000
  70
    32
  0
VERTEX
  8
0
  5
140D
 10
65.9268
 20
155.954
 30
0.000000
  70
    32
  0
VERTEX
  8
0
  5
140E
 10
65.9220
 20
155.918
 30
0.000000
  70
    32
  0
VERTEX
  8
0
  5
140F
 10
65.9168
 20
155.881
 30
0.000000
  70
    32
  0
VERTEX
  8
0
  5
1410
 10
65.9112
 20
155.844
 30
0.000000
  70
    32
  0
VERTEX
  8
0
  5
1411
 10
65.9053
 20
155.808
 30
0.000000
  70
    32
  0
VERTEX
  8
0
  5
1412
 10
65.8990
 20
155.771
 30
0.000000
  70
    32
  0
VERTEX
  8
0
  5
1413
 10
65.8924
 20
155.735
 30
0.000000
  70
    32
  0
VERTEX
  8
0
  5
1414
 10
65.8855
 20
155.699
 30
0.000000
  70
    32
  0
VERTEX
  8
0
  5
1415
 10
65.8782
 20
155.663
 30
0.000000
  70
    32
  0
VERTEX
  8
0
  5
1416
 10
65.8705
 20
155.627
 30
0.000000
  70
    32
  0
VERTEX
  8
0
  5
1417
 10
65.8625
 20
155.591
 30
0.000000
  70
    32
  0
VERTEX
  8
0
  5
1418
 10
65.8542
 20
155.555
 30
0.000000
  70
    32
  0
VERTEX
  8
0
  5
1419
 10
65.8455
 20
155.520
 30
0.000000
  70
    32
  0
VERTEX
  8
0
  5
141A
 10
65.8364
 20
155.484
 30
0.000000
  70
    32
  0
VERTEX
  8
0
  5
141B
 10
65.8270
 20
155.449
 30
0.000000
  70
    32
  0
VERTEX
  8
0
  5
141C
 10
65.8173
 20
155.414
 30
0.000000
  70
    32
  0
VERTEX
  8
0
  5
141D
 10
65.8073
 20
155.379
 30
0.000000
  70
    32
  0
VERTEX
  8
0
  5
141E
 10
65.7969
 20
155.344
 30
0.000000
  70
    32
  0
VERTEX
  8
0
  5
141F
 10
65.7861
 20
155.309
 30
0.000000
  70
    32
  0
VERTEX
  8
0
  5
1420
 10
65.7751
 20
155.275
 30
0.000000
  70
    32
  0
VERTEX
  8
0
  5
1421
 10
65.7637
 20
155.241
 30
0.000000
  70
    32
  0
VERTEX
  8
0
  5
1422
 10
65.7519
 20
155.207
 30
0.000000
  70
    32
  0
VERTEX
  8
0
  5
1423
 10
65.7399
 20
155.173
 30
0.000000
  70
    32
  0
VERTEX
  8
0
  5
1424
 10
65.7275
 20
155.139
 30
0.000000
  70
    32
  0
VERTEX
  8
0
  5
1425
 10
65.7148
 20
155.105
 30
0.000000
  70
    32
  0
VERTEX
  8
0
  5
1426
 10
65.7017
 20
155.072
 30
0.000000
  70
    32
  0
VERTEX
  8
0
  5
1427
 10
65.6884
 20
155.039
 30
0.000000
  70
    32
  0
VERTEX
  8
0
  5
1428
 10
65.6747
 20
155.006
 30
0.000000
  70
    32
  0
VERTEX
  8
0
  5
1429
 10
65.6607
 20
154.974
 30
0.000000
  70
    32
  0
VERTEX
  8
0
  5
142A
 10
65.6464
 20
154.941
 30
0.000000
  70
    32
  0
VERTEX
  8
0
  5
142B
 10
65.6318
 20
154.909
 30
0.000000
  70
    32
  0
VERTEX
  8
0
  5
142C
 10
65.6169
 20
154.877
 30
0.000000
  70
    32
  0
VERTEX
  8
0
  5
142D
 10
65.6016
 20
154.845
 30
0.000000
  70
    32
  0
VERTEX
  8
0
  5
142E
 10
65.5861
 20
154.814
 30
0.000000
  70
    32
  0
VERTEX
  8
0
  5
142F
 10
65.5703
 20
154.782
 30
0.000000
  70
    32
  0
VERTEX
  8
0
  5
1430
 10
65.5541
 20
154.751
 30
0.000000
  70
    32
  0
VERTEX
  8
0
  5
1431
 10
65.5377
 20
154.721
 30
0.000000
  70
    32
  0
VERTEX
  8
0
  5
1432
 10
65.5209
 20
154.690
 30
0.000000
  70
    32
  0
VERTEX
  8
0
  5
1433
 10
65.5039
 20
154.660
 30
0.000000
  70
    32
  0
VERTEX
  8
0
  5
1434
 10
65.4866
 20
154.630
 30
0.000000
  70
    32
  0
SEQEND
  8
0
  5
1435
  0
ARC
  5
EDF
  8
0
 10
65.515594247871135
 20
159.47239862984591
 30
0.0
 40
0.8
 50
179.29082337074851
 51
229.05144466150259
  0
LINE
  5
EE0
  8
0
 10
265.93464161534672
 20
164.78555449559039
 30
0.0
 11
257.24166870356453
 21
164.78555449559039
 31
0.0
  0
LINE
  5
EE1
  8
0
 10
255.7500660524741
 20
159.66446622074491
 30
0.0
 11
255.7500660524741
 21
148.76831232910419
 31
0.0
  0
LINE
  5
EE2
  8
0
 10
260.50159991272909
 20
162.0664389218785
 30
0.0
 11
262.67058302539442
 21
162.0664389218785
 31
0.0
  0
LINE
  5
EE3
  8
0
 10
259.7419592083163
 20
160.08231532514779
 30
0.0
 11
263.45053465060943
 21
160.08231532514779
 31
0.0
  0
LINE
  5
EE4
  8
0
 10
256.11510676800827
 20
152.07139898191889
 30
0.0
 11
267.05707617011518
 21
152.07139898191889
 31
0.0
  0
LINE
  5
EE5
  8
0
 10
256.84021884984941
 20
155.0677842177019
 30
0.0
 11
266.33609146906178
 21
155.0677842177019
 31
0.0
  0
LINE
  5
EE6
  8
0
 10
256.60402686335942
 20
152.7685462692759
 30
0.0
 11
266.5681560747642
 21
152.7685462692759
 31
0.0
  0
LINE
  5
EE7
  8
0
 10
266.98706440641052
 20
152.34555449559051
 30
0.0
 11
256.1851185317131
 21
152.34555449559051
 31
0.0
  0
LINE
  5
EE8
  8
0
 10
270.83609146906178
 20
128.7855544955905
 30
0.0
 11
252.33609146906181
 21
128.7855544955905
 31
0.0
  0
LINE
  5
EE9
  8
0
 10
268.33609146906178
 20
122.2855544955905
 30
0.0
 11
268.33609146906178
 21
128.7855544955905
 31
0.0
  0
LINE
  5
EEA
  8
0
 10
254.83609146906181
 20
128.7855544955905
 30
0.0
 11
254.83609146906181
 21
122.2855544955905
 31
0.0
  0
LINE
  5
EEB
  8
0
 10
254.83609146906181
 20
122.2855544955905
 30
0.0
 11
268.33609146906178
 21
122.2855544955905
 31
0.0
  0
LINE
  5
EEC
  8
1
 10
261.58609146906178
 20
169.57058872112731
 30
0.0
 11
261.58609146906173
 21
92.285554495590461
 31
0.0
  0
ARC
  5
EED
  8
0
 10
265.93464161534672
 20
164.2855544955905
 30
0.0
 40
0.5
 50
12.65659409713297
 51
90.0
  0
LINE
  5
EEE
  8
0
 10
266.42249202243693
 20
164.3951080455189
 30
0.0
 11
267.42138570698182
 21
159.68736440573491
 31
0.0
  0
LINE
  5
EEF
  8
0
 10
267.42138570698182
 20
159.68736440573491
 30
0.0
 11
267.42138570698182
 21
148.80017459508801
 31
0.0
  0
ARC
  5
EF0
  8
0
  6
CONTINUOUS
 10
269.90851814626387
 20
155.83663436226141
 30
0.0
 40
10.0
 50
118.79561527160629
 51
136.0638165139936
  0
ARC
  5
EF1
  8
0
  6
CONTINUOUS
 10
265.81418195497668
 20
163.2855544955905
 30
0.0
 40
1.5
 50
90.0
 51
118.79561527160629
  0
LINE
  5
EF2
  8
0
  6
CONTINUOUS
 10
262.60049702280281
 20
162.24949821653561
 30
0.0
 11
263.43022372980732
 21
160.08231532514779
 31
0.0
  0
ARC
  5
EF3
  8
0
  6
CONTINUOUS
 10
263.06744397905408
 20
162.4282733267932
 30
0.0
 40
0.5
 50
136.06381651399249
 51
200.9498226902104
  0
ARC
  5
EF4
  8
0
  6
CONTINUOUS
 10
257.08154392175328
 20
151.27920272925439
 30
0.0
 40
10.0
 50
22.26297169193387
 51
41.283103248970171
  0
ARC
  5
EF5
  8
0
  6
CONTINUOUS
 10
272.78468966561792
 20
163.61699594095441
 30
0.0
 40
10.0
 50
200.69958459211799
 51
215.02957793266171
  0
ARC
  5
EF6
  8
0
  6
CONTINUOUS
 10
266.0947663971578
 20
151.27920272925439
 30
0.0
 40
10.0
 50
138.71689675102979
 51
157.7370283080661
  0
LINE
  5
EF7
  8
0
  6
CONTINUOUS
 10
260.57581329610849
 20
162.24949821653561
 30
0.0
 11
259.74608658910392
 21
160.08231532514779
 31
0.0
  0
ARC
  5
EF8
  8
0
  6
CONTINUOUS
 10
253.26779217264721
 20
155.83663436226141
 30
0.0
 40
10.0
 50
43.936183486006371
 51
61.204384728393627
  0
ARC
  5
EF9
  8
0
  6
CONTINUOUS
 10
260.10886633985712
 20
162.4282733267932
 30
0.0
 40
0.5
 50
339.0501773097896
 51
43.936183486007501
  0
LINE
  5
EFA
  8
0
 10
256.75381829647432
 20
164.3951080455189
 30
0.0
 11
255.7549246119294
 21
159.68736440573491
 31
0.0
  0
ARC
  5
EFB
  8
0
  6
CONTINUOUS
 10
250.39162065329319
 20
163.61699594095441
 30
0.0
 40
10.0
 50
324.97042206733829
 51
339.30041540788199
  0
ARC
  5
EFC
  8
0
  6
CONTINUOUS
 10
257.36212836393452
 20
163.2855544955905
 30
0.0
 40
1.5
 50
61.204384728393627
 51
90.0
  0
ARC
  5
EFD
  8
0
 10
257.24166870356453
 20
164.2855544955905
 30
0.0
 40
0.5
 50
90.0
 51
167.343405902867
  0
LINE
  5
F00
  8
0
  6
CONTINUOUS
 10
266.98706440641052
 20
152.34555449559051
 30
0.0
 11
267.05707617011518
 21
152.07139898191889
 31
0.0
  0
LINE
  5
F01
  8
0
  6
CONTINUOUS
 10
267.05707617011518
 20
152.07139898191889
 30
0.0
 11
267.42384159881482
 21
148.77812254197801
 31
0.0
  0
ARC
  5
F02
  8
0
  6
CONTINUOUS
 10
274.18676416114118
 20
144.1031874382808
 30
0.0
 40
8.0
 50
149.5265495885719
 51
212.6634991376466
  0
ARC
  5
F03
  8
0
  6
CONTINUOUS
 10
266.42998591198318
 20
148.6674388767305
 30
0.0
 40
1.0
 50
329.52654958857192
 51
6.3547273638236677
  0
ARC
  5
F04
  8
0
  6
CONTINUOUS
 10
267.0260148967368
 20
147.62079303759421
 30
0.0
 40
5.0
 50
46.631165890173051
 51
76.160424193720175
  0
LINE
  5
F05
  8
0
  6
CONTINUOUS
 10
267.42138570698182
 20
153.4335875176771
 30
0.0
 11
268.22203584864423
 21
152.47563947003661
 31
0.0
  0
ARC
  5
F06
  8
0
  6
CONTINUOUS
 10
269.08609146906178
 20
149.80163794637559
 30
0.0
 40
2.0
 50
0.0
 51
46.631165890173051
  0
ARC
  5
F07
  8
0
  6
CONTINUOUS
 10
256.74219702614027
 20
148.6674388767305
 30
0.0
 40
1.0
 50
173.64527263617629
 51
210.4734504114281
  0
ARC
  5
F08
  8
0
  6
CONTINUOUS
 10
254.08609146906181
 20
149.80163794637559
 30
0.0
 40
2.0
 50
133.36883410982691
 51
180.0
  0
LINE
  5
F09
  8
0
  6
CONTINUOUS
 10
255.75079723114169
 20
153.4335875176771
 30
0.0
 11
254.9501470894794
 21
152.47563947003661
 31
0.0
  0
LINE
  5
F0A
  8
0
  6
CONTINUOUS
 10
256.11510676800827
 20
152.07139898191889
 30
0.0
 11
255.74834133930881
 21
148.77812254197801
 31
0.0
  0
LINE
  5
F0B
  8
0
  6
CONTINUOUS
 10
256.1851185317131
 20
152.34555449559051
 30
0.0
 11
256.11510676800827
 21
152.07139898191889
 31
0.0
  0
ARC
  5
F0C
  8
0
  6
CONTINUOUS
 10
256.14616804138677
 20
147.62079303759421
 30
0.0
 40
5.0
 50
103.8395758062798
 51
133.36883410982691
  0
ARC
  5
F0D
  8
0
  6
CONTINUOUS
 10
248.9854187769823
 20
144.1031874382808
 30
0.0
 40
8.0
 50
327.33650086235338
 51
30.4734504114281
  0
LINE
  5
F28
  8
0
  6
CONTINUOUS
 10
80.04846682426556
 20
149.84600510666601
 30
0.0
 11
79.800888487322936
 21
128.7855544955905
 31
0.0
  0
LINE
  5
F29
  8
0
  6
CONTINUOUS
 10
61.053310150380312
 20
149.84600510666601
 30
0.0
 11
61.300888487322929
 21
128.7855544955905
 31
0.0
  0
LINE
  5
F2A
  8
0
  6
CONTINUOUS
 10
271.08609146906178
 20
149.80163794637559
 30
0.0
 11
270.83609146906178
 21
128.7855544955905
 31
0.0
  0
LINE
  5
F2B
  8
0
  6
CONTINUOUS
 10
252.08609146906181
 20
149.80163794637559
 30
0.0
 11
252.33609146906181
 21
128.7855544955905
 31
0.0
  0
CIRCLE
  5
F2C
  8
0
  6
CONTINUOUS
 10
142.35822889419569
 20
52.785554495590468
 30
0.0
 40
6.75
  0
LINE
  5
F2E
  8
0
  6
CONTINUOUS
 10
256.84021884984941
 20
155.0677842177019
 30
0.0
 11
256.5569306057775
 21
152.34555449559051
 31
0.0
  0
LINE
  5
F2F
  8
0
  6
CONTINUOUS
 10
266.33609146906178
 20
155.0677842177019
 30
0.0
 11
266.61525233234607
 21
152.34555449559051
 31
0.0
  0
LINE
  5
F40
  8
0
 10
266.33609146906178
 20
164.58361156219371
 30
0.0
 11
266.33609146906178
 21
155.0677842177019
 31
0.0
  0
LINE
  5
F42
  8
0
 10
256.83609146906161
 20
164.58361156219371
 30
0.0
 11
256.83609146906161
 21
155.0677842177019
 31
0.0
  0
LINE
  5
F43
  8
0
 10
138.55822889419571
 20
158.7855544955905
 30
0.0
 11
141.85822889419569
 21
158.7855544955905
 31
0.0
  0
LINE
  5
F44
  8
0
 10
146.6582288941957
 20
158.28555449559039
 30
0.0
 11
146.6582288941957
 21
151.51685204245479
 31
0.0
  0
LINE
  5
F45
  8
0
 10
138.55822889419571
 20
158.7855544955905
 30
0.0
 11
138.05822889419571
 21
158.2855544955905
 31
0.0
  0
LINE
  5
F46
  8
0
 10
146.1582288941957
 20
158.7855544955905
 30
0.0
 11
146.6582288941957
 21
158.28555449559039
 31
0.0
  0
LINE
  5
F48
  8
0
 10
142.85822889419569
 20
158.7855544955905
 30
0.0
 11
142.85822889419569
 21
157.7855544955905
 31
0.0
  0
LINE
  5
F49
  8
0
 10
141.85822889419569
 20
158.7855544955905
 30
0.0
 11
141.85822889419569
 21
157.7855544955905
 31
0.0
  0
LINE
  5
F4A
  8
0
 10
141.85822889419569
 20
157.78555449559039
 30
0.0
 11
142.85822889419569
 21
157.7855544955905
 31
0.0
  0
LINE
  5
F4B
  8
0
 10
142.85822889419569
 20
158.7855544955905
 30
0.0
 11
146.1582288941957
 21
158.7855544955905
 31
0.0
  0
LINE
  5
F4C
  8
0
 10
138.05822889419571
 20
158.2855544955905
 30
0.0
 11
141.85822889419569
 21
158.28555449559039
 31
0.0
  0
LINE
  5
F4D
  8
0
 10
142.85822889419569
 20
158.28555449559039
 30
0.0
 11
146.6582288941957
 21
158.28555449559039
 31
0.0
  0
LINE
  5
F4E
  8
0
 10
138.05822889419571
 20
153.2855544955905
 30
0.0
 11
146.6582288941957
 21
153.28555449559039
 31
0.0
  0
ARC
  5
F53
  8
0
 10
142.35822889419569
 20
202.5660376563354
 30
0.0
 40
3.8100000000000298
 50
97.540882905771355
 51
262.4591170942291
  0
CIRCLE
  5
F54
  8
0
 10
142.35822889419569
 20
202.5660376563354
 30
0.0
 40
4.3100000000000298
  0
LINE
  5
F59
  8
0
 10
142.85822889419569
 20
206.84693709453759
 30
0.0
 11
142.85822889419569
 21
198.28513821813311
 31
0.0
  0
LINE
  5
F5A
  8
0
 10
141.85822889419569
 20
206.84693709453759
 30
0.0
 11
141.85822889419569
 21
198.28513821813311
 31
0.0
  0
ARC
  5
F5B
  8
0
 10
142.35822889419569
 20
202.5660376563354
 30
0.0
 40
3.8100000000000298
 50
277.54088290577101
 51
82.459117094229043
  0
INSERT
  5
F6B
  8
3
  6
CONTINUOUS
  2
*X0
 10
0.0
 20
0.0
 30
0.0
1001
ACAD
1000
HATCH
1002
{
1070
    19
1000
ANSI31
1040
10.0
1040
0.0
1000
R14_HATCH_DATA
1000
F6B
1011
1.0
1021
0.0
1031
0.0
1021
0.0
1031
0.0
1011
0.0
1021
0.0
1031
0.0
1021
1.0
1031
0.0
1011
0.0
1021
0.0
1031
0.0
1021
0.0
1031
1.0
1040
0.0
1010
0.0
1020
0.0
1030
1.0
1000
ANSI31
1070
     0
1070
     0
1071
        1
1071
        1
1071
        8
1070
     1
1040
138.05822889419571
1040
158.2855544955905
1040
138.05822889419571
1040
153.2855544955905
1070
     1
1040
138.05822889419571
1040
153.2855544955905
1040
146.6582288941957
1040
153.28555449559039
1070
     1
1040
146.6582288941957
1040
153.28555449559039
1040
146.6582288941957
1040
158.28555449559039
1070
     1
1040
146.6582288941957
1040
158.28555449559039
1040
142.85822889419569
1040
158.28555449559039
1070
     1
1040
142.85822889419569
1040
158.28555449559039
1040
142.85822889419569
1040
157.7855544955905
1070
     1
1040
142.85822889419569
1040
157.7855544955905
1040
141.85822889419569
1040
157.78555449559039
1070
     1
1040
141.85822889419569
1040
157.7855544955905
1040
141.85822889419569
1040
158.28555449559039
1070
     1
1040
141.85822889419569
1040
158.28555449559039
1040
138.05822889419571
1040
158.2855544955905
1071
        0
1070
     0
1070
     1
1040
0.0
1040
10.0
1070
     0
1070
     1
1040
0.7853981633974483
1040
25.182358369218282
1040
10.0
1040
-0.8838834764831842
1040
0.8838834764831844
1070
     0
1071
        1
1040
25.182358369218282
1040
10.0
1040
0.0
1002
}
  0
INSERT
  5
F6C
  8
3
  6
CONTINUOUS
  2
*X1
 10
0.0
 20
0.0
 30
0.0
1001
ACAD
1000
HATCH
1002
{
1070
    19
1000
ANSI31
1040
10.0
1040
0.0
1000
R14_HATCH_DATA
1000
F6C
1011
1.0
1021
0.0
1031
0.0
1021
0.0
1031
0.0
1011
0.0
1021
0.0
1031
0.0
1021
1.0
1031
0.0
1011
0.0
1021
0.0
1031
0.0
1021
0.0
1031
1.0
1040
0.0
1010
0.0
1020
0.0
1030
1.0
1000
ANSI31
1070
     0
1070
     0
1071
        1
1071
        1
1071
        8
1070
     1
1040
146.6582288941957
1040
158.2855544955905
1040
146.6582288941957
1040
153.2855544955905
1070
     1
1040
146.6582288941957
1040
153.2855544955905
1040
138.05822889419571
1040
153.28555449559039
1070
     1
1040
138.05822889419571
1040
153.28555449559039
1040
138.05822889419571
1040
158.28555449559039
1070
     1
1040
138.05822889419571
1040
158.28555449559039
1040
141.85822889419561
1040
158.28555449559039
1070
     1
1040
141.85822889419561
1040
158.28555449559039
1040
141.85822889419569
1040
157.7855544955905
1070
     1
1040
141.85822889419569
1040
157.7855544955905
1040
142.85822889419569
1040
157.78555449559039
1070
     1
1040
142.85822889419569
1040
157.7855544955905
1040
142.85822889419569
1040
158.28555449559039
1070
     1
1040
142.85822889419569
1040
158.28555449559039
1040
146.6582288941957
1040
158.2855544955905
1071
        0
1070
     0
1070
     1
1040
0.0
1040
10.0
1070
     0
1070
     1
1040
2.3561944901923448
1040
259.53409941917317
1040
10.0
1040
0.8838834764831847
1040
0.8838834764831844
1070
     0
1071
        1
1040
259.53409941917317
1040
10.0
1040
0.0
1002
}
  0
LINE
  5
F6E
  8
0
 10
66.250888487322896
 20
158.2855544955905
 30
0.0
 11
74.850888487322962
 21
158.28555449559039
 31
0.0
  0
LINE
  5
F73
  8
0
 10
74.350888487322905
 20
158.7855544955905
 30
0.0
 11
74.850888487322919
 21
158.28555449559039
 31
0.0
  0
LINE
  5
F74
  8
0
 10
66.750888487322896
 20
158.7855544955905
 30
0.0
 11
66.250888487322896
 21
158.2855544955905
 31
0.0
  0
LINE
  5
F75
  8
0
 10
66.750888487322896
 20
158.7855544955905
 30
0.0
 11
74.350888487322962
 21
158.78555449559039
 31
0.0
  0
POLYLINE
  5
F76
  8
0
 10
66.250888487322968
 20
153.18149154192301
 30
0.0
 66
     1
 70
     8
  0
VERTEX
  8
0
  5
1436
 10
66.2509
 20
153.181
 30
0.000000
  70
    32
  0
VERTEX
  8
0
  5
1437
 10
66.1217
 20
153.155
 30
0.000000
  70
    32
  0
VERTEX
  8
0
  5
1438
 10
65.9936
 20
153.128
 30
0.000000
  70
    32
  0
VERTEX
  8
0
  5
1439
 10
65.8665
 20
153.100
 30
0.000000
  70
    32
  0
VERTEX
  8
0
  5
143A
 10
65.7406
 20
153.072
 30
0.000000
  70
    32
  0
VERTEX
  8
0
  5
143B
 10
65.6158
 20
153.042
 30
0.000000
  70
    32
  0
VERTEX
  8
0
  5
143C
 10
65.4921
 20
153.012
 30
0.000000
  70
    32
  0
VERTEX
  8
0
  5
143D
 10
65.3696
 20
152.981
 30
0.000000
  70
    32
  0
VERTEX
  8
0
  5
143E
 10
65.2483
 20
152.950
 30
0.000000
  70
    32
  0
VERTEX
  8
0
  5
143F
 10
65.1283
 20
152.917
 30
0.000000
  70
    32
  0
VERTEX
  8
0
  5
1440
 10
65.0095
 20
152.884
 30
0.000000
  70
    32
  0
VERTEX
  8
0
  5
1441
 10
64.8921
 20
152.850
 30
0.000000
  70
    32
  0
VERTEX
  8
0
  5
1442
 10
64.7759
 20
152.816
 30
0.000000
  70
    32
  0
VERTEX
  8
0
  5
1443
 10
64.6612
 20
152.781
 30
0.000000
  70
    32
  0
VERTEX
  8
0
  5
1444
 10
64.5478
 20
152.745
 30
0.000000
  70
    32
  0
VERTEX
  8
0
  5
1445
 10
64.4358
 20
152.708
 30
0.000000
  70
    32
  0
VERTEX
  8
0
  5
1446
 10
64.3252
 20
152.671
 30
0.000000
  70
    32
  0
VERTEX
  8
0
  5
1447
 10
64.2161
 20
152.633
 30
0.000000
  70
    32
  0
VERTEX
  8
0
  5
1448
 10
64.1085
 20
152.595
 30
0.000000
  70
    32
  0
VERTEX
  8
0
  5
1449
 10
64.0024
 20
152.555
 30
0.000000
  70
    32
  0
VERTEX
  8
0
  5
144A
 10
63.8979
 20
152.516
 30
0.000000
  70
    32
  0
VERTEX
  8
0
  5
144B
 10
63.7949
 20
152.475
 30
0.000000
  70
    32
  0
VERTEX
  8
0
  5
144C
 10
63.6934
 20
152.434
 30
0.000000
  70
    32
  0
VERTEX
  8
0
  5
144D
 10
63.5936
 20
152.393
 30
0.000000
  70
    32
  0
VERTEX
  8
0
  5
144E
 10
63.4954
 20
152.350
 30
0.000000
  70
    32
  0
VERTEX
  8
0
  5
144F
 10
63.3989
 20
152.307
 30
0.000000
  70
    32
  0
VERTEX
  8
0
  5
1450
 10
63.3041
 20
152.264
 30
0.000000
  70
    32
  0
VERTEX
  8
0
  5
1451
 10
63.2109
 20
152.220
 30
0.000000
  70
    32
  0
VERTEX
  8
0
  5
1452
 10
63.1195
 20
152.175
 30
0.000000
  70
    32
  0
VERTEX
  8
0
  5
1453
 10
63.0298
 20
152.130
 30
0.000000
  70
    32
  0
VERTEX
  8
0
  5
1454
 10
62.9419
 20
152.085
 30
0.000000
  70
    32
  0
VERTEX
  8
0
  5
1455
 10
62.8557
 20
152.039
 30
0.000000
  70
    32
  0
VERTEX
  8
0
  5
1456
 10
62.7714
 20
151.992
 30
0.000000
  70
    32
  0
VERTEX
  8
0
  5
1457
 10
62.6889
 20
151.945
 30
0.000000
  70
    32
  0
VERTEX
  8
0
  5
1458
 10
62.6082
 20
151.897
 30
0.000000
  70
    32
  0
VERTEX
  8
0
  5
1459
 10
62.5294
 20
151.849
 30
0.000000
  70
    32
  0
VERTEX
  8
0
  5
145A
 10
62.4525
 20
151.800
 30
0.000000
  70
    32
  0
VERTEX
  8
0
  5
145B
 10
62.3775
 20
151.751
 30
0.000000
  70
    32
  0
VERTEX
  8
0
  5
145C
 10
62.3044
 20
151.702
 30
0.000000
  70
    32
  0
VERTEX
  8
0
  5
145D
 10
62.2332
 20
151.652
 30
0.000000
  70
    32
  0
VERTEX
  8
0
  5
145E
 10
62.1640
 20
151.601
 30
0.000000
  70
    32
  0
VERTEX
  8
0
  5
145F
 10
62.0967
 20
151.551
 30
0.000000
  70
    32
  0
VERTEX
  8
0
  5
1460
 10
62.0314
 20
151.499
 30
0.000000
  70
    32
  0
VERTEX
  8
0
  5
1461
 10
61.9681
 20
151.448
 30
0.000000
  70
    32
  0
VERTEX
  8
0
  5
1462
 10
61.9069
 20
151.396
 30
0.000000
  70
    32
  0
VERTEX
  8
0
  5
1463
 10
61.8476
 20
151.344
 30
0.000000
  70
    32
  0
VERTEX
  8
0
  5
1464
 10
61.7904
 20
151.291
 30
0.000000
  70
    32
  0
VERTEX
  8
0
  5
1465
 10
61.7353
 20
151.238
 30
0.000000
  70
    32
  0
VERTEX
  8
0
  5
1466
 10
61.6822
 20
151.185
 30
0.000000
  70
    32
  0
VERTEX
  8
0
  5
1467
 10
61.6312
 20
151.131
 30
0.000000
  70
    32
  0
VERTEX
  8
0
  5
1468
 10
61.5823
 20
151.077
 30
0.000000
  70
    32
  0
VERTEX
  8
0
  5
1469
 10
61.5355
 20
151.023
 30
0.000000
  70
    32
  0
VERTEX
  8
0
  5
146A
 10
61.4908
 20
150.968
 30
0.000000
  70
    32
  0
VERTEX
  8
0
  5
146B
 10
61.4482
 20
150.914
 30
0.000000
  70
    32
  0
VERTEX
  8
0
  5
146C
 10
61.4078
 20
150.859
 30
0.000000
  70
    32
  0
VERTEX
  8
0
  5
146D
 10
61.3695
 20
150.803
 30
0.000000
  70
    32
  0
VERTEX
  8
0
  5
146E
 10
61.3334
 20
150.748
 30
0.000000
  70
    32
  0
VERTEX
  8
0
  5
146F
 10
61.2994
 20
150.692
 30
0.000000
  70
    32
  0
VERTEX
  8
0
  5
1470
 10
61.2676
 20
150.636
 30
0.000000
  70
    32
  0
VERTEX
  8
0
  5
1471
 10
61.2380
 20
150.580
 30
0.000000
  70
    32
  0
VERTEX
  8
0
  5
1472
 10
61.2105
 20
150.524
 30
0.000000
  70
    32
  0
VERTEX
  8
0
  5
1473
 10
61.1853
 20
150.467
 30
0.000000
  70
    32
  0
VERTEX
  8
0
  5
1474
 10
61.1622
 20
150.411
 30
0.000000
  70
    32
  0
VERTEX
  8
0
  5
1475
 10
61.1414
 20
150.354
 30
0.000000
  70
    32
  0
VERTEX
  8
0
  5
1476
 10
61.1227
 20
150.297
 30
0.000000
  70
    32
  0
VERTEX
  8
0
  5
1477
 10
61.1063
 20
150.240
 30
0.000000
  70
    32
  0
VERTEX
  8
0
  5
1478
 10
61.0920
 20
150.183
 30
0.000000
  70
    32
  0
VERTEX
  8
0
  5
1479
 10
61.0800
 20
150.126
 30
0.000000
  70
    32
  0
VERTEX
  8
0
  5
147A
 10
61.0702
 20
150.069
 30
0.000000
  70
    32
  0
VERTEX
  8
0
  5
147B
 10
61.0627
 20
150.012
 30
0.000000
  70
    32
  0
VERTEX
  8
0
  5
147C
 10
61.0573
 20
149.955
 30
0.000000
  70
    32
  0
VERTEX
  8
0
  5
147D
 10
61.0542
 20
149.897
 30
0.000000
  70
    32
  0
VERTEX
  8
0
  5
147E
 10
61.0533
 20
149.840
 30
0.000000
  70
    32
  0
VERTEX
  8
0
  5
147F
 10
61.0547
 20
149.783
 30
0.000000
  70
    32
  0
VERTEX
  8
0
  5
1480
 10
61.0582
 20
149.726
 30
0.000000
  70
    32
  0
VERTEX
  8
0
  5
1481
 10
61.0640
 20
149.668
 30
0.000000
  70
    32
  0
VERTEX
  8
0
  5
1482
 10
61.0720
 20
149.611
 30
0.000000
  70
    32
  0
VERTEX
  8
0
  5
1483
 10
61.0823
 20
149.554
 30
0.000000
  70
    32
  0
VERTEX
  8
0
  5
1484
 10
61.0947
 20
149.497
 30
0.000000
  70
    32
  0
VERTEX
  8
0
  5
1485
 10
61.1094
 20
149.440
 30
0.000000
  70
    32
  0
VERTEX
  8
0
  5
1486
 10
61.1263
 20
149.383
 30
0.000000
  70
    32
  0
VERTEX
  8
0
  5
1487
 10
61.1454
 20
149.326
 30
0.000000
  70
    32
  0
VERTEX
  8
0
  5
1488
 10
61.1667
 20
149.270
 30
0.000000
  70
    32
  0
VERTEX
  8
0
  5
1489
 10
61.1902
 20
149.213
 30
0.000000
  70
    32
  0
VERTEX
  8
0
  5
148A
 10
61.2159
 20
149.157
 30
0.000000
  70
    32
  0
VERTEX
  8
0
  5
148B
 10
61.2438
 20
149.101
 30
0.000000
  70
    32
  0
VERTEX
  8
0
  5
148C
 10
61.2738
 20
149.045
 30
0.000000
  70
    32
  0
VERTEX
  8
0
  5
148D
 10
61.3061
 20
148.989
 30
0.000000
  70
    32
  0
VERTEX
  8
0
  5
148E
 10
61.3405
 20
148.933
 30
0.000000
  70
    32
  0
VERTEX
  8
0
  5
148F
 10
61.3771
 20
148.878
 30
0.000000
  70
    32
  0
VERTEX
  8
0
  5
1490
 10
61.4158
 20
148.822
 30
0.000000
  70
    32
  0
VERTEX
  8
0
  5
1491
 10
61.4567
 20
148.767
 30
0.000000
  70
    32
  0
VERTEX
  8
0
  5
1492
 10
61.4997
 20
148.713
 30
0.000000
  70
    32
  0
VERTEX
  8
0
  5
1493
 10
61.5448
 20
148.658
 30
0.000000
  70
    32
  0
VERTEX
  8
0
  5
1494
 10
61.5920
 20
148.604
 30
0.000000
  70
    32
  0
VERTEX
  8
0
  5
1495
 10
61.6413
 20
148.550
 30
0.000000
  70
    32
  0
VERTEX
  8
0
  5
1496
 10
61.6928
 20
148.497
 30
0.000000
  70
    32
  0
VERTEX
  8
0
  5
1497
 10
61.7463
 20
148.443
 30
0.000000
  70
    32
  0
VERTEX
  8
0
  5
1498
 10
61.8018
 20
148.390
 30
0.000000
  70
    32
  0
VERTEX
  8
0
  5
1499
 10
61.8594
 20
148.338
 30
0.000000
  70
    32
  0
VERTEX
  8
0
  5
149A
 10
61.9191
 20
148.286
 30
0.000000
  70
    32
  0
VERTEX
  8
0
  5
149B
 10
61.9808
 20
148.234
 30
0.000000
  70
    32
  0
VERTEX
  8
0
  5
149C
 10
62.0444
 20
148.182
 30
0.000000
  70
    32
  0
VERTEX
  8
0
  5
149D
 10
62.1101
 20
148.131
 30
0.000000
  70
    32
  0
VERTEX
  8
0
  5
149E
 10
62.1778
 20
148.080
 30
0.000000
  70
    32
  0
VERTEX
  8
0
  5
149F
 10
62.2474
 20
148.030
 30
0.000000
  70
    32
  0
VERTEX
  8
0
  5
14A0
 10
62.3190
 20
147.980
 30
0.000000
  70
    32
  0
VERTEX
  8
0
  5
14A1
 10
62.3925
 20
147.931
 30
0.000000
  70
    32
  0
VERTEX
  8
0
  5
14A2
 10
62.4679
 20
147.882
 30
0.000000
  70
    32
  0
VERTEX
  8
0
  5
14A3
 10
62.5452
 20
147.833
 30
0.000000
  70
    32
  0
VERTEX
  8
0
  5
14A4
 10
62.6244
 20
147.785
 30
0.000000
  70
    32
  0
VERTEX
  8
0
  5
14A5
 10
62.7054
 20
147.738
 30
0.000000
  70
    32
  0
VERTEX
  8
0
  5
14A6
 10
62.7883
 20
147.691
 30
0.000000
  70
    32
  0
VERTEX
  8
0
  5
14A7
 10
62.8730
 20
147.644
 30
0.000000
  70
    32
  0
VERTEX
  8
0
  5
14A8
 10
62.9595
 20
147.598
 30
0.000000
  70
    32
  0
VERTEX
  8
0
  5
14A9
 10
63.0478
 20
147.552
 30
0.000000
  70
    32
  0
VERTEX
  8
0
  5
14AA
 10
63.1378
 20
147.507
 30
0.000000
  70
    32
  0
VERTEX
  8
0
  5
14AB
 10
63.2296
 20
147.463
 30
0.000000
  70
    32
  0
VERTEX
  8
0
  5
14AC
 10
63.3231
 20
147.419
 30
0.000000
  70
    32
  0
VERTEX
  8
0
  5
14AD
 10
63.4183
 20
147.376
 30
0.000000
  70
    32
  0
VERTEX
  8
0
  5
14AE
 10
63.5151
 20
147.333
 30
0.000000
  70
    32
  0
VERTEX
  8
0
  5
14AF
 10
63.6137
 20
147.291
 30
0.000000
  70
    32
  0
VERTEX
  8
0
  5
14B0
 10
63.7138
 20
147.249
 30
0.000000
  70
    32
  0
VERTEX
  8
0
  5
14B1
 10
63.8155
 20
147.209
 30
0.000000
  70
    32
  0
VERTEX
  8
0
  5
14B2
 10
63.9189
 20
147.168
 30
0.000000
  70
    32
  0
VERTEX
  8
0
  5
14B3
 10
64.0237
 20
147.129
 30
0.000000
  70
    32
  0
VERTEX
  8
0
  5
14B4
 10
64.1301
 20
147.090
 30
0.000000
  70
    32
  0
VERTEX
  8
0
  5
14B5
 10
64.2381
 20
147.051
 30
0.000000
  70
    32
  0
VERTEX
  8
0
  5
14B6
 10
64.3474
 20
147.013
 30
0.000000
  70
    32
  0
SEQEND
  8
0
  5
14B7
  0
POLYLINE
  5
F77
  8
0
 10
66.250888487322968
 20
151.41694905174117
 30
0.0
 66
     1
 70
     8
  0
VERTEX
  8
0
  5
14B8
 10
66.2509
 20
151.417
 30
0.000000
  70
    32
  0
VERTEX
  8
0
  5
14B9
 10
66.2052
 20
151.392
 30
0.000000
  70
    32
  0
VERTEX
  8
0
  5
14BA
 10
66.1605
 20
151.367
 30
0.000000
  70
    32
  0
VERTEX
  8
0
  5
14BB
 10
66.1167
 20
151.341
 30
0.000000
  70
    32
  0
VERTEX
  8
0
  5
14BC
 10
66.0738
 20
151.316
 30
0.000000
  70
    32
  0
VERTEX
  8
0
  5
14BD
 10
66.0318
 20
151.290
 30
0.000000
  70
    32
  0
VERTEX
  8
0
  5
14BE
 10
65.9908
 20
151.264
 30
0.000000
  70
    32
  0
VERTEX
  8
0
  5
14BF
 10
65.9508
 20
151.237
 30
0.000000
  70
    32
  0
VERTEX
  8
0
  5
14C0
 10
65.9117
 20
151.211
 30
0.000000
  70
    32
  0
VERTEX
  8
0
  5
14C1
 10
65.8736
 20
151.184
 30
0.000000
  70
    32
  0
VERTEX
  8
0
  5
14C2
 10
65.8365
 20
151.157
 30
0.000000
  70
    32
  0
VERTEX
  8
0
  5
14C3
 10
65.8004
 20
151.130
 30
0.000000
  70
    32
  0
VERTEX
  8
0
  5
14C4
 10
65.7653
 20
151.102
 30
0.000000
  70
    32
  0
VERTEX
  8
0
  5
14C5
 10
65.7312
 20
151.075
 30
0.000000
  70
    32
  0
VERTEX
  8
0
  5
14C6
 10
65.6981
 20
151.047
 30
0.000000
  70
    32
  0
VERTEX
  8
0
  5
14C7
 10
65.6660
 20
151.019
 30
0.000000
  70
    32
  0
VERTEX
  8
0
  5
14C8
 10
65.6350
 20
150.990
 30
0.000000
  70
    32
  0
VERTEX
  8
0
  5
14C9
 10
65.6049
 20
150.962
 30
0.000000
  70
    32
  0
VERTEX
  8
0
  5
14CA
 10
65.5760
 20
150.934
 30
0.000000
  70
    32
  0
VERTEX
  8
0
  5
14CB
 10
65.5481
 20
150.905
 30
0.000000
  70
    32
  0
VERTEX
  8
0
  5
14CC
 10
65.5212
 20
150.876
 30
0.000000
  70
    32
  0
VERTEX
  8
0
  5
14CD
 10
65.4954
 20
150.847
 30
0.000000
  70
    32
  0
VERTEX
  8
0
  5
14CE
 10
65.4706
 20
150.818
 30
0.000000
  70
    32
  0
VERTEX
  8
0
  5
14CF
 10
65.4469
 20
150.788
 30
0.000000
  70
    32
  0
VERTEX
  8
0
  5
14D0
 10
65.4243
 20
150.759
 30
0.000000
  70
    32
  0
VERTEX
  8
0
  5
14D1
 10
65.4028
 20
150.729
 30
0.000000
  70
    32
  0
VERTEX
  8
0
  5
14D2
 10
65.3823
 20
150.700
 30
0.000000
  70
    32
  0
VERTEX
  8
0
  5
14D3
 10
65.3630
 20
150.670
 30
0.000000
  70
    32
  0
VERTEX
  8
0
  5
14D4
 10
65.3447
 20
150.640
 30
0.000000
  70
    32
  0
VERTEX
  8
0
  5
14D5
 10
65.3276
 20
150.610
 30
0.000000
  70
    32
  0
VERTEX
  8
0
  5
14D6
 10
65.3115
 20
150.580
 30
0.000000
  70
    32
  0
VERTEX
  8
0
  5
14D7
 10
65.2965
 20
150.549
 30
0.000000
  70
    32
  0
VERTEX
  8
0
  5
14D8
 10
65.2826
 20
150.519
 30
0.000000
  70
    32
  0
VERTEX
  8
0
  5
14D9
 10
65.2699
 20
150.489
 30
0.000000
  70
    32
  0
VERTEX
  8
0
  5
14DA
 10
65.2582
 20
150.458
 30
0.000000
  70
    32
  0
VERTEX
  8
0
  5
14DB
 10
65.2477
 20
150.428
 30
0.000000
  70
    32
  0
VERTEX
  8
0
  5
14DC
 10
65.2383
 20
150.397
 30
0.000000
  70
    32
  0
VERTEX
  8
0
  5
14DD
 10
65.2300
 20
150.367
 30
0.000000
  70
    32
  0
VERTEX
  8
0
  5
14DE
 10
65.2228
 20
150.336
 30
0.000000
  70
    32
  0
VERTEX
  8
0
  5
14DF
 10
65.2168
 20
150.305
 30
0.000000
  70
    32
  0
VERTEX
  8
0
  5
14E0
 10
65.2118
 20
150.275
 30
0.000000
  70
    32
  0
VERTEX
  8
0
  5
14E1
 10
65.2080
 20
150.244
 30
0.000000
  70
    32
  0
VERTEX
  8
0
  5
14E2
 10
65.2053
 20
150.213
 30
0.000000
  70
    32
  0
VERTEX
  8
0
  5
14E3
 10
65.2038
 20
150.182
 30
0.000000
  70
    32
  0
VERTEX
  8
0
  5
14E4
 10
65.2033
 20
150.151
 30
0.000000
  70
    32
  0
VERTEX
  8
0
  5
14E5
 10
65.2040
 20
150.121
 30
0.000000
  70
    32
  0
VERTEX
  8
0
  5
14E6
 10
65.2058
 20
150.090
 30
0.000000
  70
    32
  0
VERTEX
  8
0
  5
14E7
 10
65.2088
 20
150.059
 30
0.000000
  70
    32
  0
VERTEX
  8
0
  5
14E8
 10
65.2128
 20
150.028
 30
0.000000
  70
    32
  0
VERTEX
  8
0
  5
14E9
 10
65.2180
 20
149.998
 30
0.000000
  70
    32
  0
VERTEX
  8
0
  5
14EA
 10
65.2243
 20
149.967
 30
0.000000
  70
    32
  0
VERTEX
  8
0
  5
14EB
 10
65.2317
 20
149.936
 30
0.000000
  70
    32
  0
VERTEX
  8
0
  5
14EC
 10
65.2403
 20
149.906
 30
0.000000
  70
    32
  0
VERTEX
  8
0
  5
14ED
 10
65.2500
 20
149.875
 30
0.000000
  70
    32
  0
VERTEX
  8
0
  5
14EE
 10
65.2607
 20
149.845
 30
0.000000
  70
    32
  0
VERTEX
  8
0
  5
14EF
 10
65.2726
 20
149.814
 30
0.000000
  70
    32
  0
VERTEX
  8
0
  5
14F0
 10
65.2856
 20
149.784
 30
0.000000
  70
    32
  0
VERTEX
  8
0
  5
14F1
 10
65.2997
 20
149.754
 30
0.000000
  70
    32
  0
VERTEX
  8
0
  5
14F2
 10
65.3150
 20
149.723
 30
0.000000
  70
    32
  0
VERTEX
  8
0
  5
14F3
 10
65.3313
 20
149.693
 30
0.000000
  70
    32
  0
VERTEX
  8
0
  5
14F4
 10
65.3487
 20
149.663
 30
0.000000
  70
    32
  0
VERTEX
  8
0
  5
14F5
 10
65.3672
 20
149.633
 30
0.000000
  70
    32
  0
VERTEX
  8
0
  5
14F6
 10
65.3868
 20
149.604
 30
0.000000
  70
    32
  0
VERTEX
  8
0
  5
14F7
 10
65.4075
 20
149.574
 30
0.000000
  70
    32
  0
VERTEX
  8
0
  5
14F8
 10
65.4293
 20
149.544
 30
0.000000
  70
    32
  0
VERTEX
  8
0
  5
14F9
 10
65.4521
 20
149.515
 30
0.000000
  70
    32
  0
VERTEX
  8
0
  5
14FA
 10
65.4760
 20
149.486
 30
0.000000
  70
    32
  0
VERTEX
  8
0
  5
14FB
 10
65.5010
 20
149.456
 30
0.000000
  70
    32
  0
VERTEX
  8
0
  5
14FC
 10
65.5271
 20
149.427
 30
0.000000
  70
    32
  0
VERTEX
  8
0
  5
14FD
 10
65.5542
 20
149.399
 30
0.000000
  70
    32
  0
VERTEX
  8
0
  5
14FE
 10
65.5823
 20
149.370
 30
0.000000
  70
    32
  0
VERTEX
  8
0
  5
14FF
 10
65.6115
 20
149.341
 30
0.000000
  70
    32
  0
VERTEX
  8
0
  5
1500
 10
65.6418
 20
149.313
 30
0.000000
  70
    32
  0
VERTEX
  8
0
  5
1501
 10
65.6731
 20
149.285
 30
0.000000
  70
    32
  0
VERTEX
  8
0
  5
1502
 10
65.7054
 20
149.257
 30
0.000000
  70
    32
  0
VERTEX
  8
0
  5
1503
 10
65.7387
 20
149.229
 30
0.000000
  70
    32
  0
VERTEX
  8
0
  5
1504
 10
65.7730
 20
149.201
 30
0.000000
  70
    32
  0
VERTEX
  8
0
  5
1505
 10
65.8084
 20
149.174
 30
0.000000
  70
    32
  0
VERTEX
  8
0
  5
1506
 10
65.8447
 20
149.147
 30
0.000000
  70
    32
  0
VERTEX
  8
0
  5
1507
 10
65.8820
 20
149.120
 30
0.000000
  70
    32
  0
VERTEX
  8
0
  5
1508
 10
65.9203
 20
149.093
 30
0.000000
  70
    32
  0
VERTEX
  8
0
  5
1509
 10
65.9596
 20
149.066
 30
0.000000
  70
    32
  0
VERTEX
  8
0
  5
150A
 10
65.9999
 20
149.040
 30
0.000000
  70
    32
  0
VERTEX
  8
0
  5
150B
 10
66.0411
 20
149.014
 30
0.000000
  70
    32
  0
VERTEX
  8
0
  5
150C
 10
66.0832
 20
148.988
 30
0.000000
  70
    32
  0
VERTEX
  8
0
  5
150D
 10
66.1263
 20
148.963
 30
0.000000
  70
    32
  0
VERTEX
  8
0
  5
150E
 10
66.1704
 20
148.937
 30
0.000000
  70
    32
  0
VERTEX
  8
0
  5
150F
 10
66.2153
 20
148.912
 30
0.000000
  70
    32
  0
VERTEX
  8
0
  5
1510
 10
66.2612
 20
148.887
 30
0.000000
  70
    32
  0
VERTEX
  8
0
  5
1511
 10
66.3079
 20
148.863
 30
0.000000
  70
    32
  0
VERTEX
  8
0
  5
1512
 10
66.3556
 20
148.838
 30
0.000000
  70
    32
  0
VERTEX
  8
0
  5
1513
 10
66.4041
 20
148.814
 30
0.000000
  70
    32
  0
VERTEX
  8
0
  5
1514
 10
66.4536
 20
148.791
 30
0.000000
  70
    32
  0
VERTEX
  8
0
  5
1515
 10
66.5038
 20
148.767
 30
0.000000
  70
    32
  0
VERTEX
  8
0
  5
1516
 10
66.5550
 20
148.744
 30
0.000000
  70
    32
  0
VERTEX
  8
0
  5
1517
 10
66.6069
 20
148.721
 30
0.000000
  70
    32
  0
VERTEX
  8
0
  5
1518
 10
66.6597
 20
148.699
 30
0.000000
  70
    32
  0
VERTEX
  8
0
  5
1519
 10
66.7133
 20
148.676
 30
0.000000
  70
    32
  0
VERTEX
  8
0
  5
151A
 10
66.7678
 20
148.654
 30
0.000000
  70
    32
  0
VERTEX
  8
0
  5
151B
 10
66.8230
 20
148.633
 30
0.000000
  70
    32
  0
VERTEX
  8
0
  5
151C
 10
66.8790
 20
148.612
 30
0.000000
  70
    32
  0
VERTEX
  8
0
  5
151D
 10
66.9358
 20
148.591
 30
0.000000
  70
    32
  0
VERTEX
  8
0
  5
151E
 10
66.9933
 20
148.570
 30
0.000000
  70
    32
  0
VERTEX
  8
0
  5
151F
 10
67.0516
 20
148.550
 30
0.000000
  70
    32
  0
VERTEX
  8
0
  5
1520
 10
67.1106
 20
148.530
 30
0.000000
  70
    32
  0
VERTEX
  8
0
  5
1521
 10
67.1703
 20
148.510
 30
0.000000
  70
    32
  0
VERTEX
  8
0
  5
1522
 10
67.2308
 20
148.491
 30
0.000000
  70
    32
  0
VERTEX
  8
0
  5
1523
 10
67.2920
 20
148.472
 30
0.000000
  70
    32
  0
VERTEX
  8
0
  5
1524
 10
67.3538
 20
148.453
 30
0.000000
  70
    32
  0
VERTEX
  8
0
  5
1525
 10
67.4163
 20
148.435
 30
0.000000
  70
    32
  0
VERTEX
  8
0
  5
1526
 10
67.4795
 20
148.417
 30
0.000000
  70
    32
  0
VERTEX
  8
0
  5
1527
 10
67.5433
 20
148.399
 30
0.000000
  70
    32
  0
VERTEX
  8
0
  5
1528
 10
67.6078
 20
148.382
 30
0.000000
  70
    32
  0
VERTEX
  8
0
  5
1529
 10
67.6728
 20
148.366
 30
0.000000
  70
    32
  0
VERTEX
  8
0
  5
152A
 10
67.7385
 20
148.349
 30
0.000000
  70
    32
  0
VERTEX
  8
0
  5
152B
 10
67.8048
 20
148.333
 30
0.000000
  70
    32
  0
VERTEX
  8
0
  5
152C
 10
67.8716
 20
148.318
 30
0.000000
  70
    32
  0
VERTEX
  8
0
  5
152D
 10
67.9390
 20
148.302
 30
0.000000
  70
    32
  0
VERTEX
  8
0
  5
152E
 10
68.0070
 20
148.288
 30
0.000000
  70
    32
  0
VERTEX
  8
0
  5
152F
 10
68.0755
 20
148.273
 30
0.000000
  70
    32
  0
VERTEX
  8
0
  5
1530
 10
68.1445
 20
148.259
 30
0.000000
  70
    32
  0
VERTEX
  8
0
  5
1531
 10
68.2140
 20
148.245
 30
0.000000
  70
    32
  0
VERTEX
  8
0
  5
1532
 10
68.2840
 20
148.232
 30
0.000000
  70
    32
  0
VERTEX
  8
0
  5
1533
 10
68.3545
 20
148.219
 30
0.000000
  70
    32
  0
VERTEX
  8
0
  5
1534
 10
68.4255
 20
148.207
 30
0.000000
  70
    32
  0
VERTEX
  8
0
  5
1535
 10
68.4969
 20
148.195
 30
0.000000
  70
    32
  0
VERTEX
  8
0
  5
1536
 10
68.5687
 20
148.183
 30
0.000000
  70
    32
  0
VERTEX
  8
0
  5
1537
 10
68.6410
 20
148.172
 30
0.000000
  70
    32
  0
VERTEX
  8
0
  5
1538
 10
68.7136
 20
148.161
 30
0.000000
  70
    32
  0
SEQEND
  8
0
  5
1539
  0
LINE
  5
F78
  8
0
 10
66.250888487322953
 20
153.2855544955905
 30
0.0
 11
74.850888487322933
 21
153.28555449559039
 31
0.0
  0
INSERT
  5
F8E
  8
3
  6
CONTINUOUS
  2
*X2
 10
0.0
 20
0.0
 30
0.0
1001
ACAD
1000
HATCH
1002
{
1070
    19
1000
ANSI31
1040
10.0
1040
0.0
1000
R14_HATCH_DATA
1000
F8E
1011
1.0
1021
0.0
1031
0.0
1021
0.0
1031
0.0
1011
0.0
1021
0.0
1031
0.0
1021
1.0
1031
0.0
1011
0.0
1021
0.0
1031
0.0
1021
0.0
1031
1.0
1040
0.0
1010
0.0
1020
0.0
1030
1.0
1000
ANSI31
1070
     0
1070
     0
1071
        1
1071
        1
1071
        4
1070
     1
1040
74.850888487322933
1040
153.28555449559039
1040
74.850888487322933
1040
158.28555449559039
1070
     1
1040
74.850888487322962
1040
158.28555449559039
1040
66.250888487322896
1040
158.2855544955905
1070
     1
1040
66.25088848732301
1040
158.2855544955905
1040
66.250888487322982
1040
153.2855544955905
1070
     1
1040
66.250888487322953
1040
153.2855544955905
1040
74.850888487322933
1040
153.28555449559039
1071
        0
1070
     0
1070
     1
1040
0.0
1040
10.0
1070
     0
1070
     1
1040
0.7853981633974483
1040
-23.735096961741991
1040
10.0
1040
-0.8838834764831842
1040
0.8838834764831844
1070
     0
1071
        1
1040
-23.735096961741991
1040
10.0
1040
0.0
1002
}
  0
INSERT
  5
F8F
  8
3
  6
CONTINUOUS
  2
*X3
 10
0.0
 20
0.0
 30
0.0
1001
ACAD
1000
HATCH
1002
{
1070
    19
1000
ANSI31
1040
10.0
1040
0.0
1000
R14_HATCH_DATA
1000
F8F
1011
1.0
1021
0.0
1031
0.0
1021
0.0
1031
0.0
1011
0.0
1021
0.0
1031
0.0
1021
1.0
1031
0.0
1011
0.0
1021
0.0
1031
0.0
1021
0.0
1031
1.0
1040
0.0
1010
0.0
1020
0.0
1030
1.0
1000
ANSI31
1070
     0
1070
     0
1071
        1
1071
        1
1071
        4
1070
     1
1040
66.250888487322939
1040
153.28555449559039
1040
66.250888487322939
1040
158.28555449559039
1070
     1
1040
66.250888487322911
1040
158.28555449559039
1040
74.850888487322976
1040
158.2855544955905
1070
     1
1040
74.850888487322862
1040
158.2855544955905
1040
74.850888487322891
1040
153.2855544955905
1070
     1
1040
74.850888487322905
1040
153.2855544955905
1040
66.250888487322939
1040
153.28555449559039
1071
        0
1070
     0
1070
     1
1040
0.0
1040
10.0
1070
     0
1070
     1
1040
2.3561944901923439
1040
164.8368739363878
1040
10.0
1040
0.8838834764831842
1040
0.8838834764831844
1070
     0
1071
        1
1040
164.8368739363878
1040
10.0
1040
0.0
1002
}
  0
LINE
  5
104B
  8
3
 10
73.874388487323003
 20
119.2855544955904
 30
0.0
 11
73.874388487323003
 21
97.809054495590544
 31
0.0
  0
LINE
  5
104C
  8
0
 10
74.550888487322936
 20
122.2855544955905
 30
0.0
 11
74.550888487322837
 21
98.485554495590378
 31
0.0
  0
LINE
  5
104D
  8
0
 10
74.550888487322936
 20
98.485554495590407
 30
0.0
 11
66.550888487322879
 21
98.485554495590463
 31
0.0
  0
LINE
  5
104E
  8
0
 10
74.550888487322865
 20
98.485554495590407
 30
0.0
 11
73.350888487322891
 21
97.285554495590418
 31
0.0
  0
LINE
  5
104F
  8
0
 10
74.550888487322936
 20
119.2855544955904
 30
0.0
 11
66.550888487322879
 21
119.2855544955905
 31
0.0
  0
LINE
  5
1050
  8
3
 10
73.874388487323003
 20
119.2855544955904
 30
0.0
 11
74.550888487322936
 21
120.45728686691049
 31
0.0
  0
LINE
  5
1051
  8
0
 10
66.550888487322936
 20
122.2855544955905
 30
0.0
 11
66.550888487322851
 21
98.48555449559052
 31
0.0
  0
LINE
  5
1052
  8
3
 10
67.227388487322798
 20
119.2855544955905
 30
0.0
 11
67.227388487322798
 21
97.809054495590573
 31
0.0
  0
LINE
  5
1053
  8
0
 10
73.350888487322891
 20
97.285554495590418
 30
0.0
 11
67.750888487322925
 21
97.285554495590475
 31
0.0
  0
LINE
  5
1054
  8
0
 10
67.750888487322925
 20
97.285554495590475
 30
0.0
 11
66.550888487322879
 21
98.485554495590463
 31
0.0
  0
LINE
  5
1055
  8
3
 10
67.227388487322798
 20
119.2855544955904
 30
0.0
 11
66.550888487322936
 21
120.45728686691049
 31
0.0
  0
LINE
  5
1056
  8
3
 10
139.0347288941955
 20
119.2855544955904
 30
0.0
 11
138.35822889419569
 21
120.45728686691049
 31
0.0
  0
LINE
  5
1057
  8
0
 10
139.55822889419571
 20
97.285554495590475
 30
0.0
 11
138.35822889419561
 21
98.485554495590463
 31
0.0
  0
LINE
  5
1058
  8
0
 10
145.15822889419559
 20
97.285554495590418
 30
0.0
 11
139.55822889419571
 21
97.285554495590475
 31
0.0
  0
LINE
  5
1059
  8
3
 10
139.0347288941955
 20
119.2855544955905
 30
0.0
 11
139.03472889419561
 21
97.809054495590544
 31
0.0
  0
LINE
  5
105A
  8
0
 10
138.35822889419569
 20
122.2855544955905
 30
0.0
 11
138.35822889419561
 21
98.485554495590435
 31
0.0
  0
LINE
  5
105B
  8
3
 10
145.68172889419569
 20
119.2855544955904
 30
0.0
 11
146.35822889419569
 21
120.45728686691049
 31
0.0
  0
LINE
  5
105C
  8
0
 10
146.35822889419569
 20
119.2855544955904
 30
0.0
 11
138.35822889419561
 21
119.2855544955905
 31
0.0
  0
LINE
  5
105D
  8
0
 10
146.35822889419561
 20
98.485554495590407
 30
0.0
 11
145.15822889419559
 21
97.285554495590418
 31
0.0
  0
LINE
  5
105E
  8
0
 10
146.35822889419569
 20
98.485554495590407
 30
0.0
 11
138.35822889419561
 21
98.485554495590463
 31
0.0
  0
LINE
  5
105F
  8
0
 10
146.35822889419569
 20
122.2855544955905
 30
0.0
 11
146.35822889419549
 21
98.485554495590335
 31
0.0
  0
LINE
  5
1060
  8
3
 10
145.68172889419569
 20
119.2855544955904
 30
0.0
 11
145.68172889419569
 21
97.80905449559053
 31
0.0
  0
LINE
  5
1063
  8
3
 10
264.90959146906192
 20
119.2855544955904
 30
0.0
 11
264.90959146906192
 21
97.809054495590573
 31
0.0
  0
LINE
  5
1064
  8
0
 10
265.58609146906178
 20
122.2855544955905
 30
0.0
 11
265.58609146906173
 21
98.485554495590364
 31
0.0
  0
LINE
  5
1065
  8
0
 10
265.58609146906178
 20
98.485554495590407
 30
0.0
 11
257.58609146906173
 21
98.485554495590463
 31
0.0
  0
LINE
  5
1066
  8
0
 10
265.58609146906173
 20
98.485554495590407
 30
0.0
 11
264.3860914690618
 21
97.285554495590418
 31
0.0
  0
LINE
  5
1067
  8
0
 10
265.58609146906178
 20
119.2855544955904
 30
0.0
 11
257.58609146906173
 21
119.2855544955905
 31
0.0
  0
LINE
  5
1068
  8
3
 10
264.90959146906192
 20
119.2855544955904
 30
0.0
 11
265.58609146906178
 21
120.45728686691049
 31
0.0
  0
LINE
  5
1069
  8
0
 10
257.58609146906178
 20
122.2855544955905
 30
0.0
 11
257.58609146906173
 21
98.48555449559052
 31
0.0
  0
LINE
  5
106A
  8
3
 10
258.26259146906159
 20
119.2855544955905
 30
0.0
 11
258.26259146906159
 21
97.809054495590544
 31
0.0
  0
LINE
  5
106B
  8
0
 10
264.3860914690618
 20
97.285554495590418
 30
0.0
 11
258.78609146906177
 21
97.285554495590475
 31
0.0
  0
LINE
  5
106C
  8
0
 10
258.78609146906177
 20
97.285554495590475
 30
0.0
 11
257.58609146906173
 21
98.485554495590463
 31
0.0
  0
LINE
  5
106D
  8
3
 10
258.26259146906159
 20
119.2855544955904
 30
0.0
 11
257.58609146906178
 21
120.45728686691049
 31
0.0
  0
CIRCLE
  5
1071
  8
3
 10
142.35822889419569
 20
52.785554495590468
 30
0.0
 40
3.3235000000001089
  0
TEXT
  5
1173
  8
0
 62
     3
 10
0.0
 20
0.0
 30
0.0
 40
10.0
  1
FKRT8X25-BR
  7
STANDARD1
  0
ENDSEC
  0
EOF
