  0
SECTION
  2
HEADER
  9
$ACADVER
  1
AC1009
  9
$INSBASE
 10
0.0
 20
0.0
 30
0.0
  9
$EXTMIN
 10
0.0
 20
-2.960436562073669
 30
0.0
  9
$EXTMAX
 10
285.020736403608
 20
224.23534860891721
 30
0.0
  9
$LIMMIN
 10
0.0
 20
0.0
  9
$LIMMAX
 10
187.5
 20
135.0
  9
$ORTHOMODE
 70
     1
  9
$REGENMODE
 70
     1
  9
$FILLMODE
 70
     1
  9
$QTEXTMODE
 70
     0
  9
$MIRRTEXT
 70
     0
  9
$DRAGMODE
 70
     2
  9
$LTSCALE
 40
10.0
  9
$OSMODE
 70
    55
  9
$ATTMODE
 70
     1
  9
$TEXTSIZE
 40
4.0
  9
$TRACEWID
 40
0.05
  9
$TEXTSTYLE
  7
STANDARD
  9
$CLAYER
  8
0
  9
$CELTYPE
  6
BYLAYER
  9
$CECOLOR
 62
   256
  9
$DIMSCALE
 40
0.5
  9
$DIMASZ
 40
3.0
  9
$DIMEXO
 40
2.0
  9
$DIMDLI
 40
0.38
  9
$DIMRND
 40
0.0
  9
$DIMDLE
 40
0.0
  9
$DIMEXE
 40
2.0
  9
$DIMTP
 40
0.0
  9
$DIMTM
 40
0.0
  9
$DIMTXT
 40
3.0
  9
$DIMCEN
 40
0.0
  9
$DIMTSZ
 40
0.0
  9
$DIMTOL
 70
     0
  9
$DIMLIM
 70
     0
  9
$DIMTIH
 70
     0
  9
$DIMTOH
 70
     0
  9
$DIMSE1
 70
     0
  9
$DIMSE2
 70
     0
  9
$DIMTAD
 70
     1
  9
$DIMZIN
 70
     0
  9
$DIMBLK
  1

  9
$DIMASO
 70
     0
  9
$DIMSHO
 70
     0
  9
$DIMPOST
  1

  9
$DIMAPOST
  1

  9
$DIMALT
 70
     0
  9
$DIMALTD
 70
     2
  9
$DIMALTF
 40
25.399999999999999
  9
$DIMLFAC
 40
1.0
  9
$DIMTOFL
 70
     0
  9
$DIMTVP
 40
1.6000000000000001
  9
$DIMTIX
 70
     1
  9
$DIMSOXD
 70
     0
  9
$DIMSAH
 70
     0
  9
$DIMBLK1
  1

  9
$DIMBLK2
  1

  9
$DIMSTYLE
  2
STANDARD
  9
$DIMCLRD
 70
     0
  9
$DIMCLRE
 70
     0
  9
$DIMCLRT
 70
     0
  9
$DIMTFAC
 40
1.0
  9
$DIMGAP
 40
0.09
  9
$LUNITS
 70
     2
  9
$LUPREC
 70
     4
  9
$SKETCHINC
 40
0.1
  9
$FILLETRAD
 40
1.25
  9
$AUNITS
 70
     0
  9
$AUPREC
 70
     0
  9
$MENU
  1
E:\r13\win\SUPPORT\ACAD
  9
$ELEVATION
 40
0.0
  9
$PELEVATION
 40
0.0
  9
$THICKNESS
 40
0.0
  9
$LIMCHECK
 70
     0
  9
$BLIPMODE
 70
     0
  9
$CHAMFERA
 40
1.0
  9
$CHAMFERB
 40
1.0
  9
$SKPOLY
 70
     0
  9
$TDCREATE
 40
2449840.6143865739
  9
$TDUPDATE
 40
2456598.662068102
  9
$TDINDWG
 40
0.2616716319
  9
$TDUSRTIMER
 40
0.2616716319
  9
$USRTIMER
 70
     1
  9
$ANGBASE
 50
0.0
  9
$ANGDIR
 70
     0
  9
$PDMODE
 70
     0
  9
$PDSIZE
 40
0.0
  9
$PLINEWID
 40
0.0
  9
$COORDS
 70
     1
  9
$SPLFRAME
 70
     0
  9
$SPLINETYPE
 70
     6
  9
$SPLINESEGS
 70
     8
  9
$ATTDIA
 70
     0
  9
$ATTREQ
 70
     1
  9
$HANDLING
 70
     1
  9
$HANDSEED
  5
166C
  9
$SURFTAB1
 70
     6
  9
$SURFTAB2
 70
     6
  9
$SURFTYPE
 70
     6
  9
$SURFU
 70
     6
  9
$SURFV
 70
     6
  9
$UCSNAME
  2

  9
$UCSORG
 10
0.0
 20
0.0
 30
0.0
  9
$UCSXDIR
 10
1.0
 20
0.0
 30
0.0
  9
$UCSYDIR
 10
0.0
 20
1.0
 30
0.0
  9
$PUCSNAME
  2

  9
$PUCSORG
 10
0.0
 20
0.0
 30
0.0
  9
$PUCSXDIR
 10
1.0
 20
0.0
 30
0.0
  9
$PUCSYDIR
 10
0.0
 20
1.0
 30
0.0
  9
$USERI1
 70
     0
  9
$USERI2
 70
     1
  9
$USERI3
 70
     1
  9
$USERI4
 70
     0
  9
$USERI5
 70
     0
  9
$USERR1
 40
0.0
  9
$USERR2
 40
0.0
  9
$USERR3
 40
0.0
  9
$USERR4
 40
0.0
  9
$USERR5
 40
0.0
  9
$WORLDVIEW
 70
     1
  9
$SHADEDGE
 70
     3
  9
$SHADEDIF
 70
    70
  9
$TILEMODE
 70
     1
  9
$MAXACTVP
 70
    16
  9
$PLIMCHECK
 70
     0
  9
$PEXTMIN
 10
1.0000000000000000E+020
 20
1.0000000000000000E+020
 30
1.0000000000000000E+020
  9
$PEXTMAX
 10
-1.0000000000000000E+020
 20
-1.0000000000000000E+020
 30
-1.0000000000000000E+020
  9
$PLIMMIN
 10
0.0
 20
0.0
  9
$PLIMMAX
 10
12.0
 20
9.0
  9
$UNITMODE
 70
     0
  9
$VISRETAIN
 70
     0
  9
$PLINEGEN
 70
     0
  9
$PSLTSCALE
 70
     0
  0
ENDSEC
  0
SECTION
  2
TABLES
  0
TABLE
  2
VPORT
 70
     1
  0
VPORT
  2
*ACTIVE
 70
     0
 10
0.0
 20
0.0
 11
1.0
 21
1.0
 12
142.51036886541959
 22
145.10025328169709
 13
0.0
 23
0.0
 14
5.0
 24
5.0
 15
5.0
 25
5.0
 16
0.0
 26
0.0
 36
1.0
 17
0.0
 27
0.0
 37
0.0
 40
298.74508443704741
 41
1.7807262569832401
 42
50.0
 43
0.0
 44
0.0
 50
0.0
 51
0.0
 71
     0
 72
   100
 73
     1
 74
     0
 75
     0
 76
     0
 77
     0
 78
     0
  0
ENDTAB
  0
TABLE
  2
LTYPE
 70
     3
  0
LTYPE
  2
CONTINUOUS
 70
     0
  3
Solid Line
 72
    65
 73
     0
 40
0.0
  0
LTYPE
  2
CENTER
 70
     0
  3
____ _ ____ _ ____ _ ____ _ ____ _ ____ _ ____
 72
    65
 73
     4
 40
2.0
 49
1.25
 49
-0.25
 49
0.25
 49
-0.25
  0
LTYPE
  2
PHANTOM2
 70
     0
  3
___ _ _ ___ _ _ ___ _ _ ___ _ _
 72
    65
 73
     6
 40
1.25
 49
0.625
 49
-0.125
 49
0.125
 49
-0.125
 49
0.125
 49
-0.125
  0
ENDTAB
  0
TABLE
  2
LAYER
 70
     3
  0
LAYER
  2
0
 70
     0
 62
     7
  6
CONTINUOUS
  0
LAYER
  2
1
 70
     0
 62
     1
  6
CENTER
  0
LAYER
  2
3
 70
     0
 62
     3
  6
CONTINUOUS
  0
ENDTAB
  0
TABLE
  2
STYLE
 70
     2
  0
STYLE
  2
STANDARD
 70
     0
 40
0.0
 41
1.0
 50
0.0
 71
     0
 42
4.0
  3
TXT
  4
BIGFONT
  0
STYLE
  2
STANDARD1
 70
     0
 40
0.0
 41
1.0
 50
0.0
 71
     0
 42
3.0
  3
txt
  4

  0
ENDTAB
  0
TABLE
  2
VIEW
 70
     1
  0
VIEW
  2
ALL
 70
     0
 40
179.66152299999999
 10
141.903918
 20
89.830760999999995
 41
0.0
 11
0.0
 21
0.0
 31
1.0
 12
0.0
 22
0.0
 32
0.0
 42
0.0
 43
0.0
 44
0.0
 50
0.0
 71
     0
  0
ENDTAB
  0
TABLE
  2
UCS
 70
     0
  0
ENDTAB
  0
TABLE
  2
APPID
 70
     4
  0
APPID
  2
ACAD
 70
     0
  0
APPID
  2
DCO15
 70
     0
  0
APPID
  2
ACAD_MLEADERVER
 70
     0
  0
APPID
  2
ACAD_NAV_VCDISPLAY
 70
     0
  0
ENDTAB
  0
TABLE
  2
DIMSTYLE
 70
     1
  0
DIMSTYLE
  2
STANDARD
 70
     0
  3

  4

  5

  6

  7

 40
1.0
 41
0.18
 42
0.0625
 43
0.38
 44
0.18
 45
0.0
 46
0.0
 47
0.0
 48
0.0
140
0.18
141
0.09
142
0.0
143
25.399999999999999
144
1.0
145
0.0
146
1.0
147
0.09
 71
     0
 72
     0
 73
     1
 74
     1
 75
     0
 76
     0
 77
     0
 78
     0
170
     0
171
     2
172
     0
173
     0
174
     0
175
     0
176
     0
177
     0
178
     0
  0
ENDTAB
  0
ENDSEC
  0
SECTION
  2
BLOCKS
  0
BLOCK
  8
0
  2
$MODEL_SPACE
 70
     0
 10
0.0
 20
0.0
 30
0.0
  3
$MODEL_SPACE
  1

  0
ENDBLK
  5
1BD
  8
0
  0
BLOCK
 67
     1
  8
0
  2
$PAPER_SPACE
 70
     0
 10
0.0
 20
0.0
 30
0.0
  3
$PAPER_SPACE
  1

  0
ENDBLK
  5
1BB
 67
     1
  8
0
  0
BLOCK
  8
0
  2
*X0
 70
     1
 10
0.0
 20
0.0
 30
0.0
  3
*X0
  1

  0
LINE
  5
1483
  8
0
 62
     0
 10
139.04247914709001
 20
155.73534860891741
 30
0.0
 11
139.10291659005509
 21
155.79578605188249
 31
0.0
  0
LINE
  5
1484
  8
0
 62
     0
 10
136.9211588035302
 20
155.73534860891729
 30
0.0
 11
139.10291659005509
 21
157.91710639544209
 31
0.0
  0
LINE
  5
1485
  8
0
 62
     0
 10
134.79983845997049
 20
155.73534860891729
 30
0.0
 11
139.10291659005509
 21
160.03842673900181
 31
0.0
  0
LINE
  5
1486
  8
0
 62
     0
 10
132.67851811641091
 20
155.73534860891721
 30
0.0
 11
138.1785181164108
 21
161.23534860891721
 31
0.0
  0
LINE
  5
1487
  8
0
 62
     0
 10
130.5571977728512
 20
155.73534860891721
 30
0.0
 11
136.0571977728512
 21
161.23534860891721
 31
0.0
  0
LINE
  5
1488
  8
0
 62
     0
 10
128.50291659005509
 20
155.80238776968071
 30
0.0
 11
133.43587742929151
 21
160.73534860891721
 31
0.0
  0
LINE
  5
1489
  8
0
 62
     0
 10
128.50291659005509
 20
157.92370811324031
 30
0.0
 11
131.81455708573191
 21
161.23534860891721
 31
0.0
  0
LINE
  5
148A
  8
0
 62
     0
 10
128.50291659005509
 20
160.0450284568
 30
0.0
 11
129.6932367421723
 21
161.23534860891721
 31
0.0
  0
ENDBLK
  5
148C
  8
0
  0
BLOCK
  8
0
  2
*X1
 70
     1
 10
0.0
 20
0.0
 30
0.0
  3
*X1
  1

  0
LINE
  5
148E
  8
0
 62
     0
 10
139.10291659005509
 20
160.04502845679991
 30
0.0
 11
137.91259643793779
 21
161.23534860891721
 31
0.0
  0
LINE
  5
148F
  8
0
 62
     0
 10
139.10291659005509
 20
157.92370811324031
 30
0.0
 11
135.79127609437819
 21
161.23534860891721
 31
0.0
  0
LINE
  5
1490
  8
0
 62
     0
 10
139.10291659005509
 20
155.80238776968059
 30
0.0
 11
134.1699557508185
 21
160.73534860891721
 31
0.0
  0
LINE
  5
1491
  8
0
 62
     0
 10
137.04863540725901
 20
155.73534860891721
 30
0.0
 11
131.5486354072589
 21
161.23534860891721
 31
0.0
  0
LINE
  5
1492
  8
0
 62
     0
 10
134.92731506369921
 20
155.73534860891721
 30
0.0
 11
129.4273150636993
 21
161.23534860891721
 31
0.0
  0
LINE
  5
1493
  8
0
 62
     0
 10
132.80599472013961
 20
155.73534860891729
 30
0.0
 11
128.50291659005509
 21
160.03842673900169
 31
0.0
  0
LINE
  5
1494
  8
0
 62
     0
 10
130.68467437657989
 20
155.73534860891729
 30
0.0
 11
128.50291659005509
 21
157.91710639544209
 31
0.0
  0
LINE
  5
1495
  8
0
 62
     0
 10
128.56335403302009
 20
155.73534860891741
 30
0.0
 11
128.50291659005509
 21
155.79578605188249
 31
0.0
  0
ENDBLK
  5
1497
  8
0
  0
BLOCK
  8
0
  2
*X2
 70
     1
 10
0.0
 20
0.0
 30
0.0
  3
*X2
  1

  0
LINE
  5
1499
  8
0
 62
     0
 10
63.636351278307423
 20
155.73534860891741
 30
0.0
 11
64.146091590167032
 21
156.24508892077699
 31
0.0
  0
LINE
  5
149A
  8
0
 62
     0
 10
61.515030934747713
 20
155.73534860891729
 30
0.0
 11
64.146091590167003
 21
158.3664092643366
 31
0.0
  0
LINE
  5
149B
  8
0
 62
     0
 10
59.393710591188032
 20
155.73534860891729
 30
0.0
 11
64.146091590167032
 21
160.48772960789631
 31
0.0
  0
LINE
  5
149C
  8
0
 62
     0
 10
57.272390247628351
 20
155.73534860891721
 30
0.0
 11
62.772390247628358
 21
161.23534860891721
 31
0.0
  0
LINE
  5
149D
  8
0
 62
     0
 10
55.151069904068649
 20
155.73534860891721
 30
0.0
 11
60.65106990406872
 21
161.23534860891721
 31
0.0
  0
LINE
  5
149E
  8
0
 62
     0
 10
53.546091590167002
 20
156.2516906385751
 30
0.0
 11
58.529749560509032
 21
161.23534860891721
 31
0.0
  0
LINE
  5
149F
  8
0
 62
     0
 10
53.546091590167023
 20
158.37301098213479
 30
0.0
 11
56.408429216949372
 21
161.23534860891709
 31
0.0
  0
LINE
  5
14A0
  8
0
 62
     0
 10
53.546091590167023
 20
160.4943313256945
 30
0.0
 11
54.287108873389691
 21
161.23534860891709
 31
0.0
  0
ENDBLK
  5
14A2
  8
0
  0
BLOCK
  8
0
  2
*X3
 70
     1
 10
0.0
 20
0.0
 30
0.0
  3
*X3
  1

  0
LINE
  5
14A4
  8
0
 62
     0
 10
64.146091590167032
 20
160.4943313256945
 30
0.0
 11
63.405074306944378
 21
161.23534860891709
 31
0.0
  0
LINE
  5
14A5
  8
0
 62
     0
 10
64.14609159016706
 20
158.37301098213479
 30
0.0
 11
61.283753963384733
 21
161.23534860891709
 31
0.0
  0
LINE
  5
14A6
  8
0
 62
     0
 10
64.146091590167046
 20
156.25169063857521
 30
0.0
 11
59.162433619825038
 21
161.23534860891721
 31
0.0
  0
LINE
  5
14A7
  8
0
 62
     0
 10
62.541113276265399
 20
155.73534860891721
 30
0.0
 11
57.041113276265342
 21
161.23534860891721
 31
0.0
  0
LINE
  5
14A8
  8
0
 62
     0
 10
60.419792932705747
 20
155.73534860891721
 30
0.0
 11
54.919792932705711
 21
161.23534860891721
 31
0.0
  0
LINE
  5
14A9
  8
0
 62
     0
 10
58.298472589146058
 20
155.73534860891721
 30
0.0
 11
53.546091590167023
 21
160.48772960789631
 31
0.0
  0
LINE
  5
14AA
  8
0
 62
     0
 10
56.17715224558637
 20
155.73534860891729
 30
0.0
 11
53.546091590167009
 21
158.3664092643366
 31
0.0
  0
LINE
  5
14AB
  8
0
 62
     0
 10
54.055831902026682
 20
155.73534860891741
 30
0.0
 11
53.546091590167023
 21
156.24508892077699
 31
0.0
  0
ENDBLK
  5
14AD
  8
0
  0
ENDSEC
  0
SECTION
  2
ENTITIES
  0
LINE
  5
104A
  8
0
 10
123.3029165900551
 20
143.85425544522371
 30
0.0
 11
123.3029165900551
 21
125.23534860891721
 31
0.0
  0
LINE
  5
104B
  8
0
 10
144.3029165900551
 20
125.23534860891721
 30
0.0
 11
144.3029165900551
 21
139.23534860891721
 31
0.0
  0
LINE
  5
104C
  8
0
 10
200.18584919388761
 20
157.29534860891721
 30
0.0
 11
190.1473987443988
 21
157.29534860891721
 31
0.0
  0
LINE
  5
104D
  8
0
 10
208.57246291992061
 20
159.56665518420101
 30
0.0
 11
203.574102164257
 21
157.88452094400941
 31
0.0
  0
LINE
  5
104E
  8
0
 10
144.3029165900551
 20
125.23534860891721
 30
0.0
 11
123.3029165900551
 21
125.23534860891721
 31
0.0
  0
LINE
  5
104F
  8
1
 10
133.8029165900551
 20
167.23534860891721
 30
0.0
 11
133.8029165900551
 21
85.235348608917249
 31
0.0
  0
LINE
  5
1051
  8
0
 10
141.8129165900551
 20
115.23534860891721
 30
0.0
 11
141.8129165900551
 21
125.23534860891721
 31
0.0
  0
LINE
  5
1052
  8
0
 10
125.8129165900551
 20
125.23534860891721
 30
0.0
 11
125.8129165900551
 21
115.23534860891721
 31
0.0
  0
LINE
  5
1054
  8
0
 10
125.8129165900551
 20
115.23534860891721
 30
0.0
 11
141.8129165900551
 21
115.23534860891721
 31
0.0
  0
ARC
  5
1062
  8
0
 10
234.518670200706
 20
-99.254769338536335
 30
0.0
 40
270.0
 50
94.957086921350097
 51
113.6996745048306
  0
LINE
  5
1063
  8
0
 10
211.18807983922849
 20
169.73534860891721
 30
0.0
 11
211.8029165900551
 21
169.73534860891721
 31
0.0
  0
LINE
  5
1064
  8
0
 10
213.8029165900551
 20
167.73534860891721
 30
0.0
 11
213.8029165900551
 21
165.63139876505491
 31
0.0
  0
ARC
  5
1065
  8
0
 10
211.8029165900551
 20
167.73534860891721
 30
0.0
 40
2.0
 50
0.0
 51
90.0
  0
ARC
  5
1066
  8
0
 10
127.8029165900551
 20
143.85425544522371
 30
0.0
 40
4.5
 50
113.6996745048306
 51
180.0
  0
ARC
  5
1067
  8
0
 10
261.10057345236322
 20
-87.424585895623068
 30
0.0
 40
255.0
 50
106.4878909565075
 51
117.2600616186912
  0
ARC
  5
1068
  8
0
 10
190.1473987443988
 20
152.29534860891721
 30
0.0
 40
5.0
 50
90.0
 51
106.48789095650569
  0
ARC
  5
1069
  8
0
 10
206.3854053926789
 20
166.74069026723029
 30
0.0
 40
7.5
 50
286.95422943661129
 51
351.49443138030267
  0
CIRCLE
  5
106B
  8
0
 10
133.8029165900551
 20
208.23534860891721
 30
0.0
 40
5.2999999999999989
  0
CIRCLE
  5
1078
  8
0
 10
134.754505348506
 20
208.23534860891721
 30
0.0
 40
6.5992762682978654
  0
LINE
  5
1079
  8
1
 10
133.8029165900551
 20
224.23534860891721
 30
0.0
 11
133.8029165900551
 21
192.23534860891721
 31
0.0
  0
LINE
  5
107A
  8
1
 10
218.8029165900551
 20
208.23534860891721
 30
0.0
 11
118.2929165900551
 21
208.23534860891721
 31
0.0
  0
ARC
  5
107B
  8
0
 10
133.8029165900551
 20
208.23534860891721
 30
0.0
 40
11.0
 50
197.3414428027593
 51
297.66428518543768
  0
ARC
  5
107C
  8
0
 10
208.3029165900551
 20
208.23534860891721
 30
0.0
 40
5.5
 50
270.0
 51
90.0
  0
ARC
  5
107D
  8
0
 10
156.8719798819219
 20
264.64017341729749
 30
0.0
 40
50.0
 50
248.9466271382876
 51
278.79596523459998
  0
LINE
  5
107E
  8
0
 10
208.3029165900551
 20
213.73534860891721
 30
0.0
 11
165.46297563547949
 21
215.28375726052479
 31
0.0
  0
ARC
  5
107F
  8
0
 10
165.2823733525594
 20
210.28702004355981
 30
0.0
 40
5.0
 50
87.929999999999524
 51
98.795965234600004
  0
LINE
  5
1080
  8
0
 10
208.3029165900551
 20
202.73534860891721
 30
0.0
 11
165.46297563547949
 21
201.18693995730959
 31
0.0
  0
ARC
  5
1081
  8
0
 10
156.8719798819219
 20
151.83052380053689
 30
0.0
 40
50.0
 50
81.204034765399996
 51
111.0533728617124
  0
ARC
  5
1082
  8
0
 10
165.2823733525594
 20
206.18367717427469
 30
0.0
 40
5.0
 50
261.20403476540002
 51
272.0700000000005
  0
ARC
  5
1083
  8
0
 10
133.8029165900551
 20
208.23534860891721
 30
0.0
 40
11.0
 50
62.335714814562287
 51
162.6585571972401
  0
LINE
  5
1084
  8
0
 10
208.3029165900551
 20
49.735348608917242
 30
0.0
 11
165.46297563547949
 21
51.283757260524879
 31
0.0
  0
LINE
  5
1085
  8
0
 10
208.3029165900551
 20
38.735348608917228
 30
0.0
 11
165.46297563547949
 21
37.18693995730959
 31
0.0
  0
LINE
  5
1086
  8
1
 10
218.8029165900551
 20
44.235348608917228
 30
0.0
 11
118.2929165900551
 21
44.235348608917228
 31
0.0
  0
ARC
  5
1087
  8
0
 10
156.8719798819219
 20
100.6401734172975
 30
0.0
 40
50.0
 50
248.9466271382876
 51
278.79596523459998
  0
ARC
  5
1088
  8
0
 10
156.8719798819219
 20
-12.16947619946308
 30
0.0
 40
50.0
 50
81.204034765399996
 51
111.0533728617124
  0
LINE
  5
1089
  8
1
 10
133.8029165900551
 20
60.235348608917228
 30
0.0
 11
133.8029165900551
 21
28.235348608917239
 31
0.0
  0
ARC
  5
108A
  8
0
 10
133.8029165900551
 20
44.235348608917228
 30
0.0
 40
11.0
 50
62.335714814562287
 51
162.65855719724109
  0
ARC
  5
108B
  8
0
 10
133.8029165900551
 20
44.235348608917228
 30
0.0
 40
11.0
 50
197.34144280275871
 51
297.66428518543768
  0
ARC
  5
108D
  8
0
 10
165.2823733525594
 20
42.183677174274663
 30
0.0
 40
5.0
 50
261.20403476540002
 51
272.0700000000005
  0
ARC
  5
108E
  8
0
 10
165.2823733525594
 20
46.287020043559806
 30
0.0
 40
5.0
 50
87.929999999999524
 51
98.795965234600004
  0
ARC
  5
108F
  8
0
 10
208.3029165900551
 20
44.235348608917228
 30
0.0
 40
5.5
 50
270.0
 51
90.0
  0
CIRCLE
  5
1090
  8
0
 10
133.8029165900551
 20
44.235348608917228
 30
0.0
 40
8.0
  0
CIRCLE
  5
1091
  8
0
 10
133.8029165900551
 20
44.235348608917228
 30
0.0
 40
10.5
  0
LINE
  5
1094
  8
0
 10
64.146091590167032
 20
150.29489824962411
 30
0.0
 11
64.146091590167032
 21
161.23534860891721
 31
0.0
  0
LINE
  5
1095
  8
0
 10
53.546091590167002
 20
161.23534860891709
 30
0.0
 11
53.546091590167009
 21
150.10442975765571
 31
0.0
  0
LINE
  5
1096
  8
0
 10
66.846091590167021
 20
115.23534860891721
 30
0.0
 11
66.846091590167021
 21
125.23534860891721
 31
0.0
  0
LINE
  5
1097
  8
0
 10
50.846091590167021
 20
125.23534860891721
 30
0.0
 11
50.846091590167021
 21
115.23534860891721
 31
0.0
  0
LINE
  5
1099
  8
0
 10
53.546091590167009
 20
147.98534860891721
 30
0.0
 11
64.146091590167032
 21
147.98534860891721
 31
0.0
  0
LINE
  5
109A
  8
0
 10
50.846091590167021
 20
115.23534860891721
 30
0.0
 11
66.846091590167021
 21
115.23534860891721
 31
0.0
  0
LINE
  5
109B
  8
1
 10
58.846091590167021
 20
174.73534860891721
 30
0.0
 11
58.846091590167021
 21
85.235348608917207
 31
0.0
  0
LINE
  5
109C
  8
0
 10
63.433678192911138
 20
169.73534860891721
 30
0.0
 11
54.258504987422889
 21
169.73534860891721
 31
0.0
  0
LINE
  5
109D
  8
0
 10
69.346091590167021
 20
125.23534860891721
 30
0.0
 11
48.346091590167021
 21
125.23534860891721
 31
0.0
  0
LINE
  5
109E
  8
0
 10
53.546091590167009
 20
147.98534860891721
 30
0.0
 11
64.146091590167032
 21
147.98534860891721
 31
0.0
  0
POLYLINE
  5
109F
  8
0
 10
53.546091590167009
 20
153.05017903976704
 30
0.0
 66
     1
 70
     8
  0
VERTEX
  8
0
  5
14E6
 10
53.5461
 20
153.050
 30
0.000000
  70
    32
  0
VERTEX
  8
0
  5
14E7
 10
53.4162
 20
152.978
 30
0.000000
  70
    32
  0
VERTEX
  8
0
  5
14E8
 10
53.2926
 20
152.903
 30
0.000000
  70
    32
  0
VERTEX
  8
0
  5
14E9
 10
53.1757
 20
152.828
 30
0.000000
  70
    32
  0
VERTEX
  8
0
  5
14EA
 10
53.0655
 20
152.751
 30
0.000000
  70
    32
  0
VERTEX
  8
0
  5
14EB
 10
52.9621
 20
152.673
 30
0.000000
  70
    32
  0
VERTEX
  8
0
  5
14EC
 10
52.8657
 20
152.593
 30
0.000000
  70
    32
  0
VERTEX
  8
0
  5
14ED
 10
52.7763
 20
152.513
 30
0.000000
  70
    32
  0
VERTEX
  8
0
  5
14EE
 10
52.6941
 20
152.431
 30
0.000000
  70
    32
  0
VERTEX
  8
0
  5
14EF
 10
52.6192
 20
152.349
 30
0.000000
  70
    32
  0
VERTEX
  8
0
  5
14F0
 10
52.5517
 20
152.266
 30
0.000000
  70
    32
  0
VERTEX
  8
0
  5
14F1
 10
52.4916
 20
152.182
 30
0.000000
  70
    32
  0
VERTEX
  8
0
  5
14F2
 10
52.4390
 20
152.097
 30
0.000000
  70
    32
  0
VERTEX
  8
0
  5
14F3
 10
52.3941
 20
152.012
 30
0.000000
  70
    32
  0
VERTEX
  8
0
  5
14F4
 10
52.3567
 20
151.927
 30
0.000000
  70
    32
  0
VERTEX
  8
0
  5
14F5
 10
52.3270
 20
151.841
 30
0.000000
  70
    32
  0
VERTEX
  8
0
  5
14F6
 10
52.3051
 20
151.755
 30
0.000000
  70
    32
  0
VERTEX
  8
0
  5
14F7
 10
52.2908
 20
151.669
 30
0.000000
  70
    32
  0
VERTEX
  8
0
  5
14F8
 10
52.2844
 20
151.583
 30
0.000000
  70
    32
  0
VERTEX
  8
0
  5
14F9
 10
52.2857
 20
151.497
 30
0.000000
  70
    32
  0
VERTEX
  8
0
  5
14FA
 10
52.2947
 20
151.412
 30
0.000000
  70
    32
  0
VERTEX
  8
0
  5
14FB
 10
52.3115
 20
151.326
 30
0.000000
  70
    32
  0
VERTEX
  8
0
  5
14FC
 10
52.3360
 20
151.241
 30
0.000000
  70
    32
  0
VERTEX
  8
0
  5
14FD
 10
52.3683
 20
151.157
 30
0.000000
  70
    32
  0
VERTEX
  8
0
  5
14FE
 10
52.4082
 20
151.073
 30
0.000000
  70
    32
  0
VERTEX
  8
0
  5
14FF
 10
52.4557
 20
150.990
 30
0.000000
  70
    32
  0
VERTEX
  8
0
  5
1500
 10
52.5108
 20
150.908
 30
0.000000
  70
    32
  0
VERTEX
  8
0
  5
1501
 10
52.5734
 20
150.826
 30
0.000000
  70
    32
  0
VERTEX
  8
0
  5
1502
 10
52.6433
 20
150.746
 30
0.000000
  70
    32
  0
VERTEX
  8
0
  5
1503
 10
52.7207
 20
150.666
 30
0.000000
  70
    32
  0
VERTEX
  8
0
  5
1504
 10
52.8053
 20
150.588
 30
0.000000
  70
    32
  0
VERTEX
  8
0
  5
1505
 10
52.8970
 20
150.511
 30
0.000000
  70
    32
  0
VERTEX
  8
0
  5
1506
 10
52.9957
 20
150.436
 30
0.000000
  70
    32
  0
VERTEX
  8
0
  5
1507
 10
53.1014
 20
150.362
 30
0.000000
  70
    32
  0
VERTEX
  8
0
  5
1508
 10
53.2139
 20
150.289
 30
0.000000
  70
    32
  0
VERTEX
  8
0
  5
1509
 10
53.3330
 20
150.219
 30
0.000000
  70
    32
  0
VERTEX
  8
0
  5
150A
 10
53.4587
 20
150.150
 30
0.000000
  70
    32
  0
VERTEX
  8
0
  5
150B
 10
53.5907
 20
150.082
 30
0.000000
  70
    32
  0
VERTEX
  8
0
  5
150C
 10
53.7290
 20
150.017
 30
0.000000
  70
    32
  0
VERTEX
  8
0
  5
150D
 10
53.8733
 20
149.953
 30
0.000000
  70
    32
  0
VERTEX
  8
0
  5
150E
 10
54.0235
 20
149.892
 30
0.000000
  70
    32
  0
VERTEX
  8
0
  5
150F
 10
54.1794
 20
149.833
 30
0.000000
  70
    32
  0
VERTEX
  8
0
  5
1510
 10
54.3408
 20
149.775
 30
0.000000
  70
    32
  0
VERTEX
  8
0
  5
1511
 10
54.5076
 20
149.721
 30
0.000000
  70
    32
  0
VERTEX
  8
0
  5
1512
 10
54.6795
 20
149.668
 30
0.000000
  70
    32
  0
VERTEX
  8
0
  5
1513
 10
54.8563
 20
149.618
 30
0.000000
  70
    32
  0
VERTEX
  8
0
  5
1514
 10
55.0378
 20
149.570
 30
0.000000
  70
    32
  0
VERTEX
  8
0
  5
1515
 10
55.2238
 20
149.525
 30
0.000000
  70
    32
  0
VERTEX
  8
0
  5
1516
 10
55.4142
 20
149.482
 30
0.000000
  70
    32
  0
VERTEX
  8
0
  5
1517
 10
55.6085
 20
149.442
 30
0.000000
  70
    32
  0
VERTEX
  8
0
  5
1518
 10
55.8067
 20
149.404
 30
0.000000
  70
    32
  0
VERTEX
  8
0
  5
1519
 10
56.0086
 20
149.369
 30
0.000000
  70
    32
  0
VERTEX
  8
0
  5
151A
 10
56.2137
 20
149.337
 30
0.000000
  70
    32
  0
VERTEX
  8
0
  5
151B
 10
56.4220
 20
149.308
 30
0.000000
  70
    32
  0
VERTEX
  8
0
  5
151C
 10
56.6331
 20
149.281
 30
0.000000
  70
    32
  0
VERTEX
  8
0
  5
151D
 10
56.8469
 20
149.257
 30
0.000000
  70
    32
  0
VERTEX
  8
0
  5
151E
 10
57.0630
 20
149.237
 30
0.000000
  70
    32
  0
VERTEX
  8
0
  5
151F
 10
57.2813
 20
149.219
 30
0.000000
  70
    32
  0
VERTEX
  8
0
  5
1520
 10
57.5014
 20
149.203
 30
0.000000
  70
    32
  0
VERTEX
  8
0
  5
1521
 10
57.7230
 20
149.191
 30
0.000000
  70
    32
  0
VERTEX
  8
0
  5
1522
 10
57.9461
 20
149.182
 30
0.000000
  70
    32
  0
VERTEX
  8
0
  5
1523
 10
58.1701
 20
149.176
 30
0.000000
  70
    32
  0
VERTEX
  8
0
  5
1524
 10
58.3950
 20
149.172
 30
0.000000
  70
    32
  0
VERTEX
  8
0
  5
1525
 10
58.6204
 20
149.172
 30
0.000000
  70
    32
  0
VERTEX
  8
0
  5
1526
 10
58.8461
 20
149.175
 30
0.000000
  70
    32
  0
VERTEX
  8
0
  5
1527
 10
59.0718
 20
149.180
 30
0.000000
  70
    32
  0
VERTEX
  8
0
  5
1528
 10
59.2972
 20
149.189
 30
0.000000
  70
    32
  0
VERTEX
  8
0
  5
1529
 10
59.5220
 20
149.200
 30
0.000000
  70
    32
  0
VERTEX
  8
0
  5
152A
 10
59.7461
 20
149.214
 30
0.000000
  70
    32
  0
VERTEX
  8
0
  5
152B
 10
59.9691
 20
149.232
 30
0.000000
  70
    32
  0
VERTEX
  8
0
  5
152C
 10
60.1908
 20
149.252
 30
0.000000
  70
    32
  0
VERTEX
  8
0
  5
152D
 10
60.4109
 20
149.275
 30
0.000000
  70
    32
  0
VERTEX
  8
0
  5
152E
 10
60.6291
 20
149.301
 30
0.000000
  70
    32
  0
VERTEX
  8
0
  5
152F
 10
60.8453
 20
149.329
 30
0.000000
  70
    32
  0
VERTEX
  8
0
  5
1530
 10
61.0590
 20
149.361
 30
0.000000
  70
    32
  0
VERTEX
  8
0
  5
1531
 10
61.2702
 20
149.395
 30
0.000000
  70
    32
  0
VERTEX
  8
0
  5
1532
 10
61.4785
 20
149.432
 30
0.000000
  70
    32
  0
VERTEX
  8
0
  5
1533
 10
61.6836
 20
149.471
 30
0.000000
  70
    32
  0
VERTEX
  8
0
  5
1534
 10
61.8854
 20
149.513
 30
0.000000
  70
    32
  0
VERTEX
  8
0
  5
1535
 10
62.0836
 20
149.558
 30
0.000000
  70
    32
  0
VERTEX
  8
0
  5
1536
 10
62.2780
 20
149.605
 30
0.000000
  70
    32
  0
VERTEX
  8
0
  5
1537
 10
62.4684
 20
149.655
 30
0.000000
  70
    32
  0
VERTEX
  8
0
  5
1538
 10
62.6544
 20
149.707
 30
0.000000
  70
    32
  0
VERTEX
  8
0
  5
1539
 10
62.8359
 20
149.761
 30
0.000000
  70
    32
  0
VERTEX
  8
0
  5
153A
 10
63.0127
 20
149.818
 30
0.000000
  70
    32
  0
VERTEX
  8
0
  5
153B
 10
63.1846
 20
149.876
 30
0.000000
  70
    32
  0
VERTEX
  8
0
  5
153C
 10
63.3514
 20
149.937
 30
0.000000
  70
    32
  0
VERTEX
  8
0
  5
153D
 10
63.5128
 20
150.000
 30
0.000000
  70
    32
  0
VERTEX
  8
0
  5
153E
 10
63.6687
 20
150.065
 30
0.000000
  70
    32
  0
VERTEX
  8
0
  5
153F
 10
63.8189
 20
150.132
 30
0.000000
  70
    32
  0
VERTEX
  8
0
  5
1540
 10
63.9632
 20
150.201
 30
0.000000
  70
    32
  0
VERTEX
  8
0
  5
1541
 10
64.1014
 20
150.271
 30
0.000000
  70
    32
  0
VERTEX
  8
0
  5
1542
 10
64.2335
 20
150.343
 30
0.000000
  70
    32
  0
VERTEX
  8
0
  5
1543
 10
64.3591
 20
150.417
 30
0.000000
  70
    32
  0
VERTEX
  8
0
  5
1544
 10
64.4783
 20
150.492
 30
0.000000
  70
    32
  0
VERTEX
  8
0
  5
1545
 10
64.5908
 20
150.568
 30
0.000000
  70
    32
  0
VERTEX
  8
0
  5
1546
 10
64.6964
 20
150.646
 30
0.000000
  70
    32
  0
VERTEX
  8
0
  5
1547
 10
64.7952
 20
150.725
 30
0.000000
  70
    32
  0
VERTEX
  8
0
  5
1548
 10
64.8869
 20
150.805
 30
0.000000
  70
    32
  0
VERTEX
  8
0
  5
1549
 10
64.9715
 20
150.887
 30
0.000000
  70
    32
  0
VERTEX
  8
0
  5
154A
 10
65.0488
 20
150.969
 30
0.000000
  70
    32
  0
VERTEX
  8
0
  5
154B
 10
65.1188
 20
151.052
 30
0.000000
  70
    32
  0
VERTEX
  8
0
  5
154C
 10
65.1814
 20
151.135
 30
0.000000
  70
    32
  0
VERTEX
  8
0
  5
154D
 10
65.2365
 20
151.220
 30
0.000000
  70
    32
  0
VERTEX
  8
0
  5
154E
 10
65.2840
 20
151.304
 30
0.000000
  70
    32
  0
VERTEX
  8
0
  5
154F
 10
65.3239
 20
151.390
 30
0.000000
  70
    32
  0
VERTEX
  8
0
  5
1550
 10
65.3561
 20
151.475
 30
0.000000
  70
    32
  0
VERTEX
  8
0
  5
1551
 10
65.3807
 20
151.561
 30
0.000000
  70
    32
  0
VERTEX
  8
0
  5
1552
 10
65.3975
 20
151.647
 30
0.000000
  70
    32
  0
VERTEX
  8
0
  5
1553
 10
65.4065
 20
151.733
 30
0.000000
  70
    32
  0
VERTEX
  8
0
  5
1554
 10
65.4078
 20
151.819
 30
0.000000
  70
    32
  0
VERTEX
  8
0
  5
1555
 10
65.4013
 20
151.905
 30
0.000000
  70
    32
  0
VERTEX
  8
0
  5
1556
 10
65.3871
 20
151.990
 30
0.000000
  70
    32
  0
VERTEX
  8
0
  5
1557
 10
65.3652
 20
152.075
 30
0.000000
  70
    32
  0
VERTEX
  8
0
  5
1558
 10
65.3355
 20
152.160
 30
0.000000
  70
    32
  0
VERTEX
  8
0
  5
1559
 10
65.2981
 20
152.244
 30
0.000000
  70
    32
  0
VERTEX
  8
0
  5
155A
 10
65.2531
 20
152.328
 30
0.000000
  70
    32
  0
VERTEX
  8
0
  5
155B
 10
65.2006
 20
152.410
 30
0.000000
  70
    32
  0
VERTEX
  8
0
  5
155C
 10
65.1405
 20
152.492
 30
0.000000
  70
    32
  0
VERTEX
  8
0
  5
155D
 10
65.0730
 20
152.573
 30
0.000000
  70
    32
  0
VERTEX
  8
0
  5
155E
 10
64.9981
 20
152.652
 30
0.000000
  70
    32
  0
VERTEX
  8
0
  5
155F
 10
64.9159
 20
152.731
 30
0.000000
  70
    32
  0
VERTEX
  8
0
  5
1560
 10
64.8265
 20
152.808
 30
0.000000
  70
    32
  0
VERTEX
  8
0
  5
1561
 10
64.7301
 20
152.884
 30
0.000000
  70
    32
  0
VERTEX
  8
0
  5
1562
 10
64.6267
 20
152.959
 30
0.000000
  70
    32
  0
VERTEX
  8
0
  5
1563
 10
64.5165
 20
153.032
 30
0.000000
  70
    32
  0
VERTEX
  8
0
  5
1564
 10
64.3995
 20
153.103
 30
0.000000
  70
    32
  0
VERTEX
  8
0
  5
1565
 10
64.2760
 20
153.173
 30
0.000000
  70
    32
  0
VERTEX
  8
0
  5
1566
 10
64.1461
 20
153.241
 30
0.000000
  70
    32
  0
SEQEND
  8
0
  5
1567
  0
LINE
  5
10A0
  8
0
 10
66.008410082292556
 20
147.9747473907112
 30
0.0
 11
51.683773098041492
 21
147.9747473907112
 31
0.0
  0
POLYLINE
  5
10A1
  8
0
 10
66.008410082292542
 20
147.97474739071114
 30
0.0
 66
     1
 70
     8
  0
VERTEX
  8
0
  5
1568
 10
66.0084
 20
147.975
 30
0.000000
  70
    32
  0
VERTEX
  8
0
  5
1569
 10
66.1334
 20
148.019
 30
0.000000
  70
    32
  0
VERTEX
  8
0
  5
156A
 10
66.2568
 20
148.063
 30
0.000000
  70
    32
  0
VERTEX
  8
0
  5
156B
 10
66.3785
 20
148.108
 30
0.000000
  70
    32
  0
VERTEX
  8
0
  5
156C
 10
66.4985
 20
148.155
 30
0.000000
  70
    32
  0
VERTEX
  8
0
  5
156D
 10
66.6167
 20
148.201
 30
0.000000
  70
    32
  0
VERTEX
  8
0
  5
156E
 10
66.7332
 20
148.249
 30
0.000000
  70
    32
  0
VERTEX
  8
0
  5
156F
 10
66.8479
 20
148.297
 30
0.000000
  70
    32
  0
VERTEX
  8
0
  5
1570
 10
66.9607
 20
148.346
 30
0.000000
  70
    32
  0
VERTEX
  8
0
  5
1571
 10
67.0717
 20
148.395
 30
0.000000
  70
    32
  0
VERTEX
  8
0
  5
1572
 10
67.1809
 20
148.446
 30
0.000000
  70
    32
  0
VERTEX
  8
0
  5
1573
 10
67.2881
 20
148.496
 30
0.000000
  70
    32
  0
VERTEX
  8
0
  5
1574
 10
67.3935
 20
148.548
 30
0.000000
  70
    32
  0
VERTEX
  8
0
  5
1575
 10
67.4968
 20
148.600
 30
0.000000
  70
    32
  0
VERTEX
  8
0
  5
1576
 10
67.5983
 20
148.653
 30
0.000000
  70
    32
  0
VERTEX
  8
0
  5
1577
 10
67.6977
 20
148.706
 30
0.000000
  70
    32
  0
VERTEX
  8
0
  5
1578
 10
67.7951
 20
148.760
 30
0.000000
  70
    32
  0
VERTEX
  8
0
  5
1579
 10
67.8905
 20
148.815
 30
0.000000
  70
    32
  0
VERTEX
  8
0
  5
157A
 10
67.9838
 20
148.870
 30
0.000000
  70
    32
  0
VERTEX
  8
0
  5
157B
 10
68.0751
 20
148.926
 30
0.000000
  70
    32
  0
VERTEX
  8
0
  5
157C
 10
68.1643
 20
148.982
 30
0.000000
  70
    32
  0
VERTEX
  8
0
  5
157D
 10
68.2513
 20
149.039
 30
0.000000
  70
    32
  0
VERTEX
  8
0
  5
157E
 10
68.3362
 20
149.096
 30
0.000000
  70
    32
  0
VERTEX
  8
0
  5
157F
 10
68.4189
 20
149.154
 30
0.000000
  70
    32
  0
VERTEX
  8
0
  5
1580
 10
68.4995
 20
149.212
 30
0.000000
  70
    32
  0
VERTEX
  8
0
  5
1581
 10
68.5779
 20
149.271
 30
0.000000
  70
    32
  0
VERTEX
  8
0
  5
1582
 10
68.6541
 20
149.330
 30
0.000000
  70
    32
  0
VERTEX
  8
0
  5
1583
 10
68.7280
 20
149.390
 30
0.000000
  70
    32
  0
VERTEX
  8
0
  5
1584
 10
68.7997
 20
149.450
 30
0.000000
  70
    32
  0
VERTEX
  8
0
  5
1585
 10
68.8691
 20
149.511
 30
0.000000
  70
    32
  0
VERTEX
  8
0
  5
1586
 10
68.9363
 20
149.572
 30
0.000000
  70
    32
  0
VERTEX
  8
0
  5
1587
 10
69.0011
 20
149.633
 30
0.000000
  70
    32
  0
VERTEX
  8
0
  5
1588
 10
69.0637
 20
149.695
 30
0.000000
  70
    32
  0
VERTEX
  8
0
  5
1589
 10
69.1239
 20
149.757
 30
0.000000
  70
    32
  0
VERTEX
  8
0
  5
158A
 10
69.1818
 20
149.820
 30
0.000000
  70
    32
  0
VERTEX
  8
0
  5
158B
 10
69.2373
 20
149.882
 30
0.000000
  70
    32
  0
VERTEX
  8
0
  5
158C
 10
69.2905
 20
149.946
 30
0.000000
  70
    32
  0
VERTEX
  8
0
  5
158D
 10
69.3413
 20
150.009
 30
0.000000
  70
    32
  0
VERTEX
  8
0
  5
158E
 10
69.3897
 20
150.073
 30
0.000000
  70
    32
  0
VERTEX
  8
0
  5
158F
 10
69.4358
 20
150.137
 30
0.000000
  70
    32
  0
VERTEX
  8
0
  5
1590
 10
69.4794
 20
150.201
 30
0.000000
  70
    32
  0
VERTEX
  8
0
  5
1591
 10
69.5206
 20
150.266
 30
0.000000
  70
    32
  0
VERTEX
  8
0
  5
1592
 10
69.5594
 20
150.331
 30
0.000000
  70
    32
  0
VERTEX
  8
0
  5
1593
 10
69.5957
 20
150.396
 30
0.000000
  70
    32
  0
VERTEX
  8
0
  5
1594
 10
69.6296
 20
150.461
 30
0.000000
  70
    32
  0
VERTEX
  8
0
  5
1595
 10
69.6610
 20
150.527
 30
0.000000
  70
    32
  0
VERTEX
  8
0
  5
1596
 10
69.6900
 20
150.592
 30
0.000000
  70
    32
  0
VERTEX
  8
0
  5
1597
 10
69.7165
 20
150.658
 30
0.000000
  70
    32
  0
VERTEX
  8
0
  5
1598
 10
69.7406
 20
150.724
 30
0.000000
  70
    32
  0
VERTEX
  8
0
  5
1599
 10
69.7622
 20
150.790
 30
0.000000
  70
    32
  0
VERTEX
  8
0
  5
159A
 10
69.7813
 20
150.857
 30
0.000000
  70
    32
  0
VERTEX
  8
0
  5
159B
 10
69.7979
 20
150.923
 30
0.000000
  70
    32
  0
VERTEX
  8
0
  5
159C
 10
69.8120
 20
150.989
 30
0.000000
  70
    32
  0
VERTEX
  8
0
  5
159D
 10
69.8236
 20
151.056
 30
0.000000
  70
    32
  0
VERTEX
  8
0
  5
159E
 10
69.8328
 20
151.123
 30
0.000000
  70
    32
  0
VERTEX
  8
0
  5
159F
 10
69.8394
 20
151.189
 30
0.000000
  70
    32
  0
VERTEX
  8
0
  5
15A0
 10
69.8436
 20
151.256
 30
0.000000
  70
    32
  0
VERTEX
  8
0
  5
15A1
 10
69.8452
 20
151.323
 30
0.000000
  70
    32
  0
VERTEX
  8
0
  5
15A2
 10
69.8443
 20
151.389
 30
0.000000
  70
    32
  0
VERTEX
  8
0
  5
15A3
 10
69.8410
 20
151.456
 30
0.000000
  70
    32
  0
VERTEX
  8
0
  5
15A4
 10
69.8351
 20
151.523
 30
0.000000
  70
    32
  0
VERTEX
  8
0
  5
15A5
 10
69.8268
 20
151.589
 30
0.000000
  70
    32
  0
VERTEX
  8
0
  5
15A6
 10
69.8159
 20
151.656
 30
0.000000
  70
    32
  0
VERTEX
  8
0
  5
15A7
 10
69.8026
 20
151.722
 30
0.000000
  70
    32
  0
VERTEX
  8
0
  5
15A8
 10
69.7867
 20
151.789
 30
0.000000
  70
    32
  0
VERTEX
  8
0
  5
15A9
 10
69.7684
 20
151.855
 30
0.000000
  70
    32
  0
VERTEX
  8
0
  5
15AA
 10
69.7476
 20
151.921
 30
0.000000
  70
    32
  0
VERTEX
  8
0
  5
15AB
 10
69.7243
 20
151.987
 30
0.000000
  70
    32
  0
VERTEX
  8
0
  5
15AC
 10
69.6986
 20
152.053
 30
0.000000
  70
    32
  0
VERTEX
  8
0
  5
15AD
 10
69.6703
 20
152.119
 30
0.000000
  70
    32
  0
VERTEX
  8
0
  5
15AE
 10
69.6397
 20
152.185
 30
0.000000
  70
    32
  0
VERTEX
  8
0
  5
15AF
 10
69.6065
 20
152.250
 30
0.000000
  70
    32
  0
VERTEX
  8
0
  5
15B0
 10
69.5710
 20
152.315
 30
0.000000
  70
    32
  0
VERTEX
  8
0
  5
15B1
 10
69.5329
 20
152.380
 30
0.000000
  70
    32
  0
VERTEX
  8
0
  5
15B2
 10
69.4925
 20
152.445
 30
0.000000
  70
    32
  0
VERTEX
  8
0
  5
15B3
 10
69.4496
 20
152.509
 30
0.000000
  70
    32
  0
VERTEX
  8
0
  5
15B4
 10
69.4044
 20
152.573
 30
0.000000
  70
    32
  0
VERTEX
  8
0
  5
15B5
 10
69.3567
 20
152.637
 30
0.000000
  70
    32
  0
VERTEX
  8
0
  5
15B6
 10
69.3066
 20
152.701
 30
0.000000
  70
    32
  0
VERTEX
  8
0
  5
15B7
 10
69.2542
 20
152.764
 30
0.000000
  70
    32
  0
VERTEX
  8
0
  5
15B8
 10
69.1994
 20
152.827
 30
0.000000
  70
    32
  0
VERTEX
  8
0
  5
15B9
 10
69.1422
 20
152.890
 30
0.000000
  70
    32
  0
VERTEX
  8
0
  5
15BA
 10
69.0827
 20
152.952
 30
0.000000
  70
    32
  0
VERTEX
  8
0
  5
15BB
 10
69.0209
 20
153.014
 30
0.000000
  70
    32
  0
VERTEX
  8
0
  5
15BC
 10
68.9568
 20
153.075
 30
0.000000
  70
    32
  0
VERTEX
  8
0
  5
15BD
 10
68.8903
 20
153.137
 30
0.000000
  70
    32
  0
VERTEX
  8
0
  5
15BE
 10
68.8216
 20
153.197
 30
0.000000
  70
    32
  0
VERTEX
  8
0
  5
15BF
 10
68.7506
 20
153.258
 30
0.000000
  70
    32
  0
VERTEX
  8
0
  5
15C0
 10
68.6774
 20
153.317
 30
0.000000
  70
    32
  0
VERTEX
  8
0
  5
15C1
 10
68.6019
 20
153.377
 30
0.000000
  70
    32
  0
VERTEX
  8
0
  5
15C2
 10
68.5242
 20
153.436
 30
0.000000
  70
    32
  0
VERTEX
  8
0
  5
15C3
 10
68.4443
 20
153.494
 30
0.000000
  70
    32
  0
VERTEX
  8
0
  5
15C4
 10
68.3623
 20
153.552
 30
0.000000
  70
    32
  0
VERTEX
  8
0
  5
15C5
 10
68.2780
 20
153.610
 30
0.000000
  70
    32
  0
VERTEX
  8
0
  5
15C6
 10
68.1917
 20
153.667
 30
0.000000
  70
    32
  0
VERTEX
  8
0
  5
15C7
 10
68.1032
 20
153.723
 30
0.000000
  70
    32
  0
VERTEX
  8
0
  5
15C8
 10
68.0125
 20
153.779
 30
0.000000
  70
    32
  0
VERTEX
  8
0
  5
15C9
 10
67.9199
 20
153.834
 30
0.000000
  70
    32
  0
VERTEX
  8
0
  5
15CA
 10
67.8251
 20
153.889
 30
0.000000
  70
    32
  0
VERTEX
  8
0
  5
15CB
 10
67.7283
 20
153.943
 30
0.000000
  70
    32
  0
VERTEX
  8
0
  5
15CC
 10
67.6295
 20
153.997
 30
0.000000
  70
    32
  0
VERTEX
  8
0
  5
15CD
 10
67.5287
 20
154.050
 30
0.000000
  70
    32
  0
VERTEX
  8
0
  5
15CE
 10
67.4259
 20
154.102
 30
0.000000
  70
    32
  0
VERTEX
  8
0
  5
15CF
 10
67.3212
 20
154.154
 30
0.000000
  70
    32
  0
VERTEX
  8
0
  5
15D0
 10
67.2145
 20
154.205
 30
0.000000
  70
    32
  0
VERTEX
  8
0
  5
15D1
 10
67.1060
 20
154.255
 30
0.000000
  70
    32
  0
VERTEX
  8
0
  5
15D2
 10
66.9956
 20
154.305
 30
0.000000
  70
    32
  0
VERTEX
  8
0
  5
15D3
 10
66.8833
 20
154.354
 30
0.000000
  70
    32
  0
VERTEX
  8
0
  5
15D4
 10
66.7692
 20
154.402
 30
0.000000
  70
    32
  0
VERTEX
  8
0
  5
15D5
 10
66.6532
 20
154.450
 30
0.000000
  70
    32
  0
VERTEX
  8
0
  5
15D6
 10
66.5356
 20
154.497
 30
0.000000
  70
    32
  0
VERTEX
  8
0
  5
15D7
 10
66.4161
 20
154.543
 30
0.000000
  70
    32
  0
VERTEX
  8
0
  5
15D8
 10
66.2950
 20
154.589
 30
0.000000
  70
    32
  0
VERTEX
  8
0
  5
15D9
 10
66.1721
 20
154.634
 30
0.000000
  70
    32
  0
VERTEX
  8
0
  5
15DA
 10
66.0476
 20
154.678
 30
0.000000
  70
    32
  0
VERTEX
  8
0
  5
15DB
 10
65.9215
 20
154.721
 30
0.000000
  70
    32
  0
VERTEX
  8
0
  5
15DC
 10
65.7937
 20
154.764
 30
0.000000
  70
    32
  0
VERTEX
  8
0
  5
15DD
 10
65.6644
 20
154.805
 30
0.000000
  70
    32
  0
VERTEX
  8
0
  5
15DE
 10
65.5335
 20
154.846
 30
0.000000
  70
    32
  0
VERTEX
  8
0
  5
15DF
 10
65.4011
 20
154.887
 30
0.000000
  70
    32
  0
VERTEX
  8
0
  5
15E0
 10
65.2672
 20
154.926
 30
0.000000
  70
    32
  0
VERTEX
  8
0
  5
15E1
 10
65.1318
 20
154.964
 30
0.000000
  70
    32
  0
VERTEX
  8
0
  5
15E2
 10
64.9950
 20
155.002
 30
0.000000
  70
    32
  0
VERTEX
  8
0
  5
15E3
 10
64.8569
 20
155.039
 30
0.000000
  70
    32
  0
VERTEX
  8
0
  5
15E4
 10
64.7173
 20
155.075
 30
0.000000
  70
    32
  0
VERTEX
  8
0
  5
15E5
 10
64.5764
 20
155.110
 30
0.000000
  70
    32
  0
VERTEX
  8
0
  5
15E6
 10
64.4342
 20
155.145
 30
0.000000
  70
    32
  0
VERTEX
  8
0
  5
15E7
 10
64.2908
 20
155.178
 30
0.000000
  70
    32
  0
VERTEX
  8
0
  5
15E8
 10
64.1461
 20
155.211
 30
0.000000
  70
    32
  0
SEQEND
  8
0
  5
15E9
  0
LINE
  5
10A2
  8
0
 10
69.846091590167021
 20
151.2777786539198
 30
0.0
 11
69.346091590167021
 21
125.23534860891721
 31
0.0
  0
ARC
  5
10A3
  8
0
 10
70.277597064256582
 20
159.40372588685869
 30
0.0
 40
5.0
 50
152.0074062139272
 51
213.9177417789258
  0
LINE
  5
10A4
  8
0
 10
65.881753012944216
 20
161.8851615660015
 30
0.0
 11
64.412672974535383
 21
168.93923391381301
 31
0.0
  0
ARC
  5
10A5
  8
0
 10
63.433678192911138
 20
168.73534860891721
 30
0.0
 40
1.0
 50
11.764253641804171
 51
90.0
  0
ARC
  5
10A6
  8
0
 10
65.685954056619352
 20
161.8443845050223
 30
0.0
 40
0.2
 50
332.00740621392731
 51
11.764253641805761
  0
LINE
  5
10A7
  8
0
 10
65.885954056619369
 20
161.8443845050223
 30
0.0
 11
65.885954056619369
 21
157.0134389389232
 31
0.0
  0
ARC
  5
10A8
  8
0
 10
79.154021754617077
 20
164.0523417226286
 30
0.0
 40
15.0
 50
209.7296705382044
 51
225.69583298831839
  0
LINE
  5
10A9
  8
0
 10
51.806229123714672
 20
161.8443845050223
 30
0.0
 11
51.806229123714672
 21
157.0134389389232
 31
0.0
  0
ARC
  5
10AA
  8
0
 10
47.414586116077459
 20
159.40372588685869
 30
0.0
 40
5.0
 50
326.0822582210742
 51
27.992593786072749
  0
LINE
  5
10AB
  8
0
 10
51.810430167389818
 20
161.8851615660015
 30
0.0
 11
53.279510205798658
 21
168.93923391381301
 31
0.0
  0
ARC
  5
10AC
  8
0
 10
52.006229123714689
 20
161.8443845050223
 30
0.0
 40
0.2
 50
168.23574635819421
 51
207.99259378607269
  0
ARC
  5
10AD
  8
0
 10
54.258504987422889
 20
168.73534860891721
 30
0.0
 40
1.0
 50
90.0
 51
168.2357463581958
  0
ARC
  5
10AE
  8
0
 10
38.538161425716972
 20
164.0523417226286
 30
0.0
 40
15.0
 50
314.30416701168161
 51
330.2703294617956
  0
LINE
  5
10AF
  8
0
 10
47.846091590167021
 20
151.2777786539198
 30
0.0
 11
48.346091590167021
 21
125.23534860891721
 31
0.0
  0
LINE
  5
10B0
  8
0
 10
282.020736403608
 20
115.23534860891721
 30
0.0
 11
282.020736403608
 21
125.23534860891721
 31
0.0
  0
LINE
  5
10B1
  8
0
 10
266.020736403608
 20
125.23534860891721
 30
0.0
 11
266.020736403608
 21
115.23534860891721
 31
0.0
  0
LINE
  5
10B2
  8
0
 10
266.020736403608
 20
115.23534860891721
 30
0.0
 11
282.020736403608
 21
115.23534860891721
 31
0.0
  0
LINE
  5
10B3
  8
0
 10
268.55918511870209
 20
159.83829044812671
 30
0.0
 11
279.50344178853072
 21
159.83829044812671
 31
0.0
  0
LINE
  5
10B4
  8
0
 10
268.34945649304387
 20
157.88452094400901
 30
0.0
 11
279.69201631417212
 21
157.88452094400901
 31
0.0
  0
LINE
  5
10B5
  8
0
 10
280.1396651382837
 20
157.29534860891721
 30
0.0
 11
267.90180766893229
 21
157.29534860891721
 31
0.0
  0
LINE
  5
10B6
  8
0
 10
284.520736403608
 20
125.23534860891721
 30
0.0
 11
263.520736403608
 21
125.23534860891721
 31
0.0
  0
LINE
  5
10B7
  8
0
 10
267.8200412236028
 20
156.9921077400426
 30
0.0
 11
280.2214315836132
 21
156.9921077400426
 31
0.0
  0
LINE
  5
10B8
  8
1
 10
274.020736403608
 20
174.73534860891729
 30
0.0
 11
274.02073640360811
 21
85.235348608917235
 31
0.0
  0
LINE
  5
10B9
  8
0
 10
278.60832300635212
 20
169.73534860891721
 30
0.0
 11
269.43314980086387
 21
169.73534860891741
 31
0.0
  0
LINE
  5
10BA
  8
0
 10
266.9850749808308
 20
161.8851615660015
 30
0.0
 11
268.45415501923958
 21
168.93923391381301
 31
0.0
  0
ARC
  5
10BB
  8
0
 10
269.43314980086387
 20
168.73534860891721
 30
0.0
 40
1.0
 50
90.0
 51
168.2357463581958
  0
LINE
  5
10BC
  8
0
 10
281.05639782638519
 20
161.8851615660015
 30
0.0
 11
279.58731778797642
 21
168.93923391381301
 31
0.0
  0
ARC
  5
10BD
  8
0
 10
278.60832300635212
 20
168.73534860891721
 30
0.0
 40
1.0
 50
11.764253641804171
 51
90.0
  0
LINE
  5
10BE
  8
0
 10
281.06059887006029
 20
161.8443845050223
 30
0.0
 11
281.0605988700604
 21
148.7812470384855
 31
0.0
  0
ARC
  5
10BF
  8
0
 10
274.03848633524751
 20
171.39417196078321
 30
0.0
 40
3.0
 50
269.66099929890152
 51
299.63458235356808
  0
LINE
  5
10C0
  8
0
 10
275.52188608362678
 20
168.78658204162261
 30
0.0
 11
277.41980656339109
 21
169.5804439652139
 31
0.0
  0
ARC
  5
10C1
  8
0
 10
278.19157280142713
 20
167.73534860891721
 30
0.0
 40
2.0
 50
90.0
 51
112.69857631690989
  0
ARC
  5
10C2
  8
0
 10
274.00298647196848
 20
171.39417196078321
 30
0.0
 40
3.0
 50
240.36541764643189
 51
270.33900070109848
  0
LINE
  5
10C3
  8
0
 10
272.51958672358921
 20
168.78658204162261
 30
0.0
 11
270.6216662438249
 21
169.5804439652139
 31
0.0
  0
ARC
  5
10C4
  8
0
 10
269.84990000578892
 20
167.73534860891721
 30
0.0
 40
2.0
 50
67.30142368309005
 51
90.0
  0
ARC
  5
10C5
  8
0
 10
274.03131345361629
 20
165.1964635954935
 30
0.0
 40
0.8
 50
41.037685178419068
 51
138.96231482158089
  0
ARC
  5
10C6
  8
0
 10
254.36677999797331
 20
143.60361639278341
 30
0.0
 40
30.0
 50
33.602711735221362
 51
47.49935354968013
  0
ARC
  5
10C7
  8
0
 10
278.520736403608
 20
159.65311451436651
 30
0.0
 40
1.0
 50
0.0
 51
33.602711735221362
  0
LINE
  5
10C9
  8
0
 10
279.520736403608
 20
159.65311451436651
 30
0.0
 11
279.74907486428378
 21
157.29534860891721
 31
0.0
  0
ARC
  5
10CB
  8
0
 10
269.54189050362481
 20
159.65311451436651
 30
0.0
 40
1.0
 50
146.39728826477861
 51
180.0
  0
LINE
  5
10CC
  8
0
 10
268.54189050362481
 20
159.65311451436651
 30
0.0
 11
268.31355204294903
 21
157.29534860891721
 31
0.0
  0
ARC
  5
10CD
  8
0
 10
293.69584690925939
 20
143.60361639278341
 30
0.0
 40
30.0
 50
132.50064645031981
 51
146.39728826477861
  0
LINE
  5
10CE
  8
0
 10
280.1396651382837
 20
157.29534860891721
 30
0.0
 11
280.2214315836132
 21
156.9921077400426
 31
0.0
  0
ARC
  5
10CF
  8
0
 10
294.17876184300741
 20
164.07751352940409
 30
0.0
 40
15.0
 50
209.00892254597429
 51
229.35444282771439
  0
ARC
  5
10D0
  8
0
 10
253.86271096420859
 20
164.07751352940409
 30
0.0
 40
15.0
 50
310.64555717228558
 51
330.9910774540258
  0
ARC
  5
10D1
  8
0
 10
291.43897916297078
 20
144.96910041094
 30
0.0
 40
11.0
 50
161.4773883406954
 51
211.41614743140761
  0
ARC
  5
10D2
  8
0
 10
280.0605988700604
 20
148.7812470384855
 30
0.0
 40
1.0
 50
341.47738834069543
 51
0.0
  0
ARC
  5
10D3
  8
0
 10
256.60249364424521
 20
144.96910041094
 30
0.0
 40
11.0
 50
328.58385256859248
 51
18.522611659304619
  0
LINE
  5
10D4
  8
0
 10
266.98087393715571
 20
161.8443845050223
 30
0.0
 11
266.98087393715559
 21
148.7812470384855
 31
0.0
  0
ARC
  5
10D5
  8
0
 10
267.98087393715559
 20
148.7812470384855
 30
0.0
 40
1.0
 50
179.9999999999992
 51
198.5226116593046
  0
LINE
  5
10F2
  8
0
 10
54.582679539032569
 20
169.73534860891721
 30
0.0
 11
54.559372817178648
 21
169.73516015996799
 31
0.0
  0
LINE
  5
10F3
  8
0
 10
54.559372817178648
 20
169.73516015996799
 30
0.0
 11
54.513179971920813
 21
169.73362526871151
 31
0.0
  0
LINE
  5
10F4
  8
0
 10
54.513179971920813
 20
169.73362526871151
 30
0.0
 11
54.467640778545238
 21
169.73049010045969
 31
0.0
  0
LINE
  5
10F5
  8
0
 10
54.467640778545238
 20
169.73049010045969
 30
0.0
 11
54.44514910079431
 21
169.7283033249085
 31
0.0
  0
LINE
  5
10F6
  8
0
 10
63.109503641301472
 20
169.73534860891721
 30
0.0
 11
63.132810363155379
 21
169.73516015996799
 31
0.0
  0
LINE
  5
10F7
  8
0
 10
63.132810363155379
 20
169.73516015996799
 30
0.0
 11
63.179003208413242
 21
169.73362526871151
 31
0.0
  0
LINE
  5
10F8
  8
0
 10
63.179003208413242
 20
169.73362526871151
 30
0.0
 11
63.224542401788788
 21
169.73049010045969
 31
0.0
  0
LINE
  5
10F9
  8
0
 10
63.224542401788788
 20
169.73049010045969
 30
0.0
 11
63.247034079539731
 21
169.7283033249085
 31
0.0
  0
LINE
  5
10FA
  8
0
 10
203.57410216425581
 20
157.88452094400901
 30
0.0
 11
203.47755228311439
 21
157.8525122123867
 31
0.0
  0
LINE
  5
10FB
  8
0
 10
203.47755228311439
 20
157.8525122123867
 30
0.0
 11
203.2836062636712
 21
157.79111307549081
 31
0.0
  0
LINE
  5
10FC
  8
0
 10
203.2836062636712
 20
157.79111307549081
 30
0.0
 11
203.08858450753601
 21
157.73322156399419
 31
0.0
  0
LINE
  5
10FD
  8
0
 10
203.08858450753601
 20
157.73322156399419
 30
0.0
 11
202.9906900375363
 21
157.70559709672389
 31
0.0
  0
LINE
  5
10FE
  8
0
 10
202.9906900375363
 20
157.70559709672389
 30
0.0
 11
202.89255044648971
 21
157.6788565073943
 31
0.0
  0
LINE
  5
10FF
  8
0
 10
202.89255044648971
 20
157.6788565073943
 30
0.0
 11
202.69556784157029
 21
157.62803558819201
 31
0.0
  0
LINE
  5
1100
  8
0
 10
202.69556784157029
 20
157.62803558819201
 30
0.0
 11
202.4977007623342
 21
157.58077533613999
 31
0.0
  0
LINE
  5
1101
  8
0
 10
202.4977007623342
 20
157.58077533613999
 30
0.0
 11
202.29901356601769
 21
157.53709112286671
 31
0.0
  0
LINE
  5
1102
  8
0
 10
202.29901356601769
 20
157.53709112286671
 30
0.0
 11
202.0995708766041
 21
157.4969971568762
 31
0.0
  0
LINE
  5
1103
  8
0
 10
202.0995708766041
 20
157.4969971568762
 30
0.0
 11
201.89943756380421
 21
157.46050647892719
 31
0.0
  0
LINE
  5
1104
  8
0
 10
201.89943756380421
 20
157.46050647892719
 30
0.0
 11
201.7991322574195
 21
157.4436161278484
 31
0.0
  0
LINE
  5
1105
  8
0
 10
201.7991322574195
 20
157.4436161278484
 30
0.0
 11
201.69867872195789
 21
157.42763095779151
 31
0.0
  0
LINE
  5
1106
  8
0
 10
201.69867872195789
 20
157.42763095779151
 30
0.0
 11
201.49735964886119
 21
157.3983812863932
 31
0.0
  0
LINE
  5
1107
  8
0
 10
201.49735964886119
 20
157.3983812863932
 30
0.0
 11
201.2955458245282
 21
157.37276697833099
 31
0.0
  0
LINE
  5
1108
  8
0
 10
201.2955458245282
 20
157.37276697833099
 30
0.0
 11
201.0933028898931
 21
157.35079636478409
 31
0.0
  0
LINE
  5
1109
  8
0
 10
201.0933028898931
 20
157.35079636478409
 30
0.0
 11
200.89069662546061
 21
157.33247659180219
 31
0.0
  0
LINE
  5
110A
  8
0
 10
200.89069662546061
 20
157.33247659180219
 30
0.0
 11
200.68779292990979
 21
157.3178136179809
 31
0.0
  0
LINE
  5
110B
  8
0
 10
200.68779292990979
 20
157.3178136179809
 30
0.0
 11
200.58625016584179
 21
157.31185496763749
 31
0.0
  0
LINE
  5
110C
  8
0
 10
200.58625016584179
 20
157.31185496763749
 30
0.0
 11
200.4846577986612
 21
157.30681221252439
 31
0.0
  0
LINE
  5
110D
  8
0
 10
200.4846577986612
 20
157.30681221252439
 30
0.0
 11
200.2813573024105
 21
157.2994759536937
 31
0.0
  0
LINE
  5
110E
  8
0
 10
200.2813573024105
 20
157.2994759536937
 30
0.0
 11
200.07795756563931
 21
157.2958072276428
 31
0.0
  0
LINE
  5
110F
  8
0
 10
200.07795756563931
 20
157.2958072276428
 30
0.0
 11
199.97624115537349
 21
157.29534860891721
 31
0.0
  0
LINE
  5
1110
  8
0
 10
266.98087393715559
 20
149.20195793035671
 30
0.0
 11
267.11087377021732
 21
150.60684309160871
 31
0.0
  0
LINE
  5
1111
  8
0
 10
267.11087377021732
 20
150.60684309160871
 30
0.0
 11
267.39184827595659
 21
153.38737869525241
 31
0.0
  0
LINE
  5
1112
  8
0
 10
267.39184827595659
 20
153.38737869525241
 30
0.0
 11
267.67648295729953
 21
155.8666297966069
 31
0.0
  0
LINE
  5
1113
  8
0
 10
267.67648295729953
 20
155.8666297966069
 30
0.0
 11
267.8200412236028
 21
156.9921077400426
 31
0.0
  0
LINE
  5
1114
  8
0
 10
263.63337684375682
 20
152.6962091986064
 30
0.0
 11
263.61625129190429
 21
152.6778273428489
 31
0.0
  0
LINE
  5
1115
  8
0
 10
263.61625129190429
 20
152.6778273428489
 30
0.0
 11
263.53156945760242
 21
152.57900618276861
 31
0.0
  0
LINE
  5
1116
  8
0
 10
263.53156945760242
 20
152.57900618276861
 30
0.0
 11
263.45399167436102
 21
152.48011418565801
 31
0.0
  0
LINE
  5
1117
  8
0
 10
263.45399167436102
 20
152.48011418565801
 30
0.0
 11
263.38343916618021
 21
152.38133039480661
 31
0.0
  0
LINE
  5
1118
  8
0
 10
263.38343916618021
 20
152.38133039480661
 30
0.0
 11
263.31977767534369
 21
152.2827901856696
 31
0.0
  0
LINE
  5
1119
  8
0
 10
263.31977767534369
 20
152.2827901856696
 30
0.0
 11
263.29020986469732
 21
152.23317946389309
 31
0.0
  0
LINE
  5
111A
  8
0
 10
263.29020986469732
 20
152.23317946389309
 30
0.0
 11
263.26202810626529
 21
152.18311315482791
 31
0.0
  0
LINE
  5
111B
  8
0
 10
263.26202810626529
 20
152.18311315482791
 30
0.0
 11
263.20995201979048
 21
152.08167457427149
 31
0.0
  0
LINE
  5
111C
  8
0
 10
263.20995201979048
 20
152.08167457427149
 30
0.0
 11
263.16379284178169
 21
151.9785988951611
 31
0.0
  0
LINE
  5
111D
  8
0
 10
263.16379284178169
 20
151.9785988951611
 30
0.0
 11
263.1237693815068
 21
151.87401448035189
 31
0.0
  0
LINE
  5
111E
  8
0
 10
263.1237693815068
 20
151.87401448035189
 30
0.0
 11
263.09007547626749
 21
151.76805265014181
 31
0.0
  0
LINE
  5
111F
  8
0
 10
263.09007547626749
 20
151.76805265014181
 30
0.0
 11
263.06287995933809
 21
151.660846687656
 31
0.0
  0
LINE
  5
1120
  8
0
 10
263.06287995933809
 20
151.660846687656
 30
0.0
 11
263.05176508443191
 21
151.6068190882815
 31
0.0
  0
LINE
  5
1121
  8
0
 10
263.05176508443191
 20
151.6068190882815
 30
0.0
 11
263.04232695060352
 21
151.55253079978939
 31
0.0
  0
LINE
  5
1122
  8
0
 10
263.04232695060352
 20
151.55253079978939
 30
0.0
 11
263.02853656007511
 21
151.44323994822881
 31
0.0
  0
LINE
  5
1123
  8
0
 10
263.02853656007511
 20
151.44323994822881
 30
0.0
 11
263.02160565858782
 21
151.33311221640221
 31
0.0
  0
LINE
  5
1124
  8
0
 10
263.02160565858782
 20
151.33311221640221
 30
0.0
 11
263.020736403608
 21
151.2777786539198
 31
0.0
  0
LINE
  5
1125
  8
0
 10
266.9666689989819
 20
148.98853261565839
 30
0.0
 11
266.9668123541237
 21
149.00784687800109
 31
0.0
  0
LINE
  5
1126
  8
0
 10
266.9668123541237
 20
149.00784687800109
 30
0.0
 11
266.967965286648
 21
149.04656948271329
 31
0.0
  0
LINE
  5
1127
  8
0
 10
266.967965286648
 20
149.04656948271329
 30
0.0
 11
266.97028625678638
 21
149.08540667631519
 31
0.0
  0
LINE
  5
1128
  8
0
 10
266.97028625678638
 20
149.08540667631519
 30
0.0
 11
266.9718894518378
 21
149.1048641894856
 31
0.0
  0
LINE
  5
1129
  8
0
 10
281.0605988700604
 20
149.20195793035671
 30
0.0
 11
280.93059903699867
 21
150.60684309160871
 31
0.0
  0
LINE
  5
112A
  8
0
 10
280.93059903699867
 20
150.60684309160871
 30
0.0
 11
280.64962453125941
 21
153.38737869525241
 31
0.0
  0
LINE
  5
112B
  8
0
 10
280.64962453125941
 20
153.38737869525241
 30
0.0
 11
280.36498984991653
 21
155.8666297966069
 31
0.0
  0
LINE
  5
112C
  8
0
 10
280.36498984991653
 20
155.8666297966069
 30
0.0
 11
280.2214315836132
 21
156.9921077400426
 31
0.0
  0
LINE
  5
112D
  8
0
 10
281.07480380823409
 20
148.98853261565839
 30
0.0
 11
281.07466045309229
 21
149.00784687800109
 31
0.0
  0
LINE
  5
112E
  8
0
 10
281.07466045309229
 20
149.00784687800109
 30
0.0
 11
281.073507520568
 21
149.04656948271329
 31
0.0
  0
LINE
  5
112F
  8
0
 10
281.073507520568
 20
149.04656948271329
 30
0.0
 11
281.07118655042962
 21
149.08540667631519
 31
0.0
  0
LINE
  5
1130
  8
0
 10
281.07118655042962
 20
149.08540667631519
 30
0.0
 11
281.06958335537831
 21
149.1048641894856
 31
0.0
  0
LINE
  5
1147
  8
0
 10
284.40809596345917
 20
152.6962091986064
 30
0.0
 11
284.4252215153117
 21
152.6778273428489
 31
0.0
  0
LINE
  5
1148
  8
0
 10
284.4252215153117
 20
152.6778273428489
 30
0.0
 11
284.50990334961358
 21
152.57900618276861
 31
0.0
  0
LINE
  5
1149
  8
0
 10
284.50990334961358
 20
152.57900618276861
 30
0.0
 11
284.58748113285498
 21
152.48011418565801
 31
0.0
  0
LINE
  5
114A
  8
0
 10
284.58748113285498
 20
152.48011418565801
 30
0.0
 11
284.65803364103579
 21
152.38133039480661
 31
0.0
  0
LINE
  5
114B
  8
0
 10
284.65803364103579
 20
152.38133039480661
 30
0.0
 11
284.72169513187231
 21
152.2827901856696
 31
0.0
  0
LINE
  5
114C
  8
0
 10
284.72169513187231
 20
152.2827901856696
 30
0.0
 11
284.75126294251868
 21
152.23317946389309
 31
0.0
  0
LINE
  5
114D
  8
0
 10
284.75126294251868
 20
152.23317946389309
 30
0.0
 11
284.77944470095071
 21
152.18311315482791
 31
0.0
  0
LINE
  5
114E
  8
0
 10
284.77944470095071
 20
152.18311315482791
 30
0.0
 11
284.83152078742552
 21
152.08167457427149
 31
0.0
  0
LINE
  5
114F
  8
0
 10
284.83152078742552
 20
152.08167457427149
 30
0.0
 11
284.87767996543431
 21
151.9785988951611
 31
0.0
  0
LINE
  5
1150
  8
0
 10
284.87767996543431
 20
151.9785988951611
 30
0.0
 11
284.91770342570919
 21
151.87401448035189
 31
0.0
  0
LINE
  5
1151
  8
0
 10
284.91770342570919
 20
151.87401448035189
 30
0.0
 11
284.9513973309484
 21
151.76805265014181
 31
0.0
  0
LINE
  5
1152
  8
0
 10
284.9513973309484
 20
151.76805265014181
 30
0.0
 11
284.97859284787802
 21
151.660846687656
 31
0.0
  0
LINE
  5
1153
  8
0
 10
284.97859284787802
 20
151.660846687656
 30
0.0
 11
284.98970772278398
 21
151.6068190882815
 31
0.0
  0
LINE
  5
1154
  8
0
 10
284.98970772278398
 20
151.6068190882815
 30
0.0
 11
284.99914585661247
 21
151.55253079978939
 31
0.0
  0
LINE
  5
1155
  8
0
 10
284.99914585661247
 20
151.55253079978939
 30
0.0
 11
285.012936247141
 21
151.44323994822881
 31
0.0
  0
LINE
  5
1156
  8
0
 10
285.012936247141
 20
151.44323994822881
 30
0.0
 11
285.01986714862818
 21
151.33311221640221
 31
0.0
  0
LINE
  5
1157
  8
0
 10
285.01986714862818
 20
151.33311221640221
 30
0.0
 11
285.020736403608
 21
151.2777786539198
 31
0.0
  0
LINE
  5
1174
  8
0
 10
285.020736403608
 20
151.2777786539198
 30
0.0
 11
284.520736403608
 21
125.23534860891721
 31
0.0
  0
LINE
  5
1175
  8
0
 10
263.020736403608
 20
151.2777786539198
 30
0.0
 11
263.520736403608
 21
125.23534860891721
 31
0.0
  0
LINE
  5
1176
  8
0
 10
279.520736403608
 20
169.14461843740179
 30
0.0
 11
279.520736403608
 21
159.65311451436651
 31
0.0
  0
LINE
  5
1177
  8
0
 10
268.520736403608
 20
169.14461843740199
 30
0.0
 11
268.520736403608
 21
159.43468256193771
 31
0.0
  0
LINE
  5
1178
  8
0
 10
129.50291659005509
 20
162.23534860891709
 30
0.0
 11
133.05291659005499
 21
162.23534860891721
 31
0.0
  0
LINE
  5
117D
  8
0
 10
134.5529165900551
 20
162.23534860891709
 30
0.0
 11
134.5529165900551
 21
160.73534860891721
 31
0.0
  0
LINE
  5
117E
  8
0
 10
133.05291659005499
 20
162.23534860891709
 30
0.0
 11
133.0529165900551
 21
160.73534860891721
 31
0.0
  0
LINE
  5
1180
  8
0
 10
133.0529165900551
 20
160.73534860891721
 30
0.0
 11
134.5529165900551
 21
160.73534860891721
 31
0.0
  0
LINE
  5
1181
  8
0
 10
134.5529165900551
 20
162.23534860891721
 30
0.0
 11
138.10291659005509
 21
162.23534860891721
 31
0.0
  0
LINE
  5
1182
  8
0
 10
128.50291659005509
 20
161.23534860891709
 30
0.0
 11
133.0529165900551
 21
161.23534860891721
 31
0.0
  0
LINE
  5
1183
  8
0
 10
134.5529165900551
 20
161.23534860891721
 30
0.0
 11
139.10291659005509
 21
161.23534860891721
 31
0.0
  0
LINE
  5
1184
  8
0
 10
128.50291659005509
 20
155.73534860891709
 30
0.0
 11
139.10291659005509
 21
155.73534860891741
 31
0.0
  0
LINE
  5
11A4
  8
0
 10
123.3029165900551
 20
204.95662934676631
 30
0.0
 11
123.3029165900551
 21
211.51406787106819
 31
0.0
  0
LINE
  5
11A5
  8
0
 10
123.3029165900551
 20
47.514067871068079
 30
0.0
 11
123.3029165900551
 21
40.956629346766412
 31
0.0
  0
LINE
  5
11A7
  8
0
 10
139.10291659005509
 20
161.23534860891721
 30
0.0
 11
139.10291659005509
 21
153.32360258374749
 31
0.0
  0
LINE
  5
11A8
  8
0
 10
128.50291659005509
 20
161.23534860891709
 30
0.0
 11
128.50291659005509
 21
149.06087653655899
 31
0.0
  0
LINE
  5
11A9
  8
0
 10
128.50291659005509
 20
161.23534860891709
 30
0.0
 11
129.50291659005509
 21
162.23534860891709
 31
0.0
  0
LINE
  5
11AA
  8
0
 10
139.10291659005509
 20
161.23534860891721
 30
0.0
 11
138.10291659005509
 21
162.23534860891721
 31
0.0
  0
INSERT
  5
11B7
  8
3
  6
CONTINUOUS
  2
*X0
 10
0.0
 20
0.0
 30
0.0
1001
ACAD
1000
HATCH
1002
{
1070
    19
1000
ANSI31
1040
12.0
1040
0.0
1000
R14_HATCH_DATA
1000
11B7
1011
1.0
1021
0.0
1031
0.0
1021
0.0
1031
0.0
1011
0.0
1021
0.0
1031
0.0
1021
1.0
1031
0.0
1011
0.0
1021
0.0
1031
0.0
1021
0.0
1031
1.0
1040
0.0
1010
0.0
1020
0.0
1030
1.0
1000
ANSI31
1070
     0
1070
     0
1071
        1
1071
       33
1071
        8
1070
     1
1040
128.50291659005509
1040
161.23534860891709
1040
128.50291659005509
1040
155.73534860891709
1070
     1
1040
139.10291659005509
1040
161.23534860891721
1040
139.10291659005509
1040
155.73534860891741
1070
     1
1040
134.5529165900551
1040
161.23534860891721
1040
134.5529165900551
1040
160.73534860891721
1070
     1
1040
133.0529165900551
1040
161.23534860891721
1040
133.0529165900551
1040
160.73534860891721
1070
     1
1040
133.0529165900551
1040
160.73534860891721
1040
134.5529165900551
1040
160.73534860891721
1070
     1
1040
128.51291659005511
1040
161.23534860891709
1040
133.0529165900551
1040
161.23534860891721
1070
     1
1040
134.5529165900551
1040
161.23534860891721
1040
139.0929165900551
1040
161.23534860891721
1070
     1
1040
128.50291659005509
1040
155.73534860891709
1040
139.10291659005509
1040
155.73534860891741
1071
        0
1070
     0
1070
     1
1040
0.0
1040
12.0
1070
     0
1070
     1
1040
0.7853981633974483
1040
12.49845081452133
1040
18.584718558550549
1040
-1.060660171779821
1040
1.060660171779821
1070
     0
1071
        1
1040
12.49845081452133
1040
18.584718558550549
1040
0.0
1002
}
  0
INSERT
  5
11B8
  8
3
  6
CONTINUOUS
  2
*X1
 10
0.0
 20
0.0
 30
0.0
1001
ACAD
1000
HATCH
1002
{
1070
    19
1000
ANSI31
1040
12.0
1040
0.0
1000
R14_HATCH_DATA
1000
11B8
1011
1.0
1021
0.0
1031
0.0
1021
0.0
1031
0.0
1011
0.0
1021
0.0
1031
0.0
1021
1.0
1031
0.0
1011
0.0
1021
0.0
1031
0.0
1021
0.0
1031
1.0
1040
0.0
1010
0.0
1020
0.0
1030
1.0
1000
ANSI31
1070
     0
1070
     0
1071
        1
1071
       33
1071
        8
1070
     1
1040
139.10291659005509
1040
161.23534860891709
1040
139.10291659005509
1040
155.73534860891709
1070
     1
1040
128.50291659005509
1040
161.23534860891721
1040
128.50291659005509
1040
155.73534860891741
1070
     1
1040
133.0529165900551
1040
161.23534860891721
1040
133.0529165900551
1040
160.73534860891721
1070
     1
1040
134.5529165900551
1040
161.23534860891721
1040
134.5529165900551
1040
160.73534860891721
1070
     1
1040
134.5529165900551
1040
160.73534860891721
1040
133.0529165900551
1040
160.73534860891721
1070
     1
1040
139.0929165900551
1040
161.23534860891709
1040
134.5529165900551
1040
161.23534860891721
1070
     1
1040
133.0529165900551
1040
161.23534860891721
1040
128.51291659005511
1040
161.23534860891721
1070
     1
1040
139.10291659005509
1040
155.73534860891709
1040
128.50291659005509
1040
155.73534860891741
1071
        0
1070
     0
1070
     1
1040
0.0
1040
12.0
1070
     0
1070
     1
1040
2.3561944901923439
1040
255.10738236558879
1040
18.584718558550549
1040
1.0606601717798201
1040
1.060660171779821
1070
     0
1071
        1
1040
255.10738236558879
1040
18.584718558550549
1040
0.0
1002
}
  0
LINE
  5
11B9
  8
0
 10
64.146091590167032
 20
161.23534860891721
 30
0.0
 11
63.146091590167032
 21
162.23534860891721
 31
0.0
  0
LINE
  5
11BA
  8
0
 10
53.546091590167009
 20
161.23534860891709
 30
0.0
 11
54.546091590167009
 21
162.23534860891709
 31
0.0
  0
LINE
  5
11BC
  8
0
 10
53.546091590167023
 20
161.23534860891709
 30
0.0
 11
64.146091590166947
 21
161.23534860891729
 31
0.0
  0
LINE
  5
11C1
  8
0
 10
54.546091590167009
 20
162.23534860891709
 30
0.0
 11
63.14609159016689
 21
162.23534860891729
 31
0.0
  0
LINE
  5
11C2
  8
0
 10
53.54609159016703
 20
155.73534860891709
 30
0.0
 11
64.146091590167003
 21
155.73534860891741
 31
0.0
  0
POLYLINE
  5
11C3
  8
0
 10
53.546091590167038
 20
155.21063072743397
 30
0.0
 66
     1
 70
     8
  0
VERTEX
  8
0
  5
15EA
 10
53.5461
 20
155.211
 30
0.000000
  70
    32
  0
VERTEX
  8
0
  5
15EB
 10
53.4014
 20
155.178
 30
0.000000
  70
    32
  0
VERTEX
  8
0
  5
15EC
 10
53.2579
 20
155.145
 30
0.000000
  70
    32
  0
VERTEX
  8
0
  5
15ED
 10
53.1158
 20
155.110
 30
0.000000
  70
    32
  0
VERTEX
  8
0
  5
15EE
 10
52.9749
 20
155.075
 30
0.000000
  70
    32
  0
VERTEX
  8
0
  5
15EF
 10
52.8353
 20
155.039
 30
0.000000
  70
    32
  0
VERTEX
  8
0
  5
15F0
 10
52.6971
 20
155.002
 30
0.000000
  70
    32
  0
VERTEX
  8
0
  5
15F1
 10
52.5604
 20
154.964
 30
0.000000
  70
    32
  0
VERTEX
  8
0
  5
15F2
 10
52.4250
 20
154.926
 30
0.000000
  70
    32
  0
VERTEX
  8
0
  5
15F3
 10
52.2911
 20
154.887
 30
0.000000
  70
    32
  0
VERTEX
  8
0
  5
15F4
 10
52.1587
 20
154.846
 30
0.000000
  70
    32
  0
VERTEX
  8
0
  5
15F5
 10
52.0278
 20
154.805
 30
0.000000
  70
    32
  0
VERTEX
  8
0
  5
15F6
 10
51.8985
 20
154.764
 30
0.000000
  70
    32
  0
VERTEX
  8
0
  5
15F7
 10
51.7707
 20
154.721
 30
0.000000
  70
    32
  0
VERTEX
  8
0
  5
15F8
 10
51.6446
 20
154.678
 30
0.000000
  70
    32
  0
VERTEX
  8
0
  5
15F9
 10
51.5201
 20
154.634
 30
0.000000
  70
    32
  0
VERTEX
  8
0
  5
15FA
 10
51.3972
 20
154.589
 30
0.000000
  70
    32
  0
VERTEX
  8
0
  5
15FB
 10
51.2761
 20
154.543
 30
0.000000
  70
    32
  0
VERTEX
  8
0
  5
15FC
 10
51.1566
 20
154.497
 30
0.000000
  70
    32
  0
VERTEX
  8
0
  5
15FD
 10
51.0389
 20
154.450
 30
0.000000
  70
    32
  0
VERTEX
  8
0
  5
15FE
 10
50.9230
 20
154.402
 30
0.000000
  70
    32
  0
VERTEX
  8
0
  5
15FF
 10
50.8089
 20
154.354
 30
0.000000
  70
    32
  0
VERTEX
  8
0
  5
1600
 10
50.6966
 20
154.305
 30
0.000000
  70
    32
  0
VERTEX
  8
0
  5
1601
 10
50.5862
 20
154.255
 30
0.000000
  70
    32
  0
VERTEX
  8
0
  5
1602
 10
50.4776
 20
154.205
 30
0.000000
  70
    32
  0
VERTEX
  8
0
  5
1603
 10
50.3710
 20
154.154
 30
0.000000
  70
    32
  0
VERTEX
  8
0
  5
1604
 10
50.2663
 20
154.102
 30
0.000000
  70
    32
  0
VERTEX
  8
0
  5
1605
 10
50.1635
 20
154.050
 30
0.000000
  70
    32
  0
VERTEX
  8
0
  5
1606
 10
50.0627
 20
153.997
 30
0.000000
  70
    32
  0
VERTEX
  8
0
  5
1607
 10
49.9639
 20
153.943
 30
0.000000
  70
    32
  0
VERTEX
  8
0
  5
1608
 10
49.8671
 20
153.889
 30
0.000000
  70
    32
  0
VERTEX
  8
0
  5
1609
 10
49.7723
 20
153.834
 30
0.000000
  70
    32
  0
VERTEX
  8
0
  5
160A
 10
49.6796
 20
153.779
 30
0.000000
  70
    32
  0
VERTEX
  8
0
  5
160B
 10
49.5890
 20
153.723
 30
0.000000
  70
    32
  0
VERTEX
  8
0
  5
160C
 10
49.5005
 20
153.667
 30
0.000000
  70
    32
  0
VERTEX
  8
0
  5
160D
 10
49.4142
 20
153.610
 30
0.000000
  70
    32
  0
VERTEX
  8
0
  5
160E
 10
49.3299
 20
153.552
 30
0.000000
  70
    32
  0
VERTEX
  8
0
  5
160F
 10
49.2479
 20
153.494
 30
0.000000
  70
    32
  0
VERTEX
  8
0
  5
1610
 10
49.1680
 20
153.436
 30
0.000000
  70
    32
  0
VERTEX
  8
0
  5
1611
 10
49.0903
 20
153.377
 30
0.000000
  70
    32
  0
VERTEX
  8
0
  5
1612
 10
49.0148
 20
153.317
 30
0.000000
  70
    32
  0
VERTEX
  8
0
  5
1613
 10
48.9416
 20
153.258
 30
0.000000
  70
    32
  0
VERTEX
  8
0
  5
1614
 10
48.8706
 20
153.197
 30
0.000000
  70
    32
  0
VERTEX
  8
0
  5
1615
 10
48.8019
 20
153.137
 30
0.000000
  70
    32
  0
VERTEX
  8
0
  5
1616
 10
48.7354
 20
153.075
 30
0.000000
  70
    32
  0
VERTEX
  8
0
  5
1617
 10
48.6713
 20
153.014
 30
0.000000
  70
    32
  0
VERTEX
  8
0
  5
1618
 10
48.6095
 20
152.952
 30
0.000000
  70
    32
  0
VERTEX
  8
0
  5
1619
 10
48.5500
 20
152.890
 30
0.000000
  70
    32
  0
VERTEX
  8
0
  5
161A
 10
48.4928
 20
152.827
 30
0.000000
  70
    32
  0
VERTEX
  8
0
  5
161B
 10
48.4380
 20
152.764
 30
0.000000
  70
    32
  0
VERTEX
  8
0
  5
161C
 10
48.3856
 20
152.701
 30
0.000000
  70
    32
  0
VERTEX
  8
0
  5
161D
 10
48.3355
 20
152.637
 30
0.000000
  70
    32
  0
VERTEX
  8
0
  5
161E
 10
48.2878
 20
152.573
 30
0.000000
  70
    32
  0
VERTEX
  8
0
  5
161F
 10
48.2426
 20
152.509
 30
0.000000
  70
    32
  0
VERTEX
  8
0
  5
1620
 10
48.1997
 20
152.445
 30
0.000000
  70
    32
  0
VERTEX
  8
0
  5
1621
 10
48.1592
 20
152.380
 30
0.000000
  70
    32
  0
VERTEX
  8
0
  5
1622
 10
48.1212
 20
152.315
 30
0.000000
  70
    32
  0
VERTEX
  8
0
  5
1623
 10
48.0856
 20
152.250
 30
0.000000
  70
    32
  0
VERTEX
  8
0
  5
1624
 10
48.0525
 20
152.185
 30
0.000000
  70
    32
  0
VERTEX
  8
0
  5
1625
 10
48.0218
 20
152.119
 30
0.000000
  70
    32
  0
VERTEX
  8
0
  5
1626
 10
47.9936
 20
152.053
 30
0.000000
  70
    32
  0
VERTEX
  8
0
  5
1627
 10
47.9679
 20
151.987
 30
0.000000
  70
    32
  0
VERTEX
  8
0
  5
1628
 10
47.9446
 20
151.921
 30
0.000000
  70
    32
  0
VERTEX
  8
0
  5
1629
 10
47.9238
 20
151.855
 30
0.000000
  70
    32
  0
VERTEX
  8
0
  5
162A
 10
47.9055
 20
151.789
 30
0.000000
  70
    32
  0
VERTEX
  8
0
  5
162B
 10
47.8896
 20
151.722
 30
0.000000
  70
    32
  0
VERTEX
  8
0
  5
162C
 10
47.8763
 20
151.656
 30
0.000000
  70
    32
  0
VERTEX
  8
0
  5
162D
 10
47.8654
 20
151.589
 30
0.000000
  70
    32
  0
VERTEX
  8
0
  5
162E
 10
47.8571
 20
151.523
 30
0.000000
  70
    32
  0
VERTEX
  8
0
  5
162F
 10
47.8512
 20
151.456
 30
0.000000
  70
    32
  0
VERTEX
  8
0
  5
1630
 10
47.8479
 20
151.389
 30
0.000000
  70
    32
  0
VERTEX
  8
0
  5
1631
 10
47.8470
 20
151.323
 30
0.000000
  70
    32
  0
VERTEX
  8
0
  5
1632
 10
47.8486
 20
151.256
 30
0.000000
  70
    32
  0
VERTEX
  8
0
  5
1633
 10
47.8528
 20
151.189
 30
0.000000
  70
    32
  0
VERTEX
  8
0
  5
1634
 10
47.8594
 20
151.123
 30
0.000000
  70
    32
  0
VERTEX
  8
0
  5
1635
 10
47.8685
 20
151.056
 30
0.000000
  70
    32
  0
VERTEX
  8
0
  5
1636
 10
47.8802
 20
150.989
 30
0.000000
  70
    32
  0
VERTEX
  8
0
  5
1637
 10
47.8943
 20
150.923
 30
0.000000
  70
    32
  0
VERTEX
  8
0
  5
1638
 10
47.9109
 20
150.857
 30
0.000000
  70
    32
  0
VERTEX
  8
0
  5
1639
 10
47.9300
 20
150.790
 30
0.000000
  70
    32
  0
VERTEX
  8
0
  5
163A
 10
47.9516
 20
150.724
 30
0.000000
  70
    32
  0
VERTEX
  8
0
  5
163B
 10
47.9756
 20
150.658
 30
0.000000
  70
    32
  0
VERTEX
  8
0
  5
163C
 10
48.0022
 20
150.592
 30
0.000000
  70
    32
  0
VERTEX
  8
0
  5
163D
 10
48.0311
 20
150.527
 30
0.000000
  70
    32
  0
VERTEX
  8
0
  5
163E
 10
48.0626
 20
150.461
 30
0.000000
  70
    32
  0
VERTEX
  8
0
  5
163F
 10
48.0965
 20
150.396
 30
0.000000
  70
    32
  0
VERTEX
  8
0
  5
1640
 10
48.1328
 20
150.331
 30
0.000000
  70
    32
  0
VERTEX
  8
0
  5
1641
 10
48.1716
 20
150.266
 30
0.000000
  70
    32
  0
VERTEX
  8
0
  5
1642
 10
48.2128
 20
150.201
 30
0.000000
  70
    32
  0
VERTEX
  8
0
  5
1643
 10
48.2564
 20
150.137
 30
0.000000
  70
    32
  0
VERTEX
  8
0
  5
1644
 10
48.3024
 20
150.073
 30
0.000000
  70
    32
  0
VERTEX
  8
0
  5
1645
 10
48.3509
 20
150.009
 30
0.000000
  70
    32
  0
VERTEX
  8
0
  5
1646
 10
48.4017
 20
149.946
 30
0.000000
  70
    32
  0
VERTEX
  8
0
  5
1647
 10
48.4549
 20
149.882
 30
0.000000
  70
    32
  0
VERTEX
  8
0
  5
1648
 10
48.5104
 20
149.820
 30
0.000000
  70
    32
  0
VERTEX
  8
0
  5
1649
 10
48.5683
 20
149.757
 30
0.000000
  70
    32
  0
VERTEX
  8
0
  5
164A
 10
48.6285
 20
149.695
 30
0.000000
  70
    32
  0
VERTEX
  8
0
  5
164B
 10
48.6911
 20
149.633
 30
0.000000
  70
    32
  0
VERTEX
  8
0
  5
164C
 10
48.7559
 20
149.572
 30
0.000000
  70
    32
  0
VERTEX
  8
0
  5
164D
 10
48.8231
 20
149.511
 30
0.000000
  70
    32
  0
VERTEX
  8
0
  5
164E
 10
48.8925
 20
149.450
 30
0.000000
  70
    32
  0
VERTEX
  8
0
  5
164F
 10
48.9642
 20
149.390
 30
0.000000
  70
    32
  0
VERTEX
  8
0
  5
1650
 10
49.0381
 20
149.330
 30
0.000000
  70
    32
  0
VERTEX
  8
0
  5
1651
 10
49.1143
 20
149.271
 30
0.000000
  70
    32
  0
VERTEX
  8
0
  5
1652
 10
49.1927
 20
149.212
 30
0.000000
  70
    32
  0
VERTEX
  8
0
  5
1653
 10
49.2732
 20
149.154
 30
0.000000
  70
    32
  0
VERTEX
  8
0
  5
1654
 10
49.3560
 20
149.096
 30
0.000000
  70
    32
  0
VERTEX
  8
0
  5
1655
 10
49.4409
 20
149.039
 30
0.000000
  70
    32
  0
VERTEX
  8
0
  5
1656
 10
49.5279
 20
148.982
 30
0.000000
  70
    32
  0
VERTEX
  8
0
  5
1657
 10
49.6171
 20
148.926
 30
0.000000
  70
    32
  0
VERTEX
  8
0
  5
1658
 10
49.7083
 20
148.870
 30
0.000000
  70
    32
  0
VERTEX
  8
0
  5
1659
 10
49.8017
 20
148.815
 30
0.000000
  70
    32
  0
VERTEX
  8
0
  5
165A
 10
49.8971
 20
148.760
 30
0.000000
  70
    32
  0
VERTEX
  8
0
  5
165B
 10
49.9945
 20
148.706
 30
0.000000
  70
    32
  0
VERTEX
  8
0
  5
165C
 10
50.0939
 20
148.653
 30
0.000000
  70
    32
  0
VERTEX
  8
0
  5
165D
 10
50.1953
 20
148.600
 30
0.000000
  70
    32
  0
VERTEX
  8
0
  5
165E
 10
50.2987
 20
148.548
 30
0.000000
  70
    32
  0
VERTEX
  8
0
  5
165F
 10
50.4041
 20
148.496
 30
0.000000
  70
    32
  0
VERTEX
  8
0
  5
1660
 10
50.5113
 20
148.446
 30
0.000000
  70
    32
  0
VERTEX
  8
0
  5
1661
 10
50.6205
 20
148.395
 30
0.000000
  70
    32
  0
VERTEX
  8
0
  5
1662
 10
50.7315
 20
148.346
 30
0.000000
  70
    32
  0
VERTEX
  8
0
  5
1663
 10
50.8443
 20
148.297
 30
0.000000
  70
    32
  0
VERTEX
  8
0
  5
1664
 10
50.9590
 20
148.249
 30
0.000000
  70
    32
  0
VERTEX
  8
0
  5
1665
 10
51.0755
 20
148.201
 30
0.000000
  70
    32
  0
VERTEX
  8
0
  5
1666
 10
51.1937
 20
148.155
 30
0.000000
  70
    32
  0
VERTEX
  8
0
  5
1667
 10
51.3137
 20
148.108
 30
0.000000
  70
    32
  0
VERTEX
  8
0
  5
1668
 10
51.4354
 20
148.063
 30
0.000000
  70
    32
  0
VERTEX
  8
0
  5
1669
 10
51.5587
 20
148.019
 30
0.000000
  70
    32
  0
VERTEX
  8
0
  5
166A
 10
51.6838
 20
147.975
 30
0.000000
  70
    32
  0
SEQEND
  8
0
  5
166B
  0
INSERT
  5
11CC
  8
3
  6
CONTINUOUS
  2
*X2
 10
0.0
 20
0.0
 30
0.0
1001
ACAD
1000
HATCH
1002
{
1070
    19
1000
ANSI31
1040
12.0
1040
0.0
1000
R14_HATCH_DATA
1000
11CC
1011
1.0
1021
0.0
1031
0.0
1021
0.0
1031
0.0
1011
0.0
1021
0.0
1031
0.0
1021
1.0
1031
0.0
1011
0.0
1021
0.0
1031
0.0
1021
0.0
1031
1.0
1040
0.0
1010
0.0
1020
0.0
1030
1.0
1000
ANSI31
1070
     0
1070
     0
1071
        1
1071
        1
1071
        4
1070
     1
1040
53.546091590167009
1040
161.23534860891709
1040
53.546091590167009
1040
155.73534860891721
1070
     1
1040
53.54609159016703
1040
155.73534860891709
1040
64.146091590167003
1040
155.73534860891741
1070
     1
1040
64.146091590167032
1040
155.73534860891741
1040
64.146091590167032
1040
161.23534860891721
1070
     1
1040
64.146091590166947
1040
161.23534860891729
1040
53.546091590167023
1040
161.23534860891709
1071
        0
1070
     0
1070
     1
1040
0.0
1040
12.0
1070
     0
1070
     1
1040
0.7853981633974483
1040
-26.845231213747301
1040
18.584718558550549
1040
-1.060660171779821
1040
1.060660171779821
1070
     0
1071
        1
1040
-26.845231213747301
1040
18.584718558550549
1040
0.0
1002
}
  0
INSERT
  5
11CD
  8
3
  6
CONTINUOUS
  2
*X3
 10
0.0
 20
0.0
 30
0.0
1001
ACAD
1000
HATCH
1002
{
1070
    19
1000
ANSI31
1040
12.0
1040
0.0
1000
R14_HATCH_DATA
1000
11CD
1011
1.0
1021
0.0
1031
0.0
1021
0.0
1031
0.0
1011
0.0
1021
0.0
1031
0.0
1021
1.0
1031
0.0
1011
0.0
1021
0.0
1031
0.0
1021
0.0
1031
1.0
1040
0.0
1010
0.0
1020
0.0
1030
1.0
1000
ANSI31
1070
     0
1070
     0
1071
        1
1071
        1
1071
        4
1070
     1
1040
64.146091590167032
1040
161.23534860891709
1040
64.146091590167032
1040
155.73534860891721
1070
     1
1040
64.146091590167003
1040
155.73534860891709
1040
53.54609159016703
1040
155.73534860891741
1070
     1
1040
53.546091590167009
1040
155.73534860891741
1040
53.546091590167009
1040
161.23534860891721
1070
     1
1040
53.546091590167087
1040
161.23534860891729
1040
64.146091590167018
1040
161.23534860891709
1071
        0
1070
     0
1070
     1
1040
0.0
1040
12.0
1070
     0
1070
     1
1040
2.3561944901923439
1040
144.53741439408131
1040
18.584718558550549
1040
1.060660171779821
1040
1.060660171779821
1070
     0
1071
        1
1040
144.53741439408131
1040
18.584718558550549
1040
0.0
1002
}
  0
LINE
  5
11DE
  8
0
 10
134.5529165900551
 20
202.988683001124
 30
0.0
 11
134.5529165900551
 21
213.48201421671041
 31
0.0
  0
LINE
  5
11DF
  8
0
 10
133.05291659005499
 20
202.988683001124
 30
0.0
 11
133.05291659005499
 21
213.48201421671041
 31
0.0
  0
ARC
  5
11E0
  8
0
 10
133.8029165900551
 20
208.23534860891721
 30
0.0
 40
4.3000000000000114
 50
100.0448262759483
 51
259.95517372405169
  0
ARC
  5
11E1
  8
0
 10
133.8029165900551
 20
208.23534860891721
 30
0.0
 40
4.3000000000000114
 50
280.04482627594803
 51
79.955173724052059
  0
LINE
  5
12F2
  8
3
 10
63.034091590167122
 20
111.23534860891721
 30
0.0
 11
63.846091590167021
 21
112.64177386466289
 31
0.0
  0
LINE
  5
12F3
  8
0
 10
63.846091590167021
 20
111.23534860891721
 30
0.0
 11
53.846091590167021
 21
111.23534860891731
 31
0.0
  0
LINE
  5
12F4
  8
0
 10
63.846091590166957
 20
91.735348608917178
 30
0.0
 11
62.346091590166957
 21
90.235348608917207
 31
0.0
  0
LINE
  5
12F5
  8
0
 10
62.346091590166957
 20
90.235348608917207
 30
0.0
 11
55.346091590166957
 21
90.235348608917249
 31
0.0
  0
LINE
  5
12F6
  8
0
 10
63.846091590166957
 20
91.735348608917178
 30
0.0
 11
53.846091590166957
 21
91.735348608917306
 31
0.0
  0
LINE
  5
12F7
  8
0
 10
63.846091590166957
 20
115.23534860891721
 30
0.0
 11
63.846091590166971
 21
91.735348608917207
 31
0.0
  0
LINE
  5
12F8
  8
3
 10
63.034091590167058
 20
111.23534860891721
 30
0.0
 11
63.034091590167051
 21
90.92334860891728
 31
0.0
  0
LINE
  5
12F9
  8
3
 10
54.658091590166919
 20
111.23534860891721
 30
0.0
 11
53.846091590167021
 21
112.64177386466289
 31
0.0
  0
LINE
  5
12FA
  8
0
 10
55.346091590166957
 20
90.235348608917249
 30
0.0
 11
53.846091590166957
 21
91.735348608917306
 31
0.0
  0
LINE
  5
12FB
  8
0
 10
53.846091590166957
 20
115.23534860891721
 30
0.0
 11
53.846091590166957
 21
91.735348608917306
 31
0.0
  0
LINE
  5
12FC
  8
3
 10
54.658091590166862
 20
111.23534860891721
 30
0.0
 11
54.65809159016694
 21
90.923348608917294
 31
0.0
  0
LINE
  5
12FD
  8
3
 10
137.99091659005521
 20
111.23534860891721
 30
0.0
 11
138.8029165900551
 21
112.64177386466289
 31
0.0
  0
LINE
  5
12FE
  8
0
 10
138.8029165900551
 20
111.23534860891721
 30
0.0
 11
128.8029165900551
 21
111.23534860891731
 31
0.0
  0
LINE
  5
12FF
  8
0
 10
138.8029165900551
 20
91.735348608917207
 30
0.0
 11
137.30291659005499
 21
90.235348608917207
 31
0.0
  0
LINE
  5
1300
  8
0
 10
137.30291659005499
 20
90.235348608917207
 30
0.0
 11
130.3029165900551
 21
90.235348608917263
 31
0.0
  0
LINE
  5
1301
  8
0
 10
138.8029165900551
 20
91.735348608917207
 30
0.0
 11
128.80291659005499
 21
91.735348608917334
 31
0.0
  0
LINE
  5
1302
  8
0
 10
138.8029165900551
 20
115.23534860891721
 30
0.0
 11
138.8029165900551
 21
91.735348608917207
 31
0.0
  0
LINE
  5
1303
  8
3
 10
137.99091659005521
 20
111.23534860891721
 30
0.0
 11
137.99091659005521
 21
90.923348608917294
 31
0.0
  0
LINE
  5
1304
  8
3
 10
129.614916590055
 20
111.23534860891721
 30
0.0
 11
128.8029165900551
 21
112.64177386466289
 31
0.0
  0
LINE
  5
1305
  8
0
 10
130.3029165900551
 20
90.235348608917263
 30
0.0
 11
128.80291659005499
 21
91.735348608917334
 31
0.0
  0
LINE
  5
1306
  8
0
 10
128.80291659005499
 20
115.23534860891721
 30
0.0
 11
128.80291659005499
 21
91.735348608917334
 31
0.0
  0
LINE
  5
1307
  8
3
 10
129.61491659005489
 20
111.23534860891721
 30
0.0
 11
129.614916590055
 21
90.923348608917294
 31
0.0
  0
LINE
  5
1308
  8
3
 10
269.8327364036079
 20
111.23534860891731
 30
0.0
 11
269.8327364036079
 21
90.923348608917337
 31
0.0
  0
LINE
  5
1309
  8
0
 10
269.020736403608
 20
115.23534860891721
 30
0.0
 11
269.02073640360788
 21
91.735348608917334
 31
0.0
  0
LINE
  5
130A
  8
0
 10
270.520736403608
 20
90.235348608917263
 30
0.0
 11
269.020736403608
 21
91.735348608917334
 31
0.0
  0
LINE
  5
130B
  8
3
 10
269.8327364036079
 20
111.23534860891721
 30
0.0
 11
269.020736403608
 21
112.64177386466289
 31
0.0
  0
LINE
  5
130C
  8
3
 10
278.2087364036081
 20
111.23534860891721
 30
0.0
 11
278.2087364036081
 21
90.923348608917365
 31
0.0
  0
LINE
  5
130D
  8
0
 10
279.020736403608
 20
115.23534860891721
 30
0.0
 11
279.020736403608
 21
91.735348608917249
 31
0.0
  0
LINE
  5
130E
  8
0
 10
279.020736403608
 20
91.735348608917221
 30
0.0
 11
269.020736403608
 21
91.735348608917334
 31
0.0
  0
LINE
  5
130F
  8
0
 10
277.520736403608
 20
90.235348608917221
 30
0.0
 11
270.520736403608
 21
90.235348608917263
 31
0.0
  0
LINE
  5
1310
  8
0
 10
279.020736403608
 20
91.735348608917221
 30
0.0
 11
277.520736403608
 21
90.235348608917221
 31
0.0
  0
LINE
  5
1311
  8
0
 10
279.020736403608
 20
111.23534860891721
 30
0.0
 11
269.020736403608
 21
111.23534860891731
 31
0.0
  0
LINE
  5
1312
  8
3
 10
278.2087364036081
 20
111.23534860891721
 30
0.0
 11
279.020736403608
 21
112.64177386466289
 31
0.0
  0
CIRCLE
  5
1320
  8
0
 10
133.8029165900551
 20
44.235348608917228
 30
0.0
 40
5.0
  0
CIRCLE
  5
132B
  8
3
 10
133.8029165900551
 20
44.235348608917228
 30
0.0
 40
4.188000000000045
  0
TEXT
  5
1429
  8
0
 62
     3
 10
0.0
 20
0.0
 30
0.0
 40
10.0
  1
FKRT10X25-BR
  7
STANDARD1
  0
ENDSEC
  0
EOF
