  0
SECTION
  2
HEADER
  9
$ACADVER
  1
AC1009
  9
$INSBASE
 10
0.0
 20
0.0
 30
0.0
  9
$EXTMIN
 10
0.0
 20
-2.960436562073669
 30
0.0
  9
$EXTMAX
 10
227.359634178335
 20
182.73502202255119
 30
0.0
  9
$LIMMIN
 10
0.0
 20
0.0
  9
$LIMMAX
 10
187.5
 20
135.0
  9
$ORTHOMODE
 70
     0
  9
$REGENMODE
 70
     1
  9
$FILLMODE
 70
     1
  9
$QTEXTMODE
 70
     0
  9
$MIRRTEXT
 70
     0
  9
$DRAGMODE
 70
     2
  9
$LTSCALE
 40
5.0
  9
$OSMODE
 70
    55
  9
$ATTMODE
 70
     1
  9
$TEXTSIZE
 40
4.0
  9
$TRACEWID
 40
0.05
  9
$TEXTSTYLE
  7
STANDARD
  9
$CLAYER
  8
0
  9
$CELTYPE
  6
BYLAYER
  9
$CECOLOR
 62
   256
  9
$DIMSCALE
 40
0.5
  9
$DIMASZ
 40
3.0
  9
$DIMEXO
 40
2.0
  9
$DIMDLI
 40
0.38
  9
$DIMRND
 40
0.0
  9
$DIMDLE
 40
0.0
  9
$DIMEXE
 40
2.0
  9
$DIMTP
 40
0.0
  9
$DIMTM
 40
0.0
  9
$DIMTXT
 40
3.0
  9
$DIMCEN
 40
0.0
  9
$DIMTSZ
 40
0.0
  9
$DIMTOL
 70
     0
  9
$DIMLIM
 70
     0
  9
$DIMTIH
 70
     0
  9
$DIMTOH
 70
     0
  9
$DIMSE1
 70
     0
  9
$DIMSE2
 70
     0
  9
$DIMTAD
 70
     1
  9
$DIMZIN
 70
     0
  9
$DIMBLK
  1

  9
$DIMASO
 70
     0
  9
$DIMSHO
 70
     0
  9
$DIMPOST
  1

  9
$DIMAPOST
  1

  9
$DIMALT
 70
     0
  9
$DIMALTD
 70
     2
  9
$DIMALTF
 40
25.399999999999999
  9
$DIMLFAC
 40
1.0
  9
$DIMTOFL
 70
     0
  9
$DIMTVP
 40
1.6000000000000001
  9
$DIMTIX
 70
     1
  9
$DIMSOXD
 70
     0
  9
$DIMSAH
 70
     0
  9
$DIMBLK1
  1

  9
$DIMBLK2
  1

  9
$DIMSTYLE
  2
STANDARD
  9
$DIMCLRD
 70
     0
  9
$DIMCLRE
 70
     0
  9
$DIMCLRT
 70
     0
  9
$DIMTFAC
 40
1.0
  9
$DIMGAP
 40
0.09
  9
$LUNITS
 70
     2
  9
$LUPREC
 70
     4
  9
$SKETCHINC
 40
0.1
  9
$FILLETRAD
 40
1.25
  9
$AUNITS
 70
     0
  9
$AUPREC
 70
     0
  9
$MENU
  1
E:\r13\win\SUPPORT\ACAD
  9
$ELEVATION
 40
0.0
  9
$PELEVATION
 40
0.0
  9
$THICKNESS
 40
0.0
  9
$LIMCHECK
 70
     0
  9
$BLIPMODE
 70
     0
  9
$CHAMFERA
 40
0.0
  9
$CHAMFERB
 40
0.0
  9
$SKPOLY
 70
     0
  9
$TDCREATE
 40
2449840.6143865739
  9
$TDUPDATE
 40
2456598.650471875
  9
$TDINDWG
 40
0.2335839931
  9
$TDUSRTIMER
 40
0.2335839931
  9
$USRTIMER
 70
     1
  9
$ANGBASE
 50
0.0
  9
$ANGDIR
 70
     0
  9
$PDMODE
 70
     0
  9
$PDSIZE
 40
0.0
  9
$PLINEWID
 40
0.0
  9
$COORDS
 70
     1
  9
$SPLFRAME
 70
     0
  9
$SPLINETYPE
 70
     6
  9
$SPLINESEGS
 70
     8
  9
$ATTDIA
 70
     0
  9
$ATTREQ
 70
     1
  9
$HANDLING
 70
     1
  9
$HANDSEED
  5
F8E
  9
$SURFTAB1
 70
     6
  9
$SURFTAB2
 70
     6
  9
$SURFTYPE
 70
     6
  9
$SURFU
 70
     6
  9
$SURFV
 70
     6
  9
$UCSNAME
  2

  9
$UCSORG
 10
0.0
 20
0.0
 30
0.0
  9
$UCSXDIR
 10
1.0
 20
0.0
 30
0.0
  9
$UCSYDIR
 10
0.0
 20
1.0
 30
0.0
  9
$PUCSNAME
  2

  9
$PUCSORG
 10
0.0
 20
0.0
 30
0.0
  9
$PUCSXDIR
 10
1.0
 20
0.0
 30
0.0
  9
$PUCSYDIR
 10
0.0
 20
1.0
 30
0.0
  9
$USERI1
 70
     0
  9
$USERI2
 70
     1
  9
$USERI3
 70
     1
  9
$USERI4
 70
     0
  9
$USERI5
 70
     0
  9
$USERR1
 40
0.0
  9
$USERR2
 40
0.0
  9
$USERR3
 40
0.0
  9
$USERR4
 40
0.0
  9
$USERR5
 40
0.0
  9
$WORLDVIEW
 70
     1
  9
$SHADEDGE
 70
     3
  9
$SHADEDIF
 70
    70
  9
$TILEMODE
 70
     1
  9
$MAXACTVP
 70
    16
  9
$PLIMCHECK
 70
     0
  9
$PEXTMIN
 10
1.0000000000000000E+020
 20
1.0000000000000000E+020
 30
1.0000000000000000E+020
  9
$PEXTMAX
 10
-1.0000000000000000E+020
 20
-1.0000000000000000E+020
 30
-1.0000000000000000E+020
  9
$PLIMMIN
 10
0.0
 20
0.0
  9
$PLIMMAX
 10
12.0
 20
9.0
  9
$UNITMODE
 70
     0
  9
$VISRETAIN
 70
     0
  9
$PLINEGEN
 70
     0
  9
$PSLTSCALE
 70
     0
  0
ENDSEC
  0
SECTION
  2
TABLES
  0
TABLE
  2
VPORT
 70
     1
  0
VPORT
  2
*ACTIVE
 70
     0
 10
0.0
 20
0.0
 11
1.0
 21
1.0
 12
113.67981761853039
 22
118.05645316142569
 13
0.0
 23
0.0
 14
5.0
 24
5.0
 15
5.0
 25
5.0
 16
0.0
 26
0.0
 36
1.0
 17
0.0
 27
0.0
 37
0.0
 40
244.1697901947102
 41
1.7807262569832401
 42
50.0
 43
0.0
 44
0.0
 50
0.0
 51
0.0
 71
     0
 72
   100
 73
     1
 74
     0
 75
     0
 76
     0
 77
     0
 78
     0
  0
ENDTAB
  0
TABLE
  2
LTYPE
 70
     3
  0
LTYPE
  2
CONTINUOUS
 70
     0
  3
Solid Line
 72
    65
 73
     0
 40
0.0
  0
LTYPE
  2
CENTER
 70
     0
  3
____ _ ____ _ ____ _ ____ _ ____ _ ____ _ ____
 72
    65
 73
     4
 40
2.0
 49
1.25
 49
-0.25
 49
0.25
 49
-0.25
  0
LTYPE
  2
PHANTOM2
 70
     0
  3
___ _ _ ___ _ _ ___ _ _ ___ _ _
 72
    65
 73
     6
 40
1.25
 49
0.625
 49
-0.125
 49
0.125
 49
-0.125
 49
0.125
 49
-0.125
  0
ENDTAB
  0
TABLE
  2
LAYER
 70
     3
  0
LAYER
  2
0
 70
     0
 62
     7
  6
CONTINUOUS
  0
LAYER
  2
1
 70
     0
 62
     1
  6
CENTER
  0
LAYER
  2
3
 70
     0
 62
     3
  6
CONTINUOUS
  0
ENDTAB
  0
TABLE
  2
STYLE
 70
     2
  0
STYLE
  2
STANDARD
 70
     0
 40
0.0
 41
1.0
 50
0.0
 71
     0
 42
4.0
  3
TXT
  4
BIGFONT
  0
STYLE
  2
STANDARD1
 70
     0
 40
0.0
 41
1.0
 50
0.0
 71
     0
 42
3.0
  3
txt
  4

  0
ENDTAB
  0
TABLE
  2
VIEW
 70
     1
  0
VIEW
  2
ALL
 70
     0
 40
179.66152299999999
 10
141.903918
 20
89.830760999999995
 41
0.0
 11
0.0
 21
0.0
 31
1.0
 12
0.0
 22
0.0
 32
0.0
 42
0.0
 43
0.0
 44
0.0
 50
0.0
 71
     0
  0
ENDTAB
  0
TABLE
  2
UCS
 70
     0
  0
ENDTAB
  0
TABLE
  2
APPID
 70
     4
  0
APPID
  2
ACAD
 70
     0
  0
APPID
  2
DCO15
 70
     0
  0
APPID
  2
ACAD_MLEADERVER
 70
     0
  0
APPID
  2
ACAD_NAV_VCDISPLAY
 70
     0
  0
ENDTAB
  0
TABLE
  2
DIMSTYLE
 70
     1
  0
DIMSTYLE
  2
STANDARD
 70
     0
  3

  4

  5

  6

  7

 40
1.0
 41
0.18
 42
0.0625
 43
0.38
 44
0.18
 45
0.0
 46
0.0
 47
0.0
 48
0.0
140
0.18
141
0.09
142
0.0
143
25.399999999999999
144
1.0
145
0.0
146
1.0
147
0.09
 71
     0
 72
     0
 73
     1
 74
     1
 75
     0
 76
     0
 77
     0
 78
     0
170
     0
171
     2
172
     0
173
     0
174
     0
175
     0
176
     0
177
     0
178
     0
  0
ENDTAB
  0
ENDSEC
  0
SECTION
  2
BLOCKS
  0
BLOCK
  8
0
  2
$MODEL_SPACE
 70
     0
 10
0.0
 20
0.0
 30
0.0
  3
$MODEL_SPACE
  1

  0
ENDBLK
  5
1BD
  8
0
  0
BLOCK
 67
     1
  8
0
  2
$PAPER_SPACE
 70
     0
 10
0.0
 20
0.0
 30
0.0
  3
$PAPER_SPACE
  1

  0
ENDBLK
  5
1BB
 67
     1
  8
0
  0
ENDSEC
  0
SECTION
  2
ENTITIES
  0
LINE
  5
502
  8
0
 10
71.661858812319878
 20
96.671103706919325
 30
0.0
 11
71.661858812319878
 21
100.6711037069193
 31
0.0
  0
LINE
  5
503
  8
0
 10
61.661858812319878
 20
100.6711037069193
 30
0.0
 11
61.661858812319878
 21
96.671103706919325
 31
0.0
  0
LINE
  5
50B
  8
0
 10
61.661858812319878
 20
96.671103706919325
 30
0.0
 11
71.661858812319878
 21
96.671103706919325
 31
0.0
  0
LINE
  5
511
  8
1
 10
66.661858812319878
 20
132.53814512593539
 30
0.0
 11
66.661858812319878
 21
81.671103706919354
 31
0.0
  0
LINE
  5
512
  8
0
 10
70.006918919194419
 20
127.6711037069193
 30
0.0
 11
63.316798705445329
 21
127.6711037069193
 31
0.0
  0
LINE
  5
52F
  8
0
 10
73.161858812319863
 20
100.6711037069193
 30
0.0
 11
60.161858812319871
 21
100.6711037069193
 31
0.0
  0
LINE
  5
535
  8
0
 10
133.22641264403339
 20
96.671103706919325
 30
0.0
 11
133.22641264403339
 21
100.6711037069193
 31
0.0
  0
LINE
  5
536
  8
0
 10
123.2264126440334
 20
100.6711037069193
 30
0.0
 11
123.2264126440334
 21
96.671103706919325
 31
0.0
  0
LINE
  5
53E
  8
0
 10
123.2264126440334
 20
96.671103706919325
 30
0.0
 11
133.22641264403339
 21
96.671103706919325
 31
0.0
  0
LINE
  5
544
  8
0
 10
168.22641264403339
 20
124.2957810412389
 30
0.0
 11
168.22641264403339
 21
125.16800624022871
 31
0.0
  0
LINE
  5
545
  8
0
 10
121.7164126440334
 20
115.5027604290955
 30
0.0
 11
121.7164126440334
 21
100.6711037069193
 31
0.0
  0
LINE
  5
546
  8
0
 10
134.7164126440334
 20
100.6711037069193
 30
0.0
 11
134.7164126440334
 21
111.135427234139
 31
0.0
  0
LINE
  5
549
  8
0
 10
163.53041999757599
 20
118.7842278531251
 30
0.0
 11
153.86406030531421
 21
116.04892377162651
 31
0.0
  0
LINE
  5
554
  8
0
 10
151.1412578349084
 20
115.6711037069193
 30
0.0
 11
146.1756339449509
 21
115.6711037069193
 31
0.0
  0
LINE
  5
555
  8
0
 10
134.7164126440334
 20
100.6711037069193
 30
0.0
 11
121.7164126440334
 21
100.6711037069193
 31
0.0
  0
LINE
  5
55A
  8
1
 10
128.22641264403339
 20
126.8511037069193
 30
0.0
 11
128.22641264403339
 21
81.671103706919325
 31
0.0
  0
LINE
  5
55E
  8
0
 10
224.3054687191169
 20
115.7146180476559
 30
0.0
 11
223.89537638175179
 21
118.8494396516528
 31
0.0
  0
LINE
  5
55F
  8
0
 10
224.44114720946251
 20
125.7616546291331
 30
0.0
 11
224.44114720946251
 21
115.6711037069193
 31
0.0
  0
LINE
  5
561
  8
0
 10
216.27812114720749
 20
125.7616546291331
 30
0.0
 11
216.27812114720749
 21
115.6711037069193
 31
0.0
  0
LINE
  5
563
  8
1
 10
220.359634178335
 20
132.53814512593539
 30
0.0
 11
220.359634178335
 21
81.671103706919382
 31
0.0
  0
LINE
  5
564
  8
0
 10
225.359634178335
 20
96.671103706919325
 30
0.0
 11
225.359634178335
 21
100.6711037069193
 31
0.0
  0
LINE
  5
565
  8
0
 10
215.359634178335
 20
100.6711037069193
 30
0.0
 11
215.359634178335
 21
96.671103706919325
 31
0.0
  0
LINE
  5
56A
  8
0
 10
215.359634178335
 20
96.671103706919325
 30
0.0
 11
225.359634178335
 21
96.671103706919325
 31
0.0
  0
LINE
  5
574
  8
0
 10
226.859634178335
 20
100.6711037069193
 30
0.0
 11
213.859634178335
 21
100.6711037069193
 31
0.0
  0
LINE
  5
575
  8
0
 10
216.45283752404879
 20
116.01303086547929
 30
0.0
 11
224.26643083262121
 21
116.01303086547929
 31
0.0
  0
LINE
  5
576
  8
0
 10
224.4445695003175
 20
115.6711037069193
 30
0.0
 11
216.27812114720749
 21
115.671103706918
 31
0.0
  0
LINE
  5
583
  8
0
 10
223.70469428520951
 20
127.6711037069193
 30
0.0
 11
216.9955820404962
 21
127.6711037069193
 31
0.0
  0
LINE
  5
586
  8
0
 10
216.82389197491821
 20
118.8494396516528
 30
0.0
 11
223.89537638175179
 21
118.8494396516528
 31
0.0
  0
LINE
  5
587
  8
0
 10
216.859634178335
 20
127.4867374539068
 30
0.0
 11
216.859634178335
 21
119.21272738759239
 31
0.0
  0
LINE
  5
591
  8
0
 10
223.859634178335
 20
127.4867374539068
 30
0.0
 11
223.859634178335
 21
119.21272738759239
 31
0.0
  0
LINE
  5
59A
  8
0
 10
121.7264126440334
 20
168.1621053896227
 30
0.0
 11
121.7264126440334
 21
173.30793865547969
 31
0.0
  0
CIRCLE
  5
5B6
  8
0
 10
128.22641264403339
 20
38.683167254352128
 30
0.0
 40
6.5000000000000027
  0
LINE
  5
5C6
  8
1
 10
128.23641264403341
 20
182.73502202255119
 30
0.0
 11
128.23641264403341
 21
158.73502202255119
 31
0.0
  0
LINE
  5
5C7
  8
1
 10
173.2364156607787
 20
170.73502202255119
 30
0.0
 11
116.7264126440334
 21
170.73502202255119
 31
0.0
  0
LINE
  5
5CB
  8
1
 10
128.23641264403341
 20
50.68266635711381
 30
0.0
 11
128.23641264403341
 21
26.683668151590439
 31
0.0
  0
CIRCLE
  5
5CD
  8
0
 10
128.23641264403341
 20
38.683167254352128
 30
0.0
 40
4.989999999999994
  0
CIRCLE
  5
5E2
  8
0
 10
128.23641264403341
 20
38.683167254352128
 30
0.0
 40
2.5
  0
CIRCLE
  5
5E3
  8
3
 10
128.23641264403341
 20
38.683167254352128
 30
0.0
 40
2.1000000000000001
  0
LINE
  5
5E5
  8
1
 10
116.7264126440334
 20
38.683167254352128
 30
0.0
 11
173.2364156607787
 21
38.683167254352128
 31
0.0
  0
ARC
  5
62F
  8
0
 10
128.23641264403341
 20
170.73502202255119
 30
0.0
 40
7.0
 50
201.56518501524261
 51
308.53132429037919
  0
ARC
  5
630
  8
0
 10
128.23641264403341
 20
170.73502202255119
 30
0.0
 40
7.0
 50
51.468675709620783
 51
158.43481498475739
  0
ARC
  5
633
  8
0
 10
164.73641264403341
 20
170.73502202255111
 30
0.0
 40
3.5
 50
270.0
 51
90.0
  0
LINE
  5
636
  8
0
 10
149.02743340000649
 20
174.81653505367871
 30
0.0
 11
164.86535785450101
 21
174.23264594926161
 31
0.0
  0
LINE
  5
637
  8
0
 10
149.02743340000649
 20
166.65350899142371
 30
0.0
 11
164.73641264403341
 21
167.23502202255111
 31
0.0
  0
CIRCLE
  5
642
  8
0
 10
128.51879051646861
 20
170.73502202255119
 30
0.0
 40
4.6971000970094821
  0
ARC
  5
6CE
  8
0
 10
143.27214577173211
 20
204.24732698212151
 30
0.0
 40
30.0
 50
249.1551953734386
 51
281.16030063920113
  0
ARC
  5
6D0
  8
0
 10
143.27214577173211
 20
137.22271706298079
 30
0.0
 40
30.0
 50
78.839699360798974
 51
110.8448046265614
  0
LINE
  5
6E7
  8
0
 10
149.02743340000649
 20
42.764680285479642
 30
0.0
 11
164.86535785450101
 21
42.180791181062567
 31
0.0
  0
ARC
  5
6E8
  8
0
 10
164.73641264403341
 20
38.683167254352099
 30
0.0
 40
3.5
 50
270.0
 51
90.0
  0
ARC
  5
6E9
  8
0
 10
143.27214577173211
 20
72.195472213922471
 30
0.0
 40
30.0
 50
249.1551953734386
 51
281.16030063920113
  0
LINE
  5
6EA
  8
0
 10
149.02743340000649
 20
34.601654223224607
 30
0.0
 11
164.73641264403341
 21
35.183167254352099
 31
0.0
  0
ARC
  5
6EB
  8
0
 10
143.27214577173211
 20
5.1708622947817844
 30
0.0
 40
30.0
 50
78.839699360798974
 51
110.8448046265614
  0
ARC
  5
6EC
  8
0
 10
128.23641264403341
 20
38.683167254352128
 30
0.0
 40
7.0
 50
201.56518501524261
 51
308.53132429037919
  0
ARC
  5
6ED
  8
0
 10
128.23641264403341
 20
38.683167254352128
 30
0.0
 40
7.0
 50
51.468675709620783
 51
158.43481498475739
  0
LINE
  5
6EE
  8
0
 10
121.7264126440334
 20
36.11025062142366
 30
0.0
 11
121.7264126440334
 21
41.256083887280617
 31
0.0
  0
ARC
  5
6F3
  8
0
 10
175.7994063268543
 20
-21.987641963521359
 30
0.0
 40
150.0
 50
93.915861512303536
 51
110.1986696099367
  0
ARC
  5
701
  8
0
 10
165.72641264403339
 20
125.16800624022871
 30
0.0
 40
2.5
 50
0.0
 51
93.915861512302882
  0
ARC
  5
702
  8
0
 10
125.2164126440334
 20
115.5027604290955
 30
0.0
 40
3.5
 50
110.198669609936
 51
180.0
  0
LINE
  5
703
  8
0
 10
72.146327046848683
 20
118.7875140698747
 30
0.0
 11
68.426391264531247
 21
118.7875140698747
 31
0.0
  0
LINE
  5
713
  8
0
 10
61.177390577791073
 20
118.7875140698747
 30
0.0
 11
64.897326360108508
 21
118.7875140698747
 31
0.0
  0
LINE
  5
716
  8
0
 10
70.746794134302348
 20
125.72884716488601
 30
0.0
 11
70.746794134302348
 21
123.2576938343875
 31
0.0
  0
ARC
  5
719
  8
0
 10
162.2375121166927
 20
124.64327122312589
 30
0.0
 40
6.0
 50
282.44396201272468
 51
356.51437909834618
  0
ARC
  5
71E
  8
0
 10
151.1412578349084
 20
125.6711037069193
 30
0.0
 40
10.0
 50
270.0
 51
285.80000000000001
  0
ARC
  5
726
  8
0
 10
165.06364569632279
 20
59.375931041942323
 30
0.0
 40
60.0
 50
112.1950152906777
 51
120.38362357021521
  0
ARC
  5
728
  8
0
 10
146.1756339449509
 20
105.6711037069193
 30
0.0
 40
10.0
 50
90.0
 51
112.1950152906778
  0
LINE
  5
72C
  8
0
 10
73.161858812319863
 20
100.6711037069193
 30
0.0
 11
73.661858812319878
 21
120.2685012150925
 31
0.0
  0
POLYLINE
  5
72D
  8
0
 10
72.146327046848697
 20
118.78751406987479
 30
0.0
 66
     1
 70
     8
  0
VERTEX
  8
0
  5
D04
 10
72.1463
 20
118.788
 30
0.000000
  70
    32
  0
VERTEX
  8
0
  5
D05
 10
72.1906
 20
118.807
 30
0.000000
  70
    32
  0
VERTEX
  8
0
  5
D06
 10
72.2342
 20
118.826
 30
0.000000
  70
    32
  0
VERTEX
  8
0
  5
D07
 10
72.2773
 20
118.846
 30
0.000000
  70
    32
  0
VERTEX
  8
0
  5
D08
 10
72.3198
 20
118.865
 30
0.000000
  70
    32
  0
VERTEX
  8
0
  5
D09
 10
72.3616
 20
118.885
 30
0.000000
  70
    32
  0
VERTEX
  8
0
  5
D0A
 10
72.4029
 20
118.905
 30
0.000000
  70
    32
  0
VERTEX
  8
0
  5
D0B
 10
72.4436
 20
118.925
 30
0.000000
  70
    32
  0
VERTEX
  8
0
  5
D0C
 10
72.4837
 20
118.945
 30
0.000000
  70
    32
  0
VERTEX
  8
0
  5
D0D
 10
72.5232
 20
118.966
 30
0.000000
  70
    32
  0
VERTEX
  8
0
  5
D0E
 10
72.5620
 20
118.986
 30
0.000000
  70
    32
  0
VERTEX
  8
0
  5
D0F
 10
72.6003
 20
119.007
 30
0.000000
  70
    32
  0
VERTEX
  8
0
  5
D10
 10
72.6379
 20
119.027
 30
0.000000
  70
    32
  0
VERTEX
  8
0
  5
D11
 10
72.6749
 20
119.048
 30
0.000000
  70
    32
  0
VERTEX
  8
0
  5
D12
 10
72.7113
 20
119.069
 30
0.000000
  70
    32
  0
VERTEX
  8
0
  5
D13
 10
72.7470
 20
119.090
 30
0.000000
  70
    32
  0
VERTEX
  8
0
  5
D14
 10
72.7821
 20
119.112
 30
0.000000
  70
    32
  0
VERTEX
  8
0
  5
D15
 10
72.8165
 20
119.133
 30
0.000000
  70
    32
  0
VERTEX
  8
0
  5
D16
 10
72.8503
 20
119.155
 30
0.000000
  70
    32
  0
VERTEX
  8
0
  5
D17
 10
72.8835
 20
119.176
 30
0.000000
  70
    32
  0
VERTEX
  8
0
  5
D18
 10
72.9160
 20
119.198
 30
0.000000
  70
    32
  0
VERTEX
  8
0
  5
D19
 10
72.9479
 20
119.220
 30
0.000000
  70
    32
  0
VERTEX
  8
0
  5
D1A
 10
72.9790
 20
119.242
 30
0.000000
  70
    32
  0
VERTEX
  8
0
  5
D1B
 10
73.0096
 20
119.264
 30
0.000000
  70
    32
  0
VERTEX
  8
0
  5
D1C
 10
73.0394
 20
119.286
 30
0.000000
  70
    32
  0
VERTEX
  8
0
  5
D1D
 10
73.0686
 20
119.308
 30
0.000000
  70
    32
  0
VERTEX
  8
0
  5
D1E
 10
73.0972
 20
119.331
 30
0.000000
  70
    32
  0
VERTEX
  8
0
  5
D1F
 10
73.1250
 20
119.353
 30
0.000000
  70
    32
  0
VERTEX
  8
0
  5
D20
 10
73.1522
 20
119.376
 30
0.000000
  70
    32
  0
VERTEX
  8
0
  5
D21
 10
73.1787
 20
119.398
 30
0.000000
  70
    32
  0
VERTEX
  8
0
  5
D22
 10
73.2045
 20
119.421
 30
0.000000
  70
    32
  0
VERTEX
  8
0
  5
D23
 10
73.2296
 20
119.444
 30
0.000000
  70
    32
  0
VERTEX
  8
0
  5
D24
 10
73.2541
 20
119.467
 30
0.000000
  70
    32
  0
VERTEX
  8
0
  5
D25
 10
73.2778
 20
119.490
 30
0.000000
  70
    32
  0
VERTEX
  8
0
  5
D26
 10
73.3009
 20
119.513
 30
0.000000
  70
    32
  0
VERTEX
  8
0
  5
D27
 10
73.3232
 20
119.536
 30
0.000000
  70
    32
  0
VERTEX
  8
0
  5
D28
 10
73.3449
 20
119.559
 30
0.000000
  70
    32
  0
VERTEX
  8
0
  5
D29
 10
73.3659
 20
119.583
 30
0.000000
  70
    32
  0
VERTEX
  8
0
  5
D2A
 10
73.3861
 20
119.606
 30
0.000000
  70
    32
  0
VERTEX
  8
0
  5
D2B
 10
73.4057
 20
119.630
 30
0.000000
  70
    32
  0
VERTEX
  8
0
  5
D2C
 10
73.4245
 20
119.653
 30
0.000000
  70
    32
  0
VERTEX
  8
0
  5
D2D
 10
73.4427
 20
119.677
 30
0.000000
  70
    32
  0
VERTEX
  8
0
  5
D2E
 10
73.4601
 20
119.700
 30
0.000000
  70
    32
  0
VERTEX
  8
0
  5
D2F
 10
73.4768
 20
119.724
 30
0.000000
  70
    32
  0
VERTEX
  8
0
  5
D30
 10
73.4928
 20
119.748
 30
0.000000
  70
    32
  0
VERTEX
  8
0
  5
D31
 10
73.5081
 20
119.772
 30
0.000000
  70
    32
  0
VERTEX
  8
0
  5
D32
 10
73.5227
 20
119.796
 30
0.000000
  70
    32
  0
VERTEX
  8
0
  5
D33
 10
73.5366
 20
119.820
 30
0.000000
  70
    32
  0
VERTEX
  8
0
  5
D34
 10
73.5497
 20
119.844
 30
0.000000
  70
    32
  0
VERTEX
  8
0
  5
D35
 10
73.5621
 20
119.868
 30
0.000000
  70
    32
  0
VERTEX
  8
0
  5
D36
 10
73.5738
 20
119.892
 30
0.000000
  70
    32
  0
VERTEX
  8
0
  5
D37
 10
73.5848
 20
119.916
 30
0.000000
  70
    32
  0
VERTEX
  8
0
  5
D38
 10
73.5950
 20
119.940
 30
0.000000
  70
    32
  0
VERTEX
  8
0
  5
D39
 10
73.6045
 20
119.964
 30
0.000000
  70
    32
  0
VERTEX
  8
0
  5
D3A
 10
73.6133
 20
119.988
 30
0.000000
  70
    32
  0
VERTEX
  8
0
  5
D3B
 10
73.6214
 20
120.013
 30
0.000000
  70
    32
  0
VERTEX
  8
0
  5
D3C
 10
73.6287
 20
120.037
 30
0.000000
  70
    32
  0
VERTEX
  8
0
  5
D3D
 10
73.6353
 20
120.061
 30
0.000000
  70
    32
  0
VERTEX
  8
0
  5
D3E
 10
73.6412
 20
120.085
 30
0.000000
  70
    32
  0
VERTEX
  8
0
  5
D3F
 10
73.6463
 20
120.110
 30
0.000000
  70
    32
  0
VERTEX
  8
0
  5
D40
 10
73.6507
 20
120.134
 30
0.000000
  70
    32
  0
VERTEX
  8
0
  5
D41
 10
73.6544
 20
120.158
 30
0.000000
  70
    32
  0
VERTEX
  8
0
  5
D42
 10
73.6573
 20
120.183
 30
0.000000
  70
    32
  0
VERTEX
  8
0
  5
D43
 10
73.6595
 20
120.207
 30
0.000000
  70
    32
  0
VERTEX
  8
0
  5
D44
 10
73.6610
 20
120.232
 30
0.000000
  70
    32
  0
VERTEX
  8
0
  5
D45
 10
73.6618
 20
120.256
 30
0.000000
  70
    32
  0
VERTEX
  8
0
  5
D46
 10
73.6618
 20
120.280
 30
0.000000
  70
    32
  0
VERTEX
  8
0
  5
D47
 10
73.6610
 20
120.305
 30
0.000000
  70
    32
  0
VERTEX
  8
0
  5
D48
 10
73.6596
 20
120.329
 30
0.000000
  70
    32
  0
VERTEX
  8
0
  5
D49
 10
73.6574
 20
120.354
 30
0.000000
  70
    32
  0
VERTEX
  8
0
  5
D4A
 10
73.6545
 20
120.378
 30
0.000000
  70
    32
  0
VERTEX
  8
0
  5
D4B
 10
73.6508
 20
120.402
 30
0.000000
  70
    32
  0
VERTEX
  8
0
  5
D4C
 10
73.6464
 20
120.427
 30
0.000000
  70
    32
  0
VERTEX
  8
0
  5
D4D
 10
73.6413
 20
120.451
 30
0.000000
  70
    32
  0
VERTEX
  8
0
  5
D4E
 10
73.6355
 20
120.475
 30
0.000000
  70
    32
  0
VERTEX
  8
0
  5
D4F
 10
73.6289
 20
120.500
 30
0.000000
  70
    32
  0
VERTEX
  8
0
  5
D50
 10
73.6216
 20
120.524
 30
0.000000
  70
    32
  0
VERTEX
  8
0
  5
D51
 10
73.6136
 20
120.548
 30
0.000000
  70
    32
  0
VERTEX
  8
0
  5
D52
 10
73.6048
 20
120.572
 30
0.000000
  70
    32
  0
VERTEX
  8
0
  5
D53
 10
73.5953
 20
120.596
 30
0.000000
  70
    32
  0
VERTEX
  8
0
  5
D54
 10
73.5851
 20
120.621
 30
0.000000
  70
    32
  0
VERTEX
  8
0
  5
D55
 10
73.5741
 20
120.645
 30
0.000000
  70
    32
  0
VERTEX
  8
0
  5
D56
 10
73.5625
 20
120.669
 30
0.000000
  70
    32
  0
VERTEX
  8
0
  5
D57
 10
73.5501
 20
120.693
 30
0.000000
  70
    32
  0
VERTEX
  8
0
  5
D58
 10
73.5370
 20
120.717
 30
0.000000
  70
    32
  0
VERTEX
  8
0
  5
D59
 10
73.5231
 20
120.741
 30
0.000000
  70
    32
  0
VERTEX
  8
0
  5
D5A
 10
73.5086
 20
120.765
 30
0.000000
  70
    32
  0
VERTEX
  8
0
  5
D5B
 10
73.4933
 20
120.788
 30
0.000000
  70
    32
  0
VERTEX
  8
0
  5
D5C
 10
73.4773
 20
120.812
 30
0.000000
  70
    32
  0
VERTEX
  8
0
  5
D5D
 10
73.4606
 20
120.836
 30
0.000000
  70
    32
  0
VERTEX
  8
0
  5
D5E
 10
73.4432
 20
120.860
 30
0.000000
  70
    32
  0
VERTEX
  8
0
  5
D5F
 10
73.4251
 20
120.883
 30
0.000000
  70
    32
  0
VERTEX
  8
0
  5
D60
 10
73.4062
 20
120.907
 30
0.000000
  70
    32
  0
VERTEX
  8
0
  5
D61
 10
73.3867
 20
120.930
 30
0.000000
  70
    32
  0
VERTEX
  8
0
  5
D62
 10
73.3665
 20
120.954
 30
0.000000
  70
    32
  0
VERTEX
  8
0
  5
D63
 10
73.3455
 20
120.977
 30
0.000000
  70
    32
  0
VERTEX
  8
0
  5
D64
 10
73.3239
 20
121.000
 30
0.000000
  70
    32
  0
VERTEX
  8
0
  5
D65
 10
73.3015
 20
121.023
 30
0.000000
  70
    32
  0
VERTEX
  8
0
  5
D66
 10
73.2785
 20
121.046
 30
0.000000
  70
    32
  0
VERTEX
  8
0
  5
D67
 10
73.2548
 20
121.069
 30
0.000000
  70
    32
  0
VERTEX
  8
0
  5
D68
 10
73.2304
 20
121.092
 30
0.000000
  70
    32
  0
VERTEX
  8
0
  5
D69
 10
73.2052
 20
121.115
 30
0.000000
  70
    32
  0
VERTEX
  8
0
  5
D6A
 10
73.1795
 20
121.138
 30
0.000000
  70
    32
  0
VERTEX
  8
0
  5
D6B
 10
73.1530
 20
121.161
 30
0.000000
  70
    32
  0
VERTEX
  8
0
  5
D6C
 10
73.1258
 20
121.183
 30
0.000000
  70
    32
  0
VERTEX
  8
0
  5
D6D
 10
73.0980
 20
121.206
 30
0.000000
  70
    32
  0
VERTEX
  8
0
  5
D6E
 10
73.0695
 20
121.228
 30
0.000000
  70
    32
  0
VERTEX
  8
0
  5
D6F
 10
73.0403
 20
121.250
 30
0.000000
  70
    32
  0
VERTEX
  8
0
  5
D70
 10
73.0105
 20
121.272
 30
0.000000
  70
    32
  0
VERTEX
  8
0
  5
D71
 10
72.9799
 20
121.295
 30
0.000000
  70
    32
  0
VERTEX
  8
0
  5
D72
 10
72.9488
 20
121.317
 30
0.000000
  70
    32
  0
VERTEX
  8
0
  5
D73
 10
72.9169
 20
121.338
 30
0.000000
  70
    32
  0
VERTEX
  8
0
  5
D74
 10
72.8844
 20
121.360
 30
0.000000
  70
    32
  0
VERTEX
  8
0
  5
D75
 10
72.8513
 20
121.382
 30
0.000000
  70
    32
  0
VERTEX
  8
0
  5
D76
 10
72.8175
 20
121.403
 30
0.000000
  70
    32
  0
VERTEX
  8
0
  5
D77
 10
72.7831
 20
121.425
 30
0.000000
  70
    32
  0
VERTEX
  8
0
  5
D78
 10
72.7480
 20
121.446
 30
0.000000
  70
    32
  0
VERTEX
  8
0
  5
D79
 10
72.7123
 20
121.467
 30
0.000000
  70
    32
  0
VERTEX
  8
0
  5
D7A
 10
72.6760
 20
121.488
 30
0.000000
  70
    32
  0
VERTEX
  8
0
  5
D7B
 10
72.6390
 20
121.509
 30
0.000000
  70
    32
  0
VERTEX
  8
0
  5
D7C
 10
72.6014
 20
121.530
 30
0.000000
  70
    32
  0
VERTEX
  8
0
  5
D7D
 10
72.5632
 20
121.550
 30
0.000000
  70
    32
  0
VERTEX
  8
0
  5
D7E
 10
72.5243
 20
121.571
 30
0.000000
  70
    32
  0
VERTEX
  8
0
  5
D7F
 10
72.4849
 20
121.591
 30
0.000000
  70
    32
  0
VERTEX
  8
0
  5
D80
 10
72.4448
 20
121.611
 30
0.000000
  70
    32
  0
VERTEX
  8
0
  5
D81
 10
72.4041
 20
121.632
 30
0.000000
  70
    32
  0
VERTEX
  8
0
  5
D82
 10
72.3629
 20
121.651
 30
0.000000
  70
    32
  0
VERTEX
  8
0
  5
D83
 10
72.3210
 20
121.671
 30
0.000000
  70
    32
  0
VERTEX
  8
0
  5
D84
 10
72.2785
 20
121.691
 30
0.000000
  70
    32
  0
SEQEND
  8
0
  5
D85
  0
LINE
  5
72F
  8
0
 10
60.161858812319871
 20
100.6711037069193
 30
0.0
 11
59.661858812319878
 21
120.2685012150925
 31
0.0
  0
ARC
  5
734
  8
0
 10
71.761543457872392
 20
124.5356209448251
 30
0.0
 40
1.5
 50
135.62248582632071
 51
194.54190412830249
  0
ARC
  5
76A
  8
0
 10
77.860896601261032
 20
128.7504334451186
 30
0.0
 40
9.0
 50
219.44968032693691
 51
231.6645676099084
  0
ARC
  5
76B
  8
0
 10
74.985220140791796
 20
125.9305839363969
 30
0.0
 40
5.0
 50
200.75171325611291
 51
215.43300582698109
  0
LINE
  5
771
  8
0
 10
70.191704261872957
 20
127.5476176084744
 30
0.0
 11
70.453598085465387
 21
126.91512940758081
 31
0.0
  0
LINE
  5
772
  8
0
 10
70.453598085465387
 20
126.91512940758081
 30
0.0
 11
70.740445980211348
 21
125.7733013340365
 31
0.0
  0
ARC
  5
775
  8
0
 10
70.546473203124606
 20
125.7245718588777
 30
0.0
 40
0.2
 50
315.62248582632043
 51
14.10191193147306
  0
ARC
  5
776
  8
0
 10
70.006918919194419
 20
127.47110370691929
 30
0.0
 40
0.2
 50
22.492934975536091
 51
90.0
  0
LINE
  5
786
  8
0
 10
62.870119539174368
 20
126.91512940758081
 30
0.0
 11
62.583271644428407
 21
125.7733013340365
 31
0.0
  0
ARC
  5
787
  8
0
 10
58.338497483847959
 20
125.9305839363969
 30
0.0
 40
5.0
 50
324.56699417301888
 51
339.24828674388721
  0
LINE
  5
788
  8
0
 10
62.576923490337407
 20
125.72884716488601
 30
0.0
 11
62.576923490337407
 21
123.2576938343875
 31
0.0
  0
ARC
  5
789
  8
0
 10
62.777244421515149
 20
125.7245718588777
 30
0.0
 40
0.2
 50
165.8980880685269
 51
224.37751417367971
  0
ARC
  5
78A
  8
0
 10
61.562174166767363
 20
124.5356209448251
 30
0.0
 40
1.5
 50
345.45809587169748
 51
44.377514173679231
  0
LINE
  5
78B
  8
0
 10
63.132013362766799
 20
127.5476176084744
 30
0.0
 11
62.870119539174368
 21
126.91512940758081
 31
0.0
  0
ARC
  5
78C
  8
0
 10
63.316798705445329
 20
127.47110370691929
 30
0.0
 40
0.2
 50
90.0
 51
157.50706502446391
  0
ARC
  5
78D
  8
0
 10
55.462821023378723
 20
128.7504334451186
 30
0.0
 40
9.0
 50
308.33543239009163
 51
320.55031967306309
  0
POLYLINE
  5
78E
  8
0
 10
61.177390577791066
 20
118.78751406987479
 30
0.0
 66
     1
 70
     8
  0
VERTEX
  8
0
  5
D86
 10
61.1774
 20
118.788
 30
0.000000
  70
    32
  0
VERTEX
  8
0
  5
D87
 10
61.1332
 20
118.807
 30
0.000000
  70
    32
  0
VERTEX
  8
0
  5
D88
 10
61.0895
 20
118.826
 30
0.000000
  70
    32
  0
VERTEX
  8
0
  5
D89
 10
61.0464
 20
118.846
 30
0.000000
  70
    32
  0
VERTEX
  8
0
  5
D8A
 10
61.0040
 20
118.865
 30
0.000000
  70
    32
  0
VERTEX
  8
0
  5
D8B
 10
60.9621
 20
118.885
 30
0.000000
  70
    32
  0
VERTEX
  8
0
  5
D8C
 10
60.9208
 20
118.905
 30
0.000000
  70
    32
  0
VERTEX
  8
0
  5
D8D
 10
60.8801
 20
118.925
 30
0.000000
  70
    32
  0
VERTEX
  8
0
  5
D8E
 10
60.8400
 20
118.945
 30
0.000000
  70
    32
  0
VERTEX
  8
0
  5
D8F
 10
60.8005
 20
118.966
 30
0.000000
  70
    32
  0
VERTEX
  8
0
  5
D90
 10
60.7617
 20
118.986
 30
0.000000
  70
    32
  0
VERTEX
  8
0
  5
D91
 10
60.7234
 20
119.007
 30
0.000000
  70
    32
  0
VERTEX
  8
0
  5
D92
 10
60.6858
 20
119.027
 30
0.000000
  70
    32
  0
VERTEX
  8
0
  5
D93
 10
60.6488
 20
119.048
 30
0.000000
  70
    32
  0
VERTEX
  8
0
  5
D94
 10
60.6125
 20
119.069
 30
0.000000
  70
    32
  0
VERTEX
  8
0
  5
D95
 10
60.5767
 20
119.090
 30
0.000000
  70
    32
  0
VERTEX
  8
0
  5
D96
 10
60.5416
 20
119.112
 30
0.000000
  70
    32
  0
VERTEX
  8
0
  5
D97
 10
60.5072
 20
119.133
 30
0.000000
  70
    32
  0
VERTEX
  8
0
  5
D98
 10
60.4734
 20
119.155
 30
0.000000
  70
    32
  0
VERTEX
  8
0
  5
D99
 10
60.4402
 20
119.176
 30
0.000000
  70
    32
  0
VERTEX
  8
0
  5
D9A
 10
60.4077
 20
119.198
 30
0.000000
  70
    32
  0
VERTEX
  8
0
  5
D9B
 10
60.3759
 20
119.220
 30
0.000000
  70
    32
  0
VERTEX
  8
0
  5
D9C
 10
60.3447
 20
119.242
 30
0.000000
  70
    32
  0
VERTEX
  8
0
  5
D9D
 10
60.3141
 20
119.264
 30
0.000000
  70
    32
  0
VERTEX
  8
0
  5
D9E
 10
60.2843
 20
119.286
 30
0.000000
  70
    32
  0
VERTEX
  8
0
  5
D9F
 10
60.2551
 20
119.308
 30
0.000000
  70
    32
  0
VERTEX
  8
0
  5
DA0
 10
60.2265
 20
119.331
 30
0.000000
  70
    32
  0
VERTEX
  8
0
  5
DA1
 10
60.1987
 20
119.353
 30
0.000000
  70
    32
  0
VERTEX
  8
0
  5
DA2
 10
60.1715
 20
119.376
 30
0.000000
  70
    32
  0
VERTEX
  8
0
  5
DA3
 10
60.1450
 20
119.398
 30
0.000000
  70
    32
  0
VERTEX
  8
0
  5
DA4
 10
60.1192
 20
119.421
 30
0.000000
  70
    32
  0
VERTEX
  8
0
  5
DA5
 10
60.0941
 20
119.444
 30
0.000000
  70
    32
  0
VERTEX
  8
0
  5
DA6
 10
60.0696
 20
119.467
 30
0.000000
  70
    32
  0
VERTEX
  8
0
  5
DA7
 10
60.0459
 20
119.490
 30
0.000000
  70
    32
  0
VERTEX
  8
0
  5
DA8
 10
60.0228
 20
119.513
 30
0.000000
  70
    32
  0
VERTEX
  8
0
  5
DA9
 10
60.0005
 20
119.536
 30
0.000000
  70
    32
  0
VERTEX
  8
0
  5
DAA
 10
59.9788
 20
119.559
 30
0.000000
  70
    32
  0
VERTEX
  8
0
  5
DAB
 10
59.9578
 20
119.583
 30
0.000000
  70
    32
  0
VERTEX
  8
0
  5
DAC
 10
59.9376
 20
119.606
 30
0.000000
  70
    32
  0
VERTEX
  8
0
  5
DAD
 10
59.9180
 20
119.630
 30
0.000000
  70
    32
  0
VERTEX
  8
0
  5
DAE
 10
59.8992
 20
119.653
 30
0.000000
  70
    32
  0
VERTEX
  8
0
  5
DAF
 10
59.8810
 20
119.677
 30
0.000000
  70
    32
  0
VERTEX
  8
0
  5
DB0
 10
59.8636
 20
119.700
 30
0.000000
  70
    32
  0
VERTEX
  8
0
  5
DB1
 10
59.8469
 20
119.724
 30
0.000000
  70
    32
  0
VERTEX
  8
0
  5
DB2
 10
59.8309
 20
119.748
 30
0.000000
  70
    32
  0
VERTEX
  8
0
  5
DB3
 10
59.8156
 20
119.772
 30
0.000000
  70
    32
  0
VERTEX
  8
0
  5
DB4
 10
59.8010
 20
119.796
 30
0.000000
  70
    32
  0
VERTEX
  8
0
  5
DB5
 10
59.7872
 20
119.820
 30
0.000000
  70
    32
  0
VERTEX
  8
0
  5
DB6
 10
59.7740
 20
119.844
 30
0.000000
  70
    32
  0
VERTEX
  8
0
  5
DB7
 10
59.7616
 20
119.868
 30
0.000000
  70
    32
  0
VERTEX
  8
0
  5
DB8
 10
59.7499
 20
119.892
 30
0.000000
  70
    32
  0
VERTEX
  8
0
  5
DB9
 10
59.7390
 20
119.916
 30
0.000000
  70
    32
  0
VERTEX
  8
0
  5
DBA
 10
59.7287
 20
119.940
 30
0.000000
  70
    32
  0
VERTEX
  8
0
  5
DBB
 10
59.7192
 20
119.964
 30
0.000000
  70
    32
  0
VERTEX
  8
0
  5
DBC
 10
59.7104
 20
119.988
 30
0.000000
  70
    32
  0
VERTEX
  8
0
  5
DBD
 10
59.7024
 20
120.013
 30
0.000000
  70
    32
  0
VERTEX
  8
0
  5
DBE
 10
59.6950
 20
120.037
 30
0.000000
  70
    32
  0
VERTEX
  8
0
  5
DBF
 10
59.6884
 20
120.061
 30
0.000000
  70
    32
  0
VERTEX
  8
0
  5
DC0
 10
59.6826
 20
120.085
 30
0.000000
  70
    32
  0
VERTEX
  8
0
  5
DC1
 10
59.6774
 20
120.110
 30
0.000000
  70
    32
  0
VERTEX
  8
0
  5
DC2
 10
59.6730
 20
120.134
 30
0.000000
  70
    32
  0
VERTEX
  8
0
  5
DC3
 10
59.6693
 20
120.158
 30
0.000000
  70
    32
  0
VERTEX
  8
0
  5
DC4
 10
59.6664
 20
120.183
 30
0.000000
  70
    32
  0
VERTEX
  8
0
  5
DC5
 10
59.6642
 20
120.207
 30
0.000000
  70
    32
  0
VERTEX
  8
0
  5
DC6
 10
59.6627
 20
120.232
 30
0.000000
  70
    32
  0
VERTEX
  8
0
  5
DC7
 10
59.6620
 20
120.256
 30
0.000000
  70
    32
  0
VERTEX
  8
0
  5
DC8
 10
59.6619
 20
120.280
 30
0.000000
  70
    32
  0
VERTEX
  8
0
  5
DC9
 10
59.6627
 20
120.305
 30
0.000000
  70
    32
  0
VERTEX
  8
0
  5
DCA
 10
59.6641
 20
120.329
 30
0.000000
  70
    32
  0
VERTEX
  8
0
  5
DCB
 10
59.6663
 20
120.354
 30
0.000000
  70
    32
  0
VERTEX
  8
0
  5
DCC
 10
59.6692
 20
120.378
 30
0.000000
  70
    32
  0
VERTEX
  8
0
  5
DCD
 10
59.6729
 20
120.402
 30
0.000000
  70
    32
  0
VERTEX
  8
0
  5
DCE
 10
59.6773
 20
120.427
 30
0.000000
  70
    32
  0
VERTEX
  8
0
  5
DCF
 10
59.6824
 20
120.451
 30
0.000000
  70
    32
  0
VERTEX
  8
0
  5
DD0
 10
59.6882
 20
120.475
 30
0.000000
  70
    32
  0
VERTEX
  8
0
  5
DD1
 10
59.6948
 20
120.500
 30
0.000000
  70
    32
  0
VERTEX
  8
0
  5
DD2
 10
59.7021
 20
120.524
 30
0.000000
  70
    32
  0
VERTEX
  8
0
  5
DD3
 10
59.7102
 20
120.548
 30
0.000000
  70
    32
  0
VERTEX
  8
0
  5
DD4
 10
59.7189
 20
120.572
 30
0.000000
  70
    32
  0
VERTEX
  8
0
  5
DD5
 10
59.7284
 20
120.596
 30
0.000000
  70
    32
  0
VERTEX
  8
0
  5
DD6
 10
59.7386
 20
120.621
 30
0.000000
  70
    32
  0
VERTEX
  8
0
  5
DD7
 10
59.7496
 20
120.645
 30
0.000000
  70
    32
  0
VERTEX
  8
0
  5
DD8
 10
59.7613
 20
120.669
 30
0.000000
  70
    32
  0
VERTEX
  8
0
  5
DD9
 10
59.7737
 20
120.693
 30
0.000000
  70
    32
  0
VERTEX
  8
0
  5
DDA
 10
59.7868
 20
120.717
 30
0.000000
  70
    32
  0
VERTEX
  8
0
  5
DDB
 10
59.8006
 20
120.741
 30
0.000000
  70
    32
  0
VERTEX
  8
0
  5
DDC
 10
59.8152
 20
120.765
 30
0.000000
  70
    32
  0
VERTEX
  8
0
  5
DDD
 10
59.8304
 20
120.788
 30
0.000000
  70
    32
  0
VERTEX
  8
0
  5
DDE
 10
59.8464
 20
120.812
 30
0.000000
  70
    32
  0
VERTEX
  8
0
  5
DDF
 10
59.8631
 20
120.836
 30
0.000000
  70
    32
  0
VERTEX
  8
0
  5
DE0
 10
59.8805
 20
120.860
 30
0.000000
  70
    32
  0
VERTEX
  8
0
  5
DE1
 10
59.8986
 20
120.883
 30
0.000000
  70
    32
  0
VERTEX
  8
0
  5
DE2
 10
59.9175
 20
120.907
 30
0.000000
  70
    32
  0
VERTEX
  8
0
  5
DE3
 10
59.9370
 20
120.930
 30
0.000000
  70
    32
  0
VERTEX
  8
0
  5
DE4
 10
59.9572
 20
120.954
 30
0.000000
  70
    32
  0
VERTEX
  8
0
  5
DE5
 10
59.9782
 20
120.977
 30
0.000000
  70
    32
  0
VERTEX
  8
0
  5
DE6
 10
59.9998
 20
121.000
 30
0.000000
  70
    32
  0
VERTEX
  8
0
  5
DE7
 10
60.0222
 20
121.023
 30
0.000000
  70
    32
  0
VERTEX
  8
0
  5
DE8
 10
60.0452
 20
121.046
 30
0.000000
  70
    32
  0
VERTEX
  8
0
  5
DE9
 10
60.0689
 20
121.069
 30
0.000000
  70
    32
  0
VERTEX
  8
0
  5
DEA
 10
60.0934
 20
121.092
 30
0.000000
  70
    32
  0
VERTEX
  8
0
  5
DEB
 10
60.1185
 20
121.115
 30
0.000000
  70
    32
  0
VERTEX
  8
0
  5
DEC
 10
60.1443
 20
121.138
 30
0.000000
  70
    32
  0
VERTEX
  8
0
  5
DED
 10
60.1707
 20
121.161
 30
0.000000
  70
    32
  0
VERTEX
  8
0
  5
DEE
 10
60.1979
 20
121.183
 30
0.000000
  70
    32
  0
VERTEX
  8
0
  5
DEF
 10
60.2257
 20
121.206
 30
0.000000
  70
    32
  0
VERTEX
  8
0
  5
DF0
 10
60.2542
 20
121.228
 30
0.000000
  70
    32
  0
VERTEX
  8
0
  5
DF1
 10
60.2834
 20
121.250
 30
0.000000
  70
    32
  0
VERTEX
  8
0
  5
DF2
 10
60.3133
 20
121.272
 30
0.000000
  70
    32
  0
VERTEX
  8
0
  5
DF3
 10
60.3438
 20
121.295
 30
0.000000
  70
    32
  0
VERTEX
  8
0
  5
DF4
 10
60.3749
 20
121.317
 30
0.000000
  70
    32
  0
VERTEX
  8
0
  5
DF5
 10
60.4068
 20
121.338
 30
0.000000
  70
    32
  0
VERTEX
  8
0
  5
DF6
 10
60.4393
 20
121.360
 30
0.000000
  70
    32
  0
VERTEX
  8
0
  5
DF7
 10
60.4724
 20
121.382
 30
0.000000
  70
    32
  0
VERTEX
  8
0
  5
DF8
 10
60.5062
 20
121.403
 30
0.000000
  70
    32
  0
VERTEX
  8
0
  5
DF9
 10
60.5406
 20
121.425
 30
0.000000
  70
    32
  0
VERTEX
  8
0
  5
DFA
 10
60.5757
 20
121.446
 30
0.000000
  70
    32
  0
VERTEX
  8
0
  5
DFB
 10
60.6114
 20
121.467
 30
0.000000
  70
    32
  0
VERTEX
  8
0
  5
DFC
 10
60.6478
 20
121.488
 30
0.000000
  70
    32
  0
VERTEX
  8
0
  5
DFD
 10
60.6847
 20
121.509
 30
0.000000
  70
    32
  0
VERTEX
  8
0
  5
DFE
 10
60.7223
 20
121.530
 30
0.000000
  70
    32
  0
VERTEX
  8
0
  5
DFF
 10
60.7606
 20
121.550
 30
0.000000
  70
    32
  0
VERTEX
  8
0
  5
E00
 10
60.7994
 20
121.571
 30
0.000000
  70
    32
  0
VERTEX
  8
0
  5
E01
 10
60.8389
 20
121.591
 30
0.000000
  70
    32
  0
VERTEX
  8
0
  5
E02
 10
60.8789
 20
121.611
 30
0.000000
  70
    32
  0
VERTEX
  8
0
  5
E03
 10
60.9196
 20
121.632
 30
0.000000
  70
    32
  0
VERTEX
  8
0
  5
E04
 10
60.9609
 20
121.651
 30
0.000000
  70
    32
  0
VERTEX
  8
0
  5
E05
 10
61.0027
 20
121.671
 30
0.000000
  70
    32
  0
VERTEX
  8
0
  5
E06
 10
61.0452
 20
121.691
 30
0.000000
  70
    32
  0
SEQEND
  8
0
  5
E07
  0
LINE
  5
9BE
  8
0
 10
223.8654262561536
 20
119.140976079425
 30
0.0
 11
223.8450920991975
 21
119.3928722741535
 31
0.0
  0
ARC
  5
A0C
  8
0
 10
220.359634178335
 20
126.6535114310237
 30
0.0
 40
1.0
 50
235.76817851301581
 51
304.2318214869839
  0
LINE
  5
A4C
  8
0
 10
216.56789490518949
 20
126.91512940758081
 30
0.0
 11
216.28104701044359
 21
125.7733013340365
 31
0.0
  0
LINE
  5
A51
  8
0
 10
216.82978872878189
 20
127.5476176084744
 30
0.0
 11
216.56789490518949
 21
126.91512940758081
 31
0.0
  0
LINE
  5
A53
  8
0
 10
224.15137345148051
 20
126.91512940758081
 30
0.0
 11
224.4382213462265
 21
125.7733013340365
 31
0.0
  0
ARC
  5
A58
  8
0
 10
223.70469428520951
 20
127.47110370691929
 30
0.0
 40
0.2
 50
22.492934975536091
 51
90.0
  0
LINE
  5
A59
  8
0
 10
223.88947962788811
 20
127.5476176084744
 30
0.0
 11
224.15137345148051
 21
126.91512940758081
 31
0.0
  0
ARC
  5
A63
  8
0
 10
223.74166813822021
 20
127.2728162049894
 30
0.0
 40
0.4
 50
95.303685279422695
 51
111.7307513085735
  0
LINE
  5
A66
  8
0
 10
223.5935699861364
 20
127.6443898011307
 30
0.0
 11
220.93337038169139
 21
125.8343593867347
 31
0.0
  0
LINE
  5
A67
  8
0
 10
217.12569837053351
 20
127.6443898011307
 30
0.0
 11
219.78589797497861
 21
125.8343593867347
 31
0.0
  0
ARC
  5
A68
  8
0
 10
216.97760021844979
 20
127.2728162049894
 30
0.0
 40
0.4
 50
68.269248691426469
 51
84.696314720577305
  0
ARC
  5
A69
  8
0
 10
217.0145740714604
 20
127.47110370691929
 30
0.0
 40
0.2
 50
90.0
 51
157.50706502446391
  0
POLYLINE
  5
A84
  8
0
 10
220.95291006006977
 20
123.93450662381925
 30
0.0
 66
     1
 70
     8
  0
VERTEX
  8
0
  5
E08
 10
220.953
 20
123.935
 30
0.000000
  70
    32
  0
VERTEX
  8
0
  5
E09
 10
220.945
 20
123.945
 30
0.000000
  70
    32
  0
VERTEX
  8
0
  5
E0A
 10
220.938
 20
123.956
 30
0.000000
  70
    32
  0
VERTEX
  8
0
  5
E0B
 10
220.930
 20
123.966
 30
0.000000
  70
    32
  0
VERTEX
  8
0
  5
E0C
 10
220.922
 20
123.976
 30
0.000000
  70
    32
  0
VERTEX
  8
0
  5
E0D
 10
220.915
 20
123.987
 30
0.000000
  70
    32
  0
VERTEX
  8
0
  5
E0E
 10
220.907
 20
123.997
 30
0.000000
  70
    32
  0
VERTEX
  8
0
  5
E0F
 10
220.899
 20
124.006
 30
0.000000
  70
    32
  0
VERTEX
  8
0
  5
E10
 10
220.891
 20
124.016
 30
0.000000
  70
    32
  0
VERTEX
  8
0
  5
E11
 10
220.883
 20
124.026
 30
0.000000
  70
    32
  0
VERTEX
  8
0
  5
E12
 10
220.874
 20
124.035
 30
0.000000
  70
    32
  0
VERTEX
  8
0
  5
E13
 10
220.866
 20
124.044
 30
0.000000
  70
    32
  0
VERTEX
  8
0
  5
E14
 10
220.858
 20
124.053
 30
0.000000
  70
    32
  0
VERTEX
  8
0
  5
E15
 10
220.849
 20
124.062
 30
0.000000
  70
    32
  0
VERTEX
  8
0
  5
E16
 10
220.841
 20
124.071
 30
0.000000
  70
    32
  0
VERTEX
  8
0
  5
E17
 10
220.832
 20
124.080
 30
0.000000
  70
    32
  0
VERTEX
  8
0
  5
E18
 10
220.824
 20
124.088
 30
0.000000
  70
    32
  0
VERTEX
  8
0
  5
E19
 10
220.815
 20
124.097
 30
0.000000
  70
    32
  0
VERTEX
  8
0
  5
E1A
 10
220.806
 20
124.105
 30
0.000000
  70
    32
  0
VERTEX
  8
0
  5
E1B
 10
220.798
 20
124.113
 30
0.000000
  70
    32
  0
VERTEX
  8
0
  5
E1C
 10
220.789
 20
124.121
 30
0.000000
  70
    32
  0
VERTEX
  8
0
  5
E1D
 10
220.780
 20
124.128
 30
0.000000
  70
    32
  0
VERTEX
  8
0
  5
E1E
 10
220.771
 20
124.136
 30
0.000000
  70
    32
  0
VERTEX
  8
0
  5
E1F
 10
220.762
 20
124.143
 30
0.000000
  70
    32
  0
VERTEX
  8
0
  5
E20
 10
220.753
 20
124.151
 30
0.000000
  70
    32
  0
VERTEX
  8
0
  5
E21
 10
220.744
 20
124.158
 30
0.000000
  70
    32
  0
VERTEX
  8
0
  5
E22
 10
220.734
 20
124.164
 30
0.000000
  70
    32
  0
VERTEX
  8
0
  5
E23
 10
220.725
 20
124.171
 30
0.000000
  70
    32
  0
VERTEX
  8
0
  5
E24
 10
220.716
 20
124.178
 30
0.000000
  70
    32
  0
VERTEX
  8
0
  5
E25
 10
220.707
 20
124.184
 30
0.000000
  70
    32
  0
VERTEX
  8
0
  5
E26
 10
220.697
 20
124.190
 30
0.000000
  70
    32
  0
VERTEX
  8
0
  5
E27
 10
220.688
 20
124.196
 30
0.000000
  70
    32
  0
VERTEX
  8
0
  5
E28
 10
220.678
 20
124.202
 30
0.000000
  70
    32
  0
VERTEX
  8
0
  5
E29
 10
220.669
 20
124.208
 30
0.000000
  70
    32
  0
VERTEX
  8
0
  5
E2A
 10
220.659
 20
124.213
 30
0.000000
  70
    32
  0
VERTEX
  8
0
  5
E2B
 10
220.650
 20
124.219
 30
0.000000
  70
    32
  0
VERTEX
  8
0
  5
E2C
 10
220.640
 20
124.224
 30
0.000000
  70
    32
  0
VERTEX
  8
0
  5
E2D
 10
220.630
 20
124.229
 30
0.000000
  70
    32
  0
VERTEX
  8
0
  5
E2E
 10
220.621
 20
124.234
 30
0.000000
  70
    32
  0
VERTEX
  8
0
  5
E2F
 10
220.611
 20
124.238
 30
0.000000
  70
    32
  0
VERTEX
  8
0
  5
E30
 10
220.601
 20
124.243
 30
0.000000
  70
    32
  0
VERTEX
  8
0
  5
E31
 10
220.591
 20
124.247
 30
0.000000
  70
    32
  0
VERTEX
  8
0
  5
E32
 10
220.581
 20
124.251
 30
0.000000
  70
    32
  0
VERTEX
  8
0
  5
E33
 10
220.572
 20
124.255
 30
0.000000
  70
    32
  0
VERTEX
  8
0
  5
E34
 10
220.562
 20
124.259
 30
0.000000
  70
    32
  0
VERTEX
  8
0
  5
E35
 10
220.552
 20
124.263
 30
0.000000
  70
    32
  0
VERTEX
  8
0
  5
E36
 10
220.542
 20
124.266
 30
0.000000
  70
    32
  0
VERTEX
  8
0
  5
E37
 10
220.532
 20
124.269
 30
0.000000
  70
    32
  0
VERTEX
  8
0
  5
E38
 10
220.522
 20
124.272
 30
0.000000
  70
    32
  0
VERTEX
  8
0
  5
E39
 10
220.512
 20
124.275
 30
0.000000
  70
    32
  0
VERTEX
  8
0
  5
E3A
 10
220.502
 20
124.278
 30
0.000000
  70
    32
  0
VERTEX
  8
0
  5
E3B
 10
220.492
 20
124.280
 30
0.000000
  70
    32
  0
VERTEX
  8
0
  5
E3C
 10
220.482
 20
124.282
 30
0.000000
  70
    32
  0
VERTEX
  8
0
  5
E3D
 10
220.471
 20
124.285
 30
0.000000
  70
    32
  0
VERTEX
  8
0
  5
E3E
 10
220.461
 20
124.287
 30
0.000000
  70
    32
  0
VERTEX
  8
0
  5
E3F
 10
220.451
 20
124.288
 30
0.000000
  70
    32
  0
VERTEX
  8
0
  5
E40
 10
220.441
 20
124.290
 30
0.000000
  70
    32
  0
VERTEX
  8
0
  5
E41
 10
220.431
 20
124.291
 30
0.000000
  70
    32
  0
VERTEX
  8
0
  5
E42
 10
220.421
 20
124.292
 30
0.000000
  70
    32
  0
VERTEX
  8
0
  5
E43
 10
220.411
 20
124.293
 30
0.000000
  70
    32
  0
VERTEX
  8
0
  5
E44
 10
220.400
 20
124.294
 30
0.000000
  70
    32
  0
VERTEX
  8
0
  5
E45
 10
220.390
 20
124.295
 30
0.000000
  70
    32
  0
VERTEX
  8
0
  5
E46
 10
220.380
 20
124.295
 30
0.000000
  70
    32
  0
VERTEX
  8
0
  5
E47
 10
220.370
 20
124.296
 30
0.000000
  70
    32
  0
VERTEX
  8
0
  5
E48
 10
220.360
 20
124.296
 30
0.000000
  70
    32
  0
VERTEX
  8
0
  5
E49
 10
220.349
 20
124.296
 30
0.000000
  70
    32
  0
VERTEX
  8
0
  5
E4A
 10
220.339
 20
124.295
 30
0.000000
  70
    32
  0
VERTEX
  8
0
  5
E4B
 10
220.329
 20
124.295
 30
0.000000
  70
    32
  0
VERTEX
  8
0
  5
E4C
 10
220.319
 20
124.294
 30
0.000000
  70
    32
  0
VERTEX
  8
0
  5
E4D
 10
220.309
 20
124.293
 30
0.000000
  70
    32
  0
VERTEX
  8
0
  5
E4E
 10
220.299
 20
124.292
 30
0.000000
  70
    32
  0
VERTEX
  8
0
  5
E4F
 10
220.288
 20
124.291
 30
0.000000
  70
    32
  0
VERTEX
  8
0
  5
E50
 10
220.278
 20
124.290
 30
0.000000
  70
    32
  0
VERTEX
  8
0
  5
E51
 10
220.268
 20
124.288
 30
0.000000
  70
    32
  0
VERTEX
  8
0
  5
E52
 10
220.258
 20
124.287
 30
0.000000
  70
    32
  0
VERTEX
  8
0
  5
E53
 10
220.248
 20
124.285
 30
0.000000
  70
    32
  0
VERTEX
  8
0
  5
E54
 10
220.238
 20
124.282
 30
0.000000
  70
    32
  0
VERTEX
  8
0
  5
E55
 10
220.228
 20
124.280
 30
0.000000
  70
    32
  0
VERTEX
  8
0
  5
E56
 10
220.218
 20
124.278
 30
0.000000
  70
    32
  0
VERTEX
  8
0
  5
E57
 10
220.207
 20
124.275
 30
0.000000
  70
    32
  0
VERTEX
  8
0
  5
E58
 10
220.197
 20
124.272
 30
0.000000
  70
    32
  0
VERTEX
  8
0
  5
E59
 10
220.187
 20
124.269
 30
0.000000
  70
    32
  0
VERTEX
  8
0
  5
E5A
 10
220.177
 20
124.266
 30
0.000000
  70
    32
  0
VERTEX
  8
0
  5
E5B
 10
220.167
 20
124.263
 30
0.000000
  70
    32
  0
VERTEX
  8
0
  5
E5C
 10
220.158
 20
124.259
 30
0.000000
  70
    32
  0
VERTEX
  8
0
  5
E5D
 10
220.148
 20
124.255
 30
0.000000
  70
    32
  0
VERTEX
  8
0
  5
E5E
 10
220.138
 20
124.251
 30
0.000000
  70
    32
  0
VERTEX
  8
0
  5
E5F
 10
220.128
 20
124.247
 30
0.000000
  70
    32
  0
VERTEX
  8
0
  5
E60
 10
220.118
 20
124.243
 30
0.000000
  70
    32
  0
VERTEX
  8
0
  5
E61
 10
220.108
 20
124.238
 30
0.000000
  70
    32
  0
VERTEX
  8
0
  5
E62
 10
220.099
 20
124.234
 30
0.000000
  70
    32
  0
VERTEX
  8
0
  5
E63
 10
220.089
 20
124.229
 30
0.000000
  70
    32
  0
VERTEX
  8
0
  5
E64
 10
220.079
 20
124.224
 30
0.000000
  70
    32
  0
VERTEX
  8
0
  5
E65
 10
220.070
 20
124.219
 30
0.000000
  70
    32
  0
VERTEX
  8
0
  5
E66
 10
220.060
 20
124.213
 30
0.000000
  70
    32
  0
VERTEX
  8
0
  5
E67
 10
220.050
 20
124.208
 30
0.000000
  70
    32
  0
VERTEX
  8
0
  5
E68
 10
220.041
 20
124.202
 30
0.000000
  70
    32
  0
VERTEX
  8
0
  5
E69
 10
220.031
 20
124.196
 30
0.000000
  70
    32
  0
VERTEX
  8
0
  5
E6A
 10
220.022
 20
124.190
 30
0.000000
  70
    32
  0
VERTEX
  8
0
  5
E6B
 10
220.013
 20
124.184
 30
0.000000
  70
    32
  0
VERTEX
  8
0
  5
E6C
 10
220.003
 20
124.178
 30
0.000000
  70
    32
  0
VERTEX
  8
0
  5
E6D
 10
219.994
 20
124.171
 30
0.000000
  70
    32
  0
VERTEX
  8
0
  5
E6E
 10
219.985
 20
124.164
 30
0.000000
  70
    32
  0
VERTEX
  8
0
  5
E6F
 10
219.976
 20
124.158
 30
0.000000
  70
    32
  0
VERTEX
  8
0
  5
E70
 10
219.966
 20
124.151
 30
0.000000
  70
    32
  0
VERTEX
  8
0
  5
E71
 10
219.957
 20
124.143
 30
0.000000
  70
    32
  0
VERTEX
  8
0
  5
E72
 10
219.948
 20
124.136
 30
0.000000
  70
    32
  0
VERTEX
  8
0
  5
E73
 10
219.939
 20
124.128
 30
0.000000
  70
    32
  0
VERTEX
  8
0
  5
E74
 10
219.931
 20
124.121
 30
0.000000
  70
    32
  0
VERTEX
  8
0
  5
E75
 10
219.922
 20
124.113
 30
0.000000
  70
    32
  0
VERTEX
  8
0
  5
E76
 10
219.913
 20
124.105
 30
0.000000
  70
    32
  0
VERTEX
  8
0
  5
E77
 10
219.904
 20
124.097
 30
0.000000
  70
    32
  0
VERTEX
  8
0
  5
E78
 10
219.896
 20
124.088
 30
0.000000
  70
    32
  0
VERTEX
  8
0
  5
E79
 10
219.887
 20
124.080
 30
0.000000
  70
    32
  0
VERTEX
  8
0
  5
E7A
 10
219.878
 20
124.071
 30
0.000000
  70
    32
  0
VERTEX
  8
0
  5
E7B
 10
219.870
 20
124.062
 30
0.000000
  70
    32
  0
VERTEX
  8
0
  5
E7C
 10
219.862
 20
124.053
 30
0.000000
  70
    32
  0
VERTEX
  8
0
  5
E7D
 10
219.853
 20
124.044
 30
0.000000
  70
    32
  0
VERTEX
  8
0
  5
E7E
 10
219.845
 20
124.035
 30
0.000000
  70
    32
  0
VERTEX
  8
0
  5
E7F
 10
219.837
 20
124.026
 30
0.000000
  70
    32
  0
VERTEX
  8
0
  5
E80
 10
219.829
 20
124.016
 30
0.000000
  70
    32
  0
VERTEX
  8
0
  5
E81
 10
219.821
 20
124.006
 30
0.000000
  70
    32
  0
VERTEX
  8
0
  5
E82
 10
219.813
 20
123.997
 30
0.000000
  70
    32
  0
VERTEX
  8
0
  5
E83
 10
219.805
 20
123.987
 30
0.000000
  70
    32
  0
VERTEX
  8
0
  5
E84
 10
219.797
 20
123.976
 30
0.000000
  70
    32
  0
VERTEX
  8
0
  5
E85
 10
219.789
 20
123.966
 30
0.000000
  70
    32
  0
VERTEX
  8
0
  5
E86
 10
219.781
 20
123.956
 30
0.000000
  70
    32
  0
VERTEX
  8
0
  5
E87
 10
219.774
 20
123.945
 30
0.000000
  70
    32
  0
VERTEX
  8
0
  5
E88
 10
219.766
 20
123.935
 30
0.000000
  70
    32
  0
SEQEND
  8
0
  5
E89
  0
ARC
  5
A85
  8
0
 10
205.85050567117869
 20
110.8227797476825
 30
0.0
 40
20.0
 50
26.540009007947351
 51
40.96412461172509
  0
ARC
  5
A86
  8
0
 10
222.84833447173639
 20
119.3124096611083
 30
0.0
 40
1.0
 50
4.6151572348128216
 51
26.540009007947258
  0
LINE
  5
A87
  8
0
 10
223.8654262561536
 20
119.140976079425
 30
0.0
 11
223.89537638175179
 21
118.8494396516528
 31
0.0
  0
ARC
  5
A88
  8
0
 10
234.8687626854913
 20
110.8227797476825
 30
0.0
 40
20.0
 50
139.0358753885001
 51
153.45999099205261
  0
LINE
  5
A89
  8
0
 10
216.8538421005164
 20
119.140976079425
 30
0.0
 11
216.82389197491821
 21
118.8494396516528
 31
0.0
  0
LINE
  5
A8A
  8
0
 10
216.8538421005164
 20
119.140976079425
 30
0.0
 11
216.8741762574725
 21
119.3928722741535
 31
0.0
  0
ARC
  5
A8B
  8
0
 10
217.87093388493361
 20
119.3124096611083
 30
0.0
 40
1.0
 50
153.4599909920527
 51
175.38484276518719
  0
ARC
  5
A8F
  8
0
 10
224.3550462969512
 20
115.72110370691929
 30
0.0
 40
0.05
 50
187.4530187104076
 51
270.00000000001683
  0
ARC
  5
A90
  8
0
 10
216.3642220597188
 20
115.72110370691929
 30
0.0
 40
0.05
 50
269.99999999998317
 51
352.5469812895924
  0
LINE
  5
A91
  8
0
 10
216.4137996375531
 20
115.7146180476559
 30
0.0
 11
216.82389197491821
 21
118.8494396516528
 31
0.0
  0
LINE
  5
A92
  8
0
 10
224.44114720946251
 20
123.1294234637127
 30
0.0
 11
225.8337642310419
 21
121.679673008195
 31
0.0
  0
LINE
  5
A93
  8
0
 10
225.83376423104181
 20
121.6796730081951
 30
0.0
 11
226.62520195417531
 21
121.3213419492385
 31
0.0
  0
ARC
  5
A97
  8
0
 10
226.109634178335
 20
120.18261903802831
 30
0.0
 40
1.25
 50
0.0
 51
65.640901373421741
  0
LINE
  5
A98
  8
0
 10
216.27812114720749
 20
123.1294234637127
 30
0.0
 11
214.8855041256281
 21
121.679673008195
 31
0.0
  0
ARC
  5
A99
  8
0
 10
214.609634178335
 20
120.18261903802831
 30
0.0
 40
1.25
 50
114.3590986265782
 51
180.0
  0
LINE
  5
A9A
  8
0
 10
214.8855041256283
 20
121.6796730081951
 30
0.0
 11
214.09406640249469
 21
121.3213419492385
 31
0.0
  0
POLYLINE
  5
AAD
  8
0
 10
216.78663327440083
 20
115.16926222649136
 30
0.0
 66
     1
 70
     8
  0
VERTEX
  8
0
  5
E8A
 10
216.787
 20
115.169
 30
0.000000
  70
    32
  0
VERTEX
  8
0
  5
E8B
 10
216.787
 20
115.175
 30
0.000000
  70
    32
  0
VERTEX
  8
0
  5
E8C
 10
216.787
 20
115.182
 30
0.000000
  70
    32
  0
VERTEX
  8
0
  5
E8D
 10
216.787
 20
115.188
 30
0.000000
  70
    32
  0
VERTEX
  8
0
  5
E8E
 10
216.786
 20
115.194
 30
0.000000
  70
    32
  0
VERTEX
  8
0
  5
E8F
 10
216.786
 20
115.200
 30
0.000000
  70
    32
  0
VERTEX
  8
0
  5
E90
 10
216.786
 20
115.206
 30
0.000000
  70
    32
  0
VERTEX
  8
0
  5
E91
 10
216.786
 20
115.212
 30
0.000000
  70
    32
  0
VERTEX
  8
0
  5
E92
 10
216.786
 20
115.218
 30
0.000000
  70
    32
  0
VERTEX
  8
0
  5
E93
 10
216.786
 20
115.225
 30
0.000000
  70
    32
  0
VERTEX
  8
0
  5
E94
 10
216.785
 20
115.231
 30
0.000000
  70
    32
  0
VERTEX
  8
0
  5
E95
 10
216.785
 20
115.237
 30
0.000000
  70
    32
  0
VERTEX
  8
0
  5
E96
 10
216.785
 20
115.243
 30
0.000000
  70
    32
  0
VERTEX
  8
0
  5
E97
 10
216.784
 20
115.249
 30
0.000000
  70
    32
  0
VERTEX
  8
0
  5
E98
 10
216.784
 20
115.255
 30
0.000000
  70
    32
  0
VERTEX
  8
0
  5
E99
 10
216.784
 20
115.261
 30
0.000000
  70
    32
  0
VERTEX
  8
0
  5
E9A
 10
216.783
 20
115.267
 30
0.000000
  70
    32
  0
VERTEX
  8
0
  5
E9B
 10
216.783
 20
115.273
 30
0.000000
  70
    32
  0
VERTEX
  8
0
  5
E9C
 10
216.782
 20
115.279
 30
0.000000
  70
    32
  0
VERTEX
  8
0
  5
E9D
 10
216.782
 20
115.285
 30
0.000000
  70
    32
  0
VERTEX
  8
0
  5
E9E
 10
216.781
 20
115.291
 30
0.000000
  70
    32
  0
VERTEX
  8
0
  5
E9F
 10
216.781
 20
115.297
 30
0.000000
  70
    32
  0
VERTEX
  8
0
  5
EA0
 10
216.780
 20
115.303
 30
0.000000
  70
    32
  0
VERTEX
  8
0
  5
EA1
 10
216.780
 20
115.309
 30
0.000000
  70
    32
  0
VERTEX
  8
0
  5
EA2
 10
216.779
 20
115.315
 30
0.000000
  70
    32
  0
VERTEX
  8
0
  5
EA3
 10
216.779
 20
115.321
 30
0.000000
  70
    32
  0
VERTEX
  8
0
  5
EA4
 10
216.778
 20
115.327
 30
0.000000
  70
    32
  0
VERTEX
  8
0
  5
EA5
 10
216.777
 20
115.333
 30
0.000000
  70
    32
  0
VERTEX
  8
0
  5
EA6
 10
216.777
 20
115.338
 30
0.000000
  70
    32
  0
VERTEX
  8
0
  5
EA7
 10
216.776
 20
115.344
 30
0.000000
  70
    32
  0
VERTEX
  8
0
  5
EA8
 10
216.775
 20
115.350
 30
0.000000
  70
    32
  0
VERTEX
  8
0
  5
EA9
 10
216.774
 20
115.356
 30
0.000000
  70
    32
  0
VERTEX
  8
0
  5
EAA
 10
216.773
 20
115.361
 30
0.000000
  70
    32
  0
VERTEX
  8
0
  5
EAB
 10
216.773
 20
115.367
 30
0.000000
  70
    32
  0
VERTEX
  8
0
  5
EAC
 10
216.772
 20
115.373
 30
0.000000
  70
    32
  0
VERTEX
  8
0
  5
EAD
 10
216.771
 20
115.378
 30
0.000000
  70
    32
  0
VERTEX
  8
0
  5
EAE
 10
216.770
 20
115.384
 30
0.000000
  70
    32
  0
VERTEX
  8
0
  5
EAF
 10
216.769
 20
115.389
 30
0.000000
  70
    32
  0
VERTEX
  8
0
  5
EB0
 10
216.768
 20
115.395
 30
0.000000
  70
    32
  0
VERTEX
  8
0
  5
EB1
 10
216.767
 20
115.400
 30
0.000000
  70
    32
  0
VERTEX
  8
0
  5
EB2
 10
216.766
 20
115.406
 30
0.000000
  70
    32
  0
VERTEX
  8
0
  5
EB3
 10
216.765
 20
115.411
 30
0.000000
  70
    32
  0
VERTEX
  8
0
  5
EB4
 10
216.764
 20
115.417
 30
0.000000
  70
    32
  0
VERTEX
  8
0
  5
EB5
 10
216.763
 20
115.422
 30
0.000000
  70
    32
  0
VERTEX
  8
0
  5
EB6
 10
216.762
 20
115.427
 30
0.000000
  70
    32
  0
VERTEX
  8
0
  5
EB7
 10
216.761
 20
115.433
 30
0.000000
  70
    32
  0
VERTEX
  8
0
  5
EB8
 10
216.760
 20
115.438
 30
0.000000
  70
    32
  0
VERTEX
  8
0
  5
EB9
 10
216.759
 20
115.443
 30
0.000000
  70
    32
  0
VERTEX
  8
0
  5
EBA
 10
216.758
 20
115.448
 30
0.000000
  70
    32
  0
VERTEX
  8
0
  5
EBB
 10
216.756
 20
115.453
 30
0.000000
  70
    32
  0
VERTEX
  8
0
  5
EBC
 10
216.755
 20
115.458
 30
0.000000
  70
    32
  0
VERTEX
  8
0
  5
EBD
 10
216.754
 20
115.463
 30
0.000000
  70
    32
  0
VERTEX
  8
0
  5
EBE
 10
216.753
 20
115.468
 30
0.000000
  70
    32
  0
VERTEX
  8
0
  5
EBF
 10
216.751
 20
115.473
 30
0.000000
  70
    32
  0
VERTEX
  8
0
  5
EC0
 10
216.750
 20
115.478
 30
0.000000
  70
    32
  0
VERTEX
  8
0
  5
EC1
 10
216.749
 20
115.483
 30
0.000000
  70
    32
  0
VERTEX
  8
0
  5
EC2
 10
216.747
 20
115.488
 30
0.000000
  70
    32
  0
VERTEX
  8
0
  5
EC3
 10
216.746
 20
115.492
 30
0.000000
  70
    32
  0
VERTEX
  8
0
  5
EC4
 10
216.745
 20
115.497
 30
0.000000
  70
    32
  0
VERTEX
  8
0
  5
EC5
 10
216.743
 20
115.502
 30
0.000000
  70
    32
  0
VERTEX
  8
0
  5
EC6
 10
216.742
 20
115.506
 30
0.000000
  70
    32
  0
VERTEX
  8
0
  5
EC7
 10
216.741
 20
115.511
 30
0.000000
  70
    32
  0
VERTEX
  8
0
  5
EC8
 10
216.739
 20
115.515
 30
0.000000
  70
    32
  0
VERTEX
  8
0
  5
EC9
 10
216.738
 20
115.520
 30
0.000000
  70
    32
  0
VERTEX
  8
0
  5
ECA
 10
216.736
 20
115.524
 30
0.000000
  70
    32
  0
VERTEX
  8
0
  5
ECB
 10
216.735
 20
115.528
 30
0.000000
  70
    32
  0
VERTEX
  8
0
  5
ECC
 10
216.733
 20
115.533
 30
0.000000
  70
    32
  0
VERTEX
  8
0
  5
ECD
 10
216.732
 20
115.537
 30
0.000000
  70
    32
  0
VERTEX
  8
0
  5
ECE
 10
216.730
 20
115.541
 30
0.000000
  70
    32
  0
VERTEX
  8
0
  5
ECF
 10
216.728
 20
115.545
 30
0.000000
  70
    32
  0
VERTEX
  8
0
  5
ED0
 10
216.727
 20
115.549
 30
0.000000
  70
    32
  0
VERTEX
  8
0
  5
ED1
 10
216.725
 20
115.553
 30
0.000000
  70
    32
  0
VERTEX
  8
0
  5
ED2
 10
216.724
 20
115.557
 30
0.000000
  70
    32
  0
VERTEX
  8
0
  5
ED3
 10
216.722
 20
115.561
 30
0.000000
  70
    32
  0
VERTEX
  8
0
  5
ED4
 10
216.720
 20
115.565
 30
0.000000
  70
    32
  0
VERTEX
  8
0
  5
ED5
 10
216.719
 20
115.569
 30
0.000000
  70
    32
  0
VERTEX
  8
0
  5
ED6
 10
216.717
 20
115.572
 30
0.000000
  70
    32
  0
VERTEX
  8
0
  5
ED7
 10
216.715
 20
115.576
 30
0.000000
  70
    32
  0
VERTEX
  8
0
  5
ED8
 10
216.713
 20
115.580
 30
0.000000
  70
    32
  0
VERTEX
  8
0
  5
ED9
 10
216.712
 20
115.583
 30
0.000000
  70
    32
  0
VERTEX
  8
0
  5
EDA
 10
216.710
 20
115.587
 30
0.000000
  70
    32
  0
VERTEX
  8
0
  5
EDB
 10
216.708
 20
115.590
 30
0.000000
  70
    32
  0
VERTEX
  8
0
  5
EDC
 10
216.706
 20
115.593
 30
0.000000
  70
    32
  0
VERTEX
  8
0
  5
EDD
 10
216.705
 20
115.597
 30
0.000000
  70
    32
  0
VERTEX
  8
0
  5
EDE
 10
216.703
 20
115.600
 30
0.000000
  70
    32
  0
VERTEX
  8
0
  5
EDF
 10
216.701
 20
115.603
 30
0.000000
  70
    32
  0
VERTEX
  8
0
  5
EE0
 10
216.699
 20
115.606
 30
0.000000
  70
    32
  0
VERTEX
  8
0
  5
EE1
 10
216.697
 20
115.609
 30
0.000000
  70
    32
  0
VERTEX
  8
0
  5
EE2
 10
216.695
 20
115.612
 30
0.000000
  70
    32
  0
VERTEX
  8
0
  5
EE3
 10
216.694
 20
115.615
 30
0.000000
  70
    32
  0
VERTEX
  8
0
  5
EE4
 10
216.692
 20
115.618
 30
0.000000
  70
    32
  0
VERTEX
  8
0
  5
EE5
 10
216.690
 20
115.620
 30
0.000000
  70
    32
  0
VERTEX
  8
0
  5
EE6
 10
216.688
 20
115.623
 30
0.000000
  70
    32
  0
VERTEX
  8
0
  5
EE7
 10
216.686
 20
115.626
 30
0.000000
  70
    32
  0
VERTEX
  8
0
  5
EE8
 10
216.684
 20
115.628
 30
0.000000
  70
    32
  0
VERTEX
  8
0
  5
EE9
 10
216.682
 20
115.631
 30
0.000000
  70
    32
  0
VERTEX
  8
0
  5
EEA
 10
216.680
 20
115.633
 30
0.000000
  70
    32
  0
VERTEX
  8
0
  5
EEB
 10
216.678
 20
115.635
 30
0.000000
  70
    32
  0
VERTEX
  8
0
  5
EEC
 10
216.676
 20
115.637
 30
0.000000
  70
    32
  0
VERTEX
  8
0
  5
EED
 10
216.674
 20
115.640
 30
0.000000
  70
    32
  0
VERTEX
  8
0
  5
EEE
 10
216.672
 20
115.642
 30
0.000000
  70
    32
  0
VERTEX
  8
0
  5
EEF
 10
216.670
 20
115.644
 30
0.000000
  70
    32
  0
VERTEX
  8
0
  5
EF0
 10
216.668
 20
115.646
 30
0.000000
  70
    32
  0
VERTEX
  8
0
  5
EF1
 10
216.666
 20
115.648
 30
0.000000
  70
    32
  0
VERTEX
  8
0
  5
EF2
 10
216.664
 20
115.649
 30
0.000000
  70
    32
  0
VERTEX
  8
0
  5
EF3
 10
216.662
 20
115.651
 30
0.000000
  70
    32
  0
VERTEX
  8
0
  5
EF4
 10
216.660
 20
115.653
 30
0.000000
  70
    32
  0
VERTEX
  8
0
  5
EF5
 10
216.658
 20
115.655
 30
0.000000
  70
    32
  0
VERTEX
  8
0
  5
EF6
 10
216.656
 20
115.656
 30
0.000000
  70
    32
  0
VERTEX
  8
0
  5
EF7
 10
216.654
 20
115.658
 30
0.000000
  70
    32
  0
VERTEX
  8
0
  5
EF8
 10
216.652
 20
115.659
 30
0.000000
  70
    32
  0
VERTEX
  8
0
  5
EF9
 10
216.650
 20
115.660
 30
0.000000
  70
    32
  0
VERTEX
  8
0
  5
EFA
 10
216.648
 20
115.661
 30
0.000000
  70
    32
  0
VERTEX
  8
0
  5
EFB
 10
216.646
 20
115.663
 30
0.000000
  70
    32
  0
VERTEX
  8
0
  5
EFC
 10
216.644
 20
115.664
 30
0.000000
  70
    32
  0
VERTEX
  8
0
  5
EFD
 10
216.642
 20
115.665
 30
0.000000
  70
    32
  0
VERTEX
  8
0
  5
EFE
 10
216.639
 20
115.666
 30
0.000000
  70
    32
  0
VERTEX
  8
0
  5
EFF
 10
216.637
 20
115.667
 30
0.000000
  70
    32
  0
VERTEX
  8
0
  5
F00
 10
216.635
 20
115.667
 30
0.000000
  70
    32
  0
VERTEX
  8
0
  5
F01
 10
216.633
 20
115.668
 30
0.000000
  70
    32
  0
VERTEX
  8
0
  5
F02
 10
216.631
 20
115.669
 30
0.000000
  70
    32
  0
VERTEX
  8
0
  5
F03
 10
216.629
 20
115.669
 30
0.000000
  70
    32
  0
VERTEX
  8
0
  5
F04
 10
216.627
 20
115.670
 30
0.000000
  70
    32
  0
VERTEX
  8
0
  5
F05
 10
216.625
 20
115.670
 30
0.000000
  70
    32
  0
VERTEX
  8
0
  5
F06
 10
216.623
 20
115.670
 30
0.000000
  70
    32
  0
VERTEX
  8
0
  5
F07
 10
216.621
 20
115.671
 30
0.000000
  70
    32
  0
VERTEX
  8
0
  5
F08
 10
216.618
 20
115.671
 30
0.000000
  70
    32
  0
VERTEX
  8
0
  5
F09
 10
216.616
 20
115.671
 30
0.000000
  70
    32
  0
VERTEX
  8
0
  5
F0A
 10
216.614
 20
115.671
 30
0.000000
  70
    32
  0
SEQEND
  8
0
  5
F0B
  0
ARC
  5
AAE
  8
0
 10
206.8198369908493
 20
115.9834928682197
 30
0.0
 40
10.0
 50
331.23365111884709
 51
355.32963180574501
  0
ARC
  5
AAF
  8
0
 10
233.89943136582059
 20
115.9834928682197
 30
0.0
 40
10.0
 50
184.6703681942551
 51
208.76634888115291
  0
POLYLINE
  5
AB0
  8
0
 10
223.93263508226917
 20
115.16926222649136
 30
0.0
 66
     1
 70
     8
  0
VERTEX
  8
0
  5
F0C
 10
223.933
 20
115.169
 30
0.000000
  70
    32
  0
VERTEX
  8
0
  5
F0D
 10
223.933
 20
115.175
 30
0.000000
  70
    32
  0
VERTEX
  8
0
  5
F0E
 10
223.933
 20
115.182
 30
0.000000
  70
    32
  0
VERTEX
  8
0
  5
F0F
 10
223.933
 20
115.188
 30
0.000000
  70
    32
  0
VERTEX
  8
0
  5
F10
 10
223.933
 20
115.194
 30
0.000000
  70
    32
  0
VERTEX
  8
0
  5
F11
 10
223.933
 20
115.200
 30
0.000000
  70
    32
  0
VERTEX
  8
0
  5
F12
 10
223.933
 20
115.206
 30
0.000000
  70
    32
  0
VERTEX
  8
0
  5
F13
 10
223.933
 20
115.212
 30
0.000000
  70
    32
  0
VERTEX
  8
0
  5
F14
 10
223.933
 20
115.218
 30
0.000000
  70
    32
  0
VERTEX
  8
0
  5
F15
 10
223.934
 20
115.225
 30
0.000000
  70
    32
  0
VERTEX
  8
0
  5
F16
 10
223.934
 20
115.231
 30
0.000000
  70
    32
  0
VERTEX
  8
0
  5
F17
 10
223.934
 20
115.237
 30
0.000000
  70
    32
  0
VERTEX
  8
0
  5
F18
 10
223.935
 20
115.243
 30
0.000000
  70
    32
  0
VERTEX
  8
0
  5
F19
 10
223.935
 20
115.249
 30
0.000000
  70
    32
  0
VERTEX
  8
0
  5
F1A
 10
223.935
 20
115.255
 30
0.000000
  70
    32
  0
VERTEX
  8
0
  5
F1B
 10
223.936
 20
115.261
 30
0.000000
  70
    32
  0
VERTEX
  8
0
  5
F1C
 10
223.936
 20
115.267
 30
0.000000
  70
    32
  0
VERTEX
  8
0
  5
F1D
 10
223.936
 20
115.273
 30
0.000000
  70
    32
  0
VERTEX
  8
0
  5
F1E
 10
223.937
 20
115.279
 30
0.000000
  70
    32
  0
VERTEX
  8
0
  5
F1F
 10
223.937
 20
115.285
 30
0.000000
  70
    32
  0
VERTEX
  8
0
  5
F20
 10
223.938
 20
115.291
 30
0.000000
  70
    32
  0
VERTEX
  8
0
  5
F21
 10
223.938
 20
115.297
 30
0.000000
  70
    32
  0
VERTEX
  8
0
  5
F22
 10
223.939
 20
115.303
 30
0.000000
  70
    32
  0
VERTEX
  8
0
  5
F23
 10
223.939
 20
115.309
 30
0.000000
  70
    32
  0
VERTEX
  8
0
  5
F24
 10
223.940
 20
115.315
 30
0.000000
  70
    32
  0
VERTEX
  8
0
  5
F25
 10
223.941
 20
115.321
 30
0.000000
  70
    32
  0
VERTEX
  8
0
  5
F26
 10
223.941
 20
115.327
 30
0.000000
  70
    32
  0
VERTEX
  8
0
  5
F27
 10
223.942
 20
115.333
 30
0.000000
  70
    32
  0
VERTEX
  8
0
  5
F28
 10
223.943
 20
115.338
 30
0.000000
  70
    32
  0
VERTEX
  8
0
  5
F29
 10
223.943
 20
115.344
 30
0.000000
  70
    32
  0
VERTEX
  8
0
  5
F2A
 10
223.944
 20
115.350
 30
0.000000
  70
    32
  0
VERTEX
  8
0
  5
F2B
 10
223.945
 20
115.356
 30
0.000000
  70
    32
  0
VERTEX
  8
0
  5
F2C
 10
223.946
 20
115.361
 30
0.000000
  70
    32
  0
VERTEX
  8
0
  5
F2D
 10
223.947
 20
115.367
 30
0.000000
  70
    32
  0
VERTEX
  8
0
  5
F2E
 10
223.947
 20
115.373
 30
0.000000
  70
    32
  0
VERTEX
  8
0
  5
F2F
 10
223.948
 20
115.378
 30
0.000000
  70
    32
  0
VERTEX
  8
0
  5
F30
 10
223.949
 20
115.384
 30
0.000000
  70
    32
  0
VERTEX
  8
0
  5
F31
 10
223.950
 20
115.389
 30
0.000000
  70
    32
  0
VERTEX
  8
0
  5
F32
 10
223.951
 20
115.395
 30
0.000000
  70
    32
  0
VERTEX
  8
0
  5
F33
 10
223.952
 20
115.400
 30
0.000000
  70
    32
  0
VERTEX
  8
0
  5
F34
 10
223.953
 20
115.406
 30
0.000000
  70
    32
  0
VERTEX
  8
0
  5
F35
 10
223.954
 20
115.411
 30
0.000000
  70
    32
  0
VERTEX
  8
0
  5
F36
 10
223.955
 20
115.417
 30
0.000000
  70
    32
  0
VERTEX
  8
0
  5
F37
 10
223.956
 20
115.422
 30
0.000000
  70
    32
  0
VERTEX
  8
0
  5
F38
 10
223.957
 20
115.427
 30
0.000000
  70
    32
  0
VERTEX
  8
0
  5
F39
 10
223.958
 20
115.433
 30
0.000000
  70
    32
  0
VERTEX
  8
0
  5
F3A
 10
223.959
 20
115.438
 30
0.000000
  70
    32
  0
VERTEX
  8
0
  5
F3B
 10
223.961
 20
115.443
 30
0.000000
  70
    32
  0
VERTEX
  8
0
  5
F3C
 10
223.962
 20
115.448
 30
0.000000
  70
    32
  0
VERTEX
  8
0
  5
F3D
 10
223.963
 20
115.453
 30
0.000000
  70
    32
  0
VERTEX
  8
0
  5
F3E
 10
223.964
 20
115.458
 30
0.000000
  70
    32
  0
VERTEX
  8
0
  5
F3F
 10
223.965
 20
115.463
 30
0.000000
  70
    32
  0
VERTEX
  8
0
  5
F40
 10
223.967
 20
115.468
 30
0.000000
  70
    32
  0
VERTEX
  8
0
  5
F41
 10
223.968
 20
115.473
 30
0.000000
  70
    32
  0
VERTEX
  8
0
  5
F42
 10
223.969
 20
115.478
 30
0.000000
  70
    32
  0
VERTEX
  8
0
  5
F43
 10
223.970
 20
115.483
 30
0.000000
  70
    32
  0
VERTEX
  8
0
  5
F44
 10
223.972
 20
115.488
 30
0.000000
  70
    32
  0
VERTEX
  8
0
  5
F45
 10
223.973
 20
115.492
 30
0.000000
  70
    32
  0
VERTEX
  8
0
  5
F46
 10
223.975
 20
115.497
 30
0.000000
  70
    32
  0
VERTEX
  8
0
  5
F47
 10
223.976
 20
115.502
 30
0.000000
  70
    32
  0
VERTEX
  8
0
  5
F48
 10
223.977
 20
115.506
 30
0.000000
  70
    32
  0
VERTEX
  8
0
  5
F49
 10
223.979
 20
115.511
 30
0.000000
  70
    32
  0
VERTEX
  8
0
  5
F4A
 10
223.980
 20
115.515
 30
0.000000
  70
    32
  0
VERTEX
  8
0
  5
F4B
 10
223.982
 20
115.520
 30
0.000000
  70
    32
  0
VERTEX
  8
0
  5
F4C
 10
223.983
 20
115.524
 30
0.000000
  70
    32
  0
VERTEX
  8
0
  5
F4D
 10
223.985
 20
115.528
 30
0.000000
  70
    32
  0
VERTEX
  8
0
  5
F4E
 10
223.986
 20
115.533
 30
0.000000
  70
    32
  0
VERTEX
  8
0
  5
F4F
 10
223.988
 20
115.537
 30
0.000000
  70
    32
  0
VERTEX
  8
0
  5
F50
 10
223.989
 20
115.541
 30
0.000000
  70
    32
  0
VERTEX
  8
0
  5
F51
 10
223.991
 20
115.545
 30
0.000000
  70
    32
  0
VERTEX
  8
0
  5
F52
 10
223.992
 20
115.549
 30
0.000000
  70
    32
  0
VERTEX
  8
0
  5
F53
 10
223.994
 20
115.553
 30
0.000000
  70
    32
  0
VERTEX
  8
0
  5
F54
 10
223.996
 20
115.557
 30
0.000000
  70
    32
  0
VERTEX
  8
0
  5
F55
 10
223.997
 20
115.561
 30
0.000000
  70
    32
  0
VERTEX
  8
0
  5
F56
 10
223.999
 20
115.565
 30
0.000000
  70
    32
  0
VERTEX
  8
0
  5
F57
 10
224.001
 20
115.569
 30
0.000000
  70
    32
  0
VERTEX
  8
0
  5
F58
 10
224.002
 20
115.572
 30
0.000000
  70
    32
  0
VERTEX
  8
0
  5
F59
 10
224.004
 20
115.576
 30
0.000000
  70
    32
  0
VERTEX
  8
0
  5
F5A
 10
224.006
 20
115.580
 30
0.000000
  70
    32
  0
VERTEX
  8
0
  5
F5B
 10
224.008
 20
115.583
 30
0.000000
  70
    32
  0
VERTEX
  8
0
  5
F5C
 10
224.009
 20
115.587
 30
0.000000
  70
    32
  0
VERTEX
  8
0
  5
F5D
 10
224.011
 20
115.590
 30
0.000000
  70
    32
  0
VERTEX
  8
0
  5
F5E
 10
224.013
 20
115.593
 30
0.000000
  70
    32
  0
VERTEX
  8
0
  5
F5F
 10
224.015
 20
115.597
 30
0.000000
  70
    32
  0
VERTEX
  8
0
  5
F60
 10
224.016
 20
115.600
 30
0.000000
  70
    32
  0
VERTEX
  8
0
  5
F61
 10
224.018
 20
115.603
 30
0.000000
  70
    32
  0
VERTEX
  8
0
  5
F62
 10
224.020
 20
115.606
 30
0.000000
  70
    32
  0
VERTEX
  8
0
  5
F63
 10
224.022
 20
115.609
 30
0.000000
  70
    32
  0
VERTEX
  8
0
  5
F64
 10
224.024
 20
115.612
 30
0.000000
  70
    32
  0
VERTEX
  8
0
  5
F65
 10
224.026
 20
115.615
 30
0.000000
  70
    32
  0
VERTEX
  8
0
  5
F66
 10
224.028
 20
115.618
 30
0.000000
  70
    32
  0
VERTEX
  8
0
  5
F67
 10
224.029
 20
115.620
 30
0.000000
  70
    32
  0
VERTEX
  8
0
  5
F68
 10
224.031
 20
115.623
 30
0.000000
  70
    32
  0
VERTEX
  8
0
  5
F69
 10
224.033
 20
115.626
 30
0.000000
  70
    32
  0
VERTEX
  8
0
  5
F6A
 10
224.035
 20
115.628
 30
0.000000
  70
    32
  0
VERTEX
  8
0
  5
F6B
 10
224.037
 20
115.631
 30
0.000000
  70
    32
  0
VERTEX
  8
0
  5
F6C
 10
224.039
 20
115.633
 30
0.000000
  70
    32
  0
VERTEX
  8
0
  5
F6D
 10
224.041
 20
115.635
 30
0.000000
  70
    32
  0
VERTEX
  8
0
  5
F6E
 10
224.043
 20
115.637
 30
0.000000
  70
    32
  0
VERTEX
  8
0
  5
F6F
 10
224.045
 20
115.640
 30
0.000000
  70
    32
  0
VERTEX
  8
0
  5
F70
 10
224.047
 20
115.642
 30
0.000000
  70
    32
  0
VERTEX
  8
0
  5
F71
 10
224.049
 20
115.644
 30
0.000000
  70
    32
  0
VERTEX
  8
0
  5
F72
 10
224.051
 20
115.646
 30
0.000000
  70
    32
  0
VERTEX
  8
0
  5
F73
 10
224.053
 20
115.648
 30
0.000000
  70
    32
  0
VERTEX
  8
0
  5
F74
 10
224.055
 20
115.649
 30
0.000000
  70
    32
  0
VERTEX
  8
0
  5
F75
 10
224.057
 20
115.651
 30
0.000000
  70
    32
  0
VERTEX
  8
0
  5
F76
 10
224.059
 20
115.653
 30
0.000000
  70
    32
  0
VERTEX
  8
0
  5
F77
 10
224.061
 20
115.655
 30
0.000000
  70
    32
  0
VERTEX
  8
0
  5
F78
 10
224.063
 20
115.656
 30
0.000000
  70
    32
  0
VERTEX
  8
0
  5
F79
 10
224.065
 20
115.658
 30
0.000000
  70
    32
  0
VERTEX
  8
0
  5
F7A
 10
224.067
 20
115.659
 30
0.000000
  70
    32
  0
VERTEX
  8
0
  5
F7B
 10
224.069
 20
115.660
 30
0.000000
  70
    32
  0
VERTEX
  8
0
  5
F7C
 10
224.071
 20
115.661
 30
0.000000
  70
    32
  0
VERTEX
  8
0
  5
F7D
 10
224.074
 20
115.663
 30
0.000000
  70
    32
  0
VERTEX
  8
0
  5
F7E
 10
224.076
 20
115.664
 30
0.000000
  70
    32
  0
VERTEX
  8
0
  5
F7F
 10
224.078
 20
115.665
 30
0.000000
  70
    32
  0
VERTEX
  8
0
  5
F80
 10
224.080
 20
115.666
 30
0.000000
  70
    32
  0
VERTEX
  8
0
  5
F81
 10
224.082
 20
115.667
 30
0.000000
  70
    32
  0
VERTEX
  8
0
  5
F82
 10
224.084
 20
115.667
 30
0.000000
  70
    32
  0
VERTEX
  8
0
  5
F83
 10
224.086
 20
115.668
 30
0.000000
  70
    32
  0
VERTEX
  8
0
  5
F84
 10
224.088
 20
115.669
 30
0.000000
  70
    32
  0
VERTEX
  8
0
  5
F85
 10
224.090
 20
115.669
 30
0.000000
  70
    32
  0
VERTEX
  8
0
  5
F86
 10
224.092
 20
115.670
 30
0.000000
  70
    32
  0
VERTEX
  8
0
  5
F87
 10
224.094
 20
115.670
 30
0.000000
  70
    32
  0
VERTEX
  8
0
  5
F88
 10
224.097
 20
115.670
 30
0.000000
  70
    32
  0
VERTEX
  8
0
  5
F89
 10
224.099
 20
115.671
 30
0.000000
  70
    32
  0
VERTEX
  8
0
  5
F8A
 10
224.101
 20
115.671
 30
0.000000
  70
    32
  0
VERTEX
  8
0
  5
F8B
 10
224.103
 20
115.671
 30
0.000000
  70
    32
  0
VERTEX
  8
0
  5
F8C
 10
224.105
 20
115.671
 30
0.000000
  70
    32
  0
SEQEND
  8
0
  5
F8D
  0
LINE
  5
AB4
  8
0
 10
227.359634178335
 20
120.18261903802831
 30
0.0
 11
226.859634178335
 21
100.6711037069193
 31
0.0
  0
LINE
  5
AB5
  8
0
 10
213.359634178335
 20
120.18261903802831
 30
0.0
 11
213.859634178335
 21
100.6711037069193
 31
0.0
  0
LINE
  5
ABD
  8
3
 10
126.1594126440332
 20
94.671103706919325
 30
0.0
 11
125.7264126440334
 21
95.421081706596297
 31
0.0
  0
LINE
  5
ABE
  8
0
 10
130.7264126440333
 20
87.571103706919416
 30
0.0
 11
125.7264126440333
 21
87.571103706919416
 31
0.0
  0
LINE
  5
ABF
  8
0
 10
126.62641264403339
 20
86.671103706919382
 30
0.0
 11
125.7264126440333
 21
87.571103706919359
 31
0.0
  0
LINE
  5
AC0
  8
0
 10
130.72641264403339
 20
87.571103706919359
 30
0.0
 11
129.82641264403341
 21
86.671103706919382
 31
0.0
  0
LINE
  5
AC1
  8
3
 10
130.29341264403359
 20
94.671103706919325
 30
0.0
 11
130.72641264403339
 21
95.421081706596297
 31
0.0
  0
LINE
  5
AC2
  8
0
 10
130.72641264403339
 20
94.671103706919325
 30
0.0
 11
125.7264126440334
 21
94.671103706919325
 31
0.0
  0
LINE
  5
AC3
  8
0
 10
129.82641264403341
 20
86.671103706919382
 30
0.0
 11
126.62641264403339
 21
86.671103706919382
 31
0.0
  0
LINE
  5
AC4
  8
0
 10
130.72641264403339
 20
96.671103706919382
 30
0.0
 11
130.72641264403339
 21
87.571103706919359
 31
0.0
  0
LINE
  5
AC5
  8
3
 10
130.29341264403359
 20
94.671103706919325
 30
0.0
 11
130.29341264403359
 21
87.138103706919594
 31
0.0
  0
LINE
  5
AC6
  8
3
 10
126.1594126440332
 20
94.671103706919325
 30
0.0
 11
126.1594126440332
 21
87.138103706919537
 31
0.0
  0
LINE
  5
AC7
  8
0
 10
125.7264126440334
 20
96.671103706919382
 30
0.0
 11
125.7264126440333
 21
87.571103706919359
 31
0.0
  0
LINE
  5
AD6
  8
0
 10
69.161858812319849
 20
94.671103706919325
 30
0.0
 11
64.161858812319849
 21
94.671103706919325
 31
0.0
  0
LINE
  5
AD7
  8
0
 10
69.161858812319849
 20
87.571103706919416
 30
0.0
 11
64.161858812319849
 21
87.571103706919416
 31
0.0
  0
LINE
  5
AD8
  8
0
 10
68.261858812319872
 20
86.671103706919382
 30
0.0
 11
65.061858812319826
 21
86.671103706919382
 31
0.0
  0
LINE
  5
AD9
  8
3
 10
64.594858812319671
 20
94.671103706919325
 30
0.0
 11
64.594858812319671
 21
87.138103706919537
 31
0.0
  0
LINE
  5
ADA
  8
0
 10
64.161858812319849
 20
96.671103706919382
 30
0.0
 11
64.161858812319849
 21
87.571103706919359
 31
0.0
  0
LINE
  5
ADB
  8
0
 10
65.061858812319826
 20
86.671103706919382
 30
0.0
 11
64.161858812319849
 21
87.571103706919359
 31
0.0
  0
LINE
  5
ADC
  8
3
 10
64.594858812319671
 20
94.671103706919325
 30
0.0
 11
64.161858812319906
 21
95.421081706596297
 31
0.0
  0
LINE
  5
ADD
  8
3
 10
68.728858812320084
 20
94.671103706919325
 30
0.0
 11
68.728858812320027
 21
87.138103706919594
 31
0.0
  0
LINE
  5
ADE
  8
0
 10
69.161858812319849
 20
96.671103706919382
 30
0.0
 11
69.161858812319849
 21
87.571103706919359
 31
0.0
  0
LINE
  5
ADF
  8
0
 10
69.161858812319849
 20
87.571103706919359
 30
0.0
 11
68.261858812319872
 21
86.671103706919382
 31
0.0
  0
LINE
  5
AE0
  8
3
 10
68.728858812320084
 20
94.671103706919325
 30
0.0
 11
69.161858812319849
 21
95.421081706596297
 31
0.0
  0
LINE
  5
AE1
  8
0
 10
222.859634178335
 20
94.671103706919325
 30
0.0
 11
217.859634178335
 21
94.671103706919325
 31
0.0
  0
LINE
  5
AE2
  8
0
 10
222.859634178335
 20
87.571103706919416
 30
0.0
 11
217.85963417833489
 21
87.571103706919416
 31
0.0
  0
LINE
  5
AE3
  8
0
 10
221.95963417833499
 20
86.671103706919382
 30
0.0
 11
218.75963417833501
 21
86.671103706919382
 31
0.0
  0
LINE
  5
AE4
  8
3
 10
218.29263417833471
 20
94.671103706919325
 30
0.0
 11
218.29263417833471
 21
87.138103706919537
 31
0.0
  0
LINE
  5
AE5
  8
0
 10
217.859634178335
 20
96.671103706919382
 30
0.0
 11
217.85963417833489
 21
87.571103706919359
 31
0.0
  0
LINE
  5
AE6
  8
0
 10
218.75963417833501
 20
86.671103706919382
 30
0.0
 11
217.85963417833489
 21
87.571103706919359
 31
0.0
  0
LINE
  5
AE7
  8
3
 10
218.29263417833479
 20
94.671103706919325
 30
0.0
 11
217.859634178335
 21
95.421081706596297
 31
0.0
  0
LINE
  5
AE8
  8
3
 10
222.42663417833521
 20
94.671103706919325
 30
0.0
 11
222.42663417833521
 21
87.138103706919594
 31
0.0
  0
LINE
  5
AE9
  8
0
 10
222.859634178335
 20
96.671103706919382
 30
0.0
 11
222.859634178335
 21
87.571103706919359
 31
0.0
  0
LINE
  5
AEA
  8
0
 10
222.859634178335
 20
87.571103706919359
 30
0.0
 11
221.95963417833499
 21
86.671103706919382
 31
0.0
  0
LINE
  5
AEB
  8
3
 10
222.42663417833521
 20
94.671103706919325
 30
0.0
 11
222.859634178335
 21
95.421081706596297
 31
0.0
  0
CIRCLE
  5
B4A
  8
0
 10
128.23641264403341
 20
170.73502202255119
 30
0.0
 40
4.0
  0
ARC
  5
B4D
  8
0
 10
126.4057507380215
 20
171.7919551667824
 30
0.0
 40
0.6912500000000005
 50
309.68887794065949
 51
16.658241772777039
  0
ARC
  5
B4E
  8
0
 10
127.4464126440334
 20
172.10334216053059
 30
0.0
 40
0.3949999999999998
 50
43.341758227221717
 51
196.65824177277699
  0
ARC
  5
B4F
  8
0
 10
128.23641264403341
 20
172.84888831101361
 30
0.0
 40
0.6912499999999989
 50
223.3417582272217
 51
316.6582417727783
  0
ARC
  5
B50
  8
0
 10
129.0264126440334
 20
172.10334216053059
 30
0.0
 40
0.3950000000000002
 50
343.3417582272229
 51
136.65824177277821
  0
ARC
  5
B51
  8
0
 10
126.4057507380215
 20
169.67808887832001
 30
0.0
 40
0.691250000000001
 50
343.3417582272229
 51
50.311122059331304
  0
ARC
  5
B52
  8
0
 10
127.4464126440334
 20
169.3667018845718
 30
0.0
 40
0.3950000000000001
 50
163.3417582272229
 51
316.6582417727783
  0
ARC
  5
B53
  8
0
 10
128.23641264403341
 20
168.6211557340888
 30
0.0
 40
0.6912500000000003
 50
43.341758227221717
 51
136.65824177277651
  0
ARC
  5
B54
  8
0
 10
129.0264126440334
 20
169.3667018845718
 30
0.0
 40
0.3949999999999998
 50
223.3417582272217
 51
16.658241772777039
  0
ARC
  5
B55
  8
0
 10
130.06707455004539
 20
169.67808887832001
 30
0.0
 40
0.6912500000000003
 50
129.6888779406687
 51
196.65824177277699
  0
ARC
  5
B56
  8
0
 10
130.06707455004539
 20
171.7919551667824
 30
0.0
 40
0.6912500000000011
 50
163.3417582272229
 51
230.31112205934281
  0
LINE
  5
B5A
  8
0
 10
125.48641264403339
 20
170.21002202255119
 30
0.0
 11
126.8471957431674
 21
170.21002202255119
 31
0.0
  0
LINE
  5
B5B
  8
0
 10
125.48641264403339
 20
171.2600220225512
 30
0.0
 11
126.8471957431674
 21
171.2600220225512
 31
0.0
  0
LINE
  5
B5C
  8
0
 10
129.62562954489951
 20
171.2600220225512
 30
0.0
 11
130.98641264403341
 21
171.2600220225512
 31
0.0
  0
LINE
  5
B5D
  8
0
 10
129.6256295448994
 20
170.21002202255119
 30
0.0
 11
130.98641264403341
 21
170.21002202255119
 31
0.0
  0
ARC
  5
B5E
  8
0
 10
128.23641264403341
 20
170.73502202255119
 30
0.0
 40
2.7567916134521511
 50
355.97735839170269
 51
4.0226416083006269
  0
LINE
  5
B5F
  8
0
 10
130.98641264403341
 20
171.2600220225512
 30
0.0
 11
130.98641264403341
 21
170.21002202255119
 31
0.0
  0
LINE
  5
B60
  8
0
 10
125.48641264403339
 20
171.2600220225512
 30
0.0
 11
125.48641264403339
 21
170.21002202255119
 31
0.0
  0
ARC
  5
B61
  8
0
 10
128.23641264403341
 20
170.73502202255119
 30
0.0
 40
2.7567916134521511
 50
10.978391329937949
 51
169.02160867006199
  0
ARC
  5
B62
  8
0
 10
128.23641264403341
 20
170.73502202255119
 30
0.0
 40
2.7567916134521511
 50
190.97839132993789
 51
349.02160867006211
  0
ARC
  5
B63
  8
0
 10
128.23641264403341
 20
170.73502202255119
 30
0.0
 40
2.7567916134521511
 50
175.97735839169599
 51
184.0226416083039
  0
ARC
  5
B65
  8
0
 10
128.22641264403339
 20
113.66110370691931
 30
0.0
 40
8.0
 50
110.15731621557541
 51
119.9999999999997
  0
LINE
  5
B66
  8
0
 10
124.2264126440335
 20
120.58930693719491
 30
0.0
 11
129.1966849238874
 21
120.58930693719491
 31
0.0
  0
ARC
  5
B67
  8
0
 10
128.22641264403339
 20
113.66110370691931
 30
0.0
 40
8.0
 50
69.72848432726677
 51
69.842683784424523
  0
LINE
  5
B68
  8
0
 10
130.98320425748551
 20
121.1711037069193
 30
0.0
 11
125.46962103058129
 21
121.1711037069193
 31
0.0
  0
LINE
  5
B6A
  8
0
 10
124.2264126440335
 20
120.58930693719491
 30
0.0
 11
124.2264126440334
 21
118.86769631867411
 31
0.0
  0
ARC
  5
B6D
  8
0
 10
66.661858812319863
 20
113.66110370691931
 30
0.0
 40
8.0
 50
110.15731621557541
 51
119.9999999999997
  0
LINE
  5
B6E
  8
0
 10
62.661858812319949
 20
120.58930693719491
 30
0.0
 11
70.661858812319863
 21
120.58930693719481
 31
0.0
  0
ARC
  5
B6F
  8
0
 10
66.661858812319863
 20
113.66110370691931
 30
0.0
 40
8.0
 50
60.000000000000277
 51
69.842683784424523
  0
LINE
  5
B70
  8
0
 10
69.418650425772015
 20
121.1711037069193
 30
0.0
 11
63.905067198867741
 21
121.1711037069193
 31
0.0
  0
LINE
  5
B72
  8
0
 10
62.661858812319949
 20
120.58930693719491
 30
0.0
 11
62.661858812319899
 21
119.46520300721549
 31
0.0
  0
LINE
  5
B73
  8
0
 10
70.661858812319863
 20
120.58930693719481
 30
0.0
 11
70.661858812319863
 21
119.46520300721549
 31
0.0
  0
POLYLINE
  5
B76
  8
0
 66
     1
 10
0.0
 20
0.0
 30
0.0
 70
     1
  0
VERTEX
  5
B77
  8
0
 10
66.66185881228634
 20
118.66399223168339
 30
0.0
 42
0.0369961751365311
  0
VERTEX
  5
B86
  8
0
 10
68.586076840679993
 20
118.80656478748099
 30
0.0
 42
0.0493901968537898
  0
VERTEX
  5
B78
  8
0
 10
69.989149915724667
 20
119.1597770751216
 30
0.0
 42
0.0927145054771257
 70
     2
 50
19.785242157449328
  0
VERTEX
  5
B87
  8
0
 10
71.125246379641737
 20
119.8257681165655
 30
0.0
 42
0.2172434185878815
 50
19.785242157449328
  0
VERTEX
  5
B79
  8
0
 10
71.367359016751806
 20
120.3567075683011
 30
0.0
 42
0.217243418587877
  0
VERTEX
  5
B80
  8
0
 10
71.125246379662784
 20
120.8876470200463
 30
0.0
 42
0.0927145054771323
  0
VERTEX
  5
B7A
  8
0
 10
69.989149915772074
 20
121.5536380615352
 30
0.0
 42
0.0493901968537941
 70
     2
 50
160.21475784028021
  0
VERTEX
  5
B81
  8
0
 10
68.586076840741384
 20
121.90685034923141
 30
0.0
 42
0.0369961751365328
 50
160.21475784028021
  0
VERTEX
  5
B7B
  8
0
 10
66.661858812353415
 20
122.0494229051053
 30
0.0
 42
0.0369961751365347
  0
VERTEX
  5
B82
  8
0
 10
64.737640783959932
 20
121.9068503493077
 30
0.0
 42
0.049390196853804
  0
VERTEX
  5
B7C
  8
0
 10
63.334567708915081
 20
121.553638061667
 30
0.0
 42
0.0927145054771245
 70
     2
 50
199.78524215744929
  0
VERTEX
  5
B83
  8
0
 10
62.198471244998011
 20
120.8876470202232
 30
0.0
 42
0.2172434185878682
 50
199.78524215744929
  0
VERTEX
  5
B7D
  8
0
 10
61.95635860788795
 20
120.35670756848749
 30
0.0
 42
0.217243418587873
  0
VERTEX
  5
B84
  8
0
 10
62.198471244976957
 20
119.8257681167424
 30
0.0
 42
0.0927145054771311
  0
VERTEX
  5
B7E
  8
0
 10
63.334567708867652
 20
119.1597770752534
 30
0.0
 42
0.0493901968537945
 70
     2
 50
340.2147578402803
  0
VERTEX
  5
B85
  8
0
 10
64.737640783898314
 20
118.80656478755721
 30
0.0
 42
0.0369961751365357
 50
340.2147578402803
  0
SEQEND
  5
B7F
  8
0
  0
TEXT
  5
C73
  8
0
 62
     3
 10
0.0
 20
0.0
 30
0.0
 40
10.0
  1
FKR5X10-CR-SUS
  7
STANDARD1
  0
ENDSEC
  0
EOF
