  0
SECTION
  2
HEADER
  9
$ACADVER
  1
AC1009
  9
$INSBASE
 10
0.0
 20
0.0
 30
0.0
  9
$EXTMIN
 10
0.0
 20
-2.960436562073669
 30
0.0
  9
$EXTMAX
 10
291.0
 20
303.0
 30
0.0
  9
$LIMMIN
 10
0.0
 20
0.0
  9
$LIMMAX
 10
187.5
 20
135.0
  9
$ORTHOMODE
 70
     1
  9
$REGENMODE
 70
     1
  9
$FILLMODE
 70
     1
  9
$QTEXTMODE
 70
     0
  9
$MIRRTEXT
 70
     0
  9
$DRAGMODE
 70
     2
  9
$LTSCALE
 40
10.0
  9
$OSMODE
 70
    37
  9
$ATTMODE
 70
     1
  9
$TEXTSIZE
 40
4.0
  9
$TRACEWID
 40
0.05
  9
$TEXTSTYLE
  7
STANDARD
  9
$CLAYER
  8
0
  9
$CELTYPE
  6
BYLAYER
  9
$CECOLOR
 62
   256
  9
$DIMSCALE
 40
0.5
  9
$DIMASZ
 40
3.0
  9
$DIMEXO
 40
2.0
  9
$DIMDLI
 40
0.38
  9
$DIMRND
 40
0.0
  9
$DIMDLE
 40
0.0
  9
$DIMEXE
 40
2.0
  9
$DIMTP
 40
0.0
  9
$DIMTM
 40
0.0
  9
$DIMTXT
 40
3.0
  9
$DIMCEN
 40
0.0
  9
$DIMTSZ
 40
0.0
  9
$DIMTOL
 70
     0
  9
$DIMLIM
 70
     0
  9
$DIMTIH
 70
     0
  9
$DIMTOH
 70
     0
  9
$DIMSE1
 70
     0
  9
$DIMSE2
 70
     0
  9
$DIMTAD
 70
     1
  9
$DIMZIN
 70
     0
  9
$DIMBLK
  1

  9
$DIMASO
 70
     0
  9
$DIMSHO
 70
     0
  9
$DIMPOST
  1

  9
$DIMAPOST
  1

  9
$DIMALT
 70
     0
  9
$DIMALTD
 70
     2
  9
$DIMALTF
 40
25.399999999999999
  9
$DIMLFAC
 40
1.0
  9
$DIMTOFL
 70
     0
  9
$DIMTVP
 40
1.6000000000000001
  9
$DIMTIX
 70
     1
  9
$DIMSOXD
 70
     0
  9
$DIMSAH
 70
     0
  9
$DIMBLK1
  1

  9
$DIMBLK2
  1

  9
$DIMSTYLE
  2
STANDARD
  9
$DIMCLRD
 70
     0
  9
$DIMCLRE
 70
     0
  9
$DIMCLRT
 70
     0
  9
$DIMTFAC
 40
1.0
  9
$DIMGAP
 40
0.09
  9
$LUNITS
 70
     2
  9
$LUPREC
 70
     4
  9
$SKETCHINC
 40
0.1
  9
$FILLETRAD
 40
1.25
  9
$AUNITS
 70
     0
  9
$AUPREC
 70
     0
  9
$MENU
  1
E:\r13\win\SUPPORT\ACAD
  9
$ELEVATION
 40
0.0
  9
$PELEVATION
 40
0.0
  9
$THICKNESS
 40
0.0
  9
$LIMCHECK
 70
     0
  9
$BLIPMODE
 70
     0
  9
$CHAMFERA
 40
0.0
  9
$CHAMFERB
 40
0.0
  9
$SKPOLY
 70
     0
  9
$TDCREATE
 40
2449840.6143865739
  9
$TDUPDATE
 40
2456806.4464808558
  9
$TDINDWG
 40
0.2662772801
  9
$TDUSRTIMER
 40
0.2662772801
  9
$USRTIMER
 70
     1
  9
$ANGBASE
 50
0.0
  9
$ANGDIR
 70
     0
  9
$PDMODE
 70
     0
  9
$PDSIZE
 40
0.0
  9
$PLINEWID
 40
0.0
  9
$COORDS
 70
     1
  9
$SPLFRAME
 70
     0
  9
$SPLINETYPE
 70
     6
  9
$SPLINESEGS
 70
     8
  9
$ATTDIA
 70
     0
  9
$ATTREQ
 70
     1
  9
$HANDLING
 70
     1
  9
$HANDSEED
  5
1894
  9
$SURFTAB1
 70
     6
  9
$SURFTAB2
 70
     6
  9
$SURFTYPE
 70
     6
  9
$SURFU
 70
     6
  9
$SURFV
 70
     6
  9
$UCSNAME
  2

  9
$UCSORG
 10
0.0
 20
0.0
 30
0.0
  9
$UCSXDIR
 10
1.0
 20
0.0
 30
0.0
  9
$UCSYDIR
 10
0.0
 20
1.0
 30
0.0
  9
$PUCSNAME
  2

  9
$PUCSORG
 10
0.0
 20
0.0
 30
0.0
  9
$PUCSXDIR
 10
1.0
 20
0.0
 30
0.0
  9
$PUCSYDIR
 10
0.0
 20
1.0
 30
0.0
  9
$USERI1
 70
     0
  9
$USERI2
 70
     1
  9
$USERI3
 70
     1
  9
$USERI4
 70
     0
  9
$USERI5
 70
     0
  9
$USERR1
 40
0.0
  9
$USERR2
 40
0.0
  9
$USERR3
 40
0.0
  9
$USERR4
 40
0.0
  9
$USERR5
 40
0.0
  9
$WORLDVIEW
 70
     1
  9
$SHADEDGE
 70
     3
  9
$SHADEDIF
 70
    70
  9
$TILEMODE
 70
     1
  9
$MAXACTVP
 70
    16
  9
$PLIMCHECK
 70
     0
  9
$PEXTMIN
 10
1.0000000000000000E+020
 20
1.0000000000000000E+020
 30
1.0000000000000000E+020
  9
$PEXTMAX
 10
-1.0000000000000000E+020
 20
-1.0000000000000000E+020
 30
-1.0000000000000000E+020
  9
$PLIMMIN
 10
0.0
 20
0.0
  9
$PLIMMAX
 10
12.0
 20
9.0
  9
$UNITMODE
 70
     0
  9
$VISRETAIN
 70
     0
  9
$PLINEGEN
 70
     0
  9
$PSLTSCALE
 70
     0
  0
ENDSEC
  0
SECTION
  2
TABLES
  0
TABLE
  2
VPORT
 70
     1
  0
VPORT
  2
*ACTIVE
 70
     0
 10
0.0
 20
0.0
 11
1.0
 21
1.0
 12
314.18838984876299
 22
180.0
 13
0.0
 23
0.0
 14
5.0
 24
5.0
 15
5.0
 25
5.0
 16
0.0
 26
0.0
 36
1.0
 17
0.0
 27
0.0
 37
0.0
 40
360.02038751631142
 41
1.7454798331015291
 42
50.0
 43
0.0
 44
0.0
 50
0.0
 51
0.0
 71
     0
 72
   100
 73
     1
 74
     0
 75
     0
 76
     0
 77
     0
 78
     0
  0
ENDTAB
  0
TABLE
  2
LTYPE
 70
     3
  0
LTYPE
  2
CONTINUOUS
 70
     0
  3
Solid Line
 72
    65
 73
     0
 40
0.0
  0
LTYPE
  2
CENTER
 70
     0
  3
____ _ ____ _ ____ _ ____ _ ____ _ ____ _ ____
 72
    65
 73
     4
 40
2.0
 49
1.25
 49
-0.25
 49
0.25
 49
-0.25
  0
LTYPE
  2
PHANTOM2
 70
     0
  3
___ _ _ ___ _ _ ___ _ _ ___ _ _
 72
    65
 73
     6
 40
1.25
 49
0.625
 49
-0.125
 49
0.125
 49
-0.125
 49
0.125
 49
-0.125
  0
ENDTAB
  0
TABLE
  2
LAYER
 70
     3
  0
LAYER
  2
0
 70
     0
 62
     7
  6
CONTINUOUS
  0
LAYER
  2
1
 70
     0
 62
     1
  6
CENTER
  0
LAYER
  2
3
 70
     0
 62
     3
  6
CONTINUOUS
  0
ENDTAB
  0
TABLE
  2
STYLE
 70
     2
  0
STYLE
  2
STANDARD
 70
     0
 40
0.0
 41
1.0
 50
0.0
 71
     0
 42
4.0
  3
TXT
  4
BIGFONT
  0
STYLE
  2
STANDARD1
 70
     0
 40
0.0
 41
1.0
 50
0.0
 71
     0
 42
3.0
  3
txt
  4

  0
ENDTAB
  0
TABLE
  2
VIEW
 70
     2
  0
VIEW
  2
ALL
 70
     0
 40
179.66152299999999
 10
141.903918
 20
89.830760999999995
 41
0.0
 11
0.0
 21
0.0
 31
1.0
 12
0.0
 22
0.0
 32
0.0
 42
0.0
 43
0.0
 44
0.0
 50
0.0
 71
     0
  0
VIEW
  2
OLE1
 70
     0
 40
330.59996488937281
 10
643.9733976919058
 20
160.54565978342919
 41
415.25602385983109
 11
0.0
 21
0.0
 31
1.0
 12
0.0
 22
0.0
 32
0.0
 42
50.0
 43
0.0
 44
0.0
 50
0.0
 71
     0
  0
ENDTAB
  0
TABLE
  2
UCS
 70
     0
  0
ENDTAB
  0
TABLE
  2
APPID
 70
     5
  0
APPID
  2
ACAD
 70
     0
  0
APPID
  2
DCO15
 70
     0
  0
APPID
  2
ACAD_MLEADERVER
 70
     0
  0
APPID
  2
ACAD_EXEMPT_FROM_CAD_STANDARDS
 70
     0
  0
APPID
  2
ACAD_NAV_VCDISPLAY
 70
     0
  0
ENDTAB
  0
TABLE
  2
DIMSTYLE
 70
     1
  0
DIMSTYLE
  2
STANDARD
 70
     0
  3

  4

  5

  6

  7

 40
1.0
 41
0.18
 42
0.0625
 43
0.38
 44
0.18
 45
0.0
 46
0.0
 47
0.0
 48
0.0
140
0.18
141
0.09
142
0.0
143
25.399999999999999
144
1.0
145
0.0
146
1.0
147
0.09
 71
     0
 72
     0
 73
     1
 74
     1
 75
     0
 76
     0
 77
     0
 78
     0
170
     0
171
     2
172
     0
173
     0
174
     0
175
     0
176
     0
177
     0
178
     0
  0
ENDTAB
  0
ENDSEC
  0
SECTION
  2
BLOCKS
  0
BLOCK
  8
0
  2
$MODEL_SPACE
 70
     0
 10
0.0
 20
0.0
 30
0.0
  3
$MODEL_SPACE
  1

  0
ENDBLK
  5
1BD
  8
0
  0
BLOCK
 67
     1
  8
0
  2
$PAPER_SPACE
 70
     0
 10
0.0
 20
0.0
 30
0.0
  3
$PAPER_SPACE
  1

  0
ENDBLK
  5
1BB
 67
     1
  8
0
  0
ENDSEC
  0
SECTION
  2
ENTITIES
  0
LINE
  5
1165
  8
0
 10
143.5
 20
119.9999999999999
 30
0.0
 11
136.5
 21
120.0
 31
0.0
  0
LINE
  5
1166
  8
0
 10
135.0
 20
159.99999999999989
 30
0.0
 11
135.0
 21
121.5000000000001
 31
0.0
  0
LINE
  5
1167
  8
3
 10
135.8119999999999
 20
156.0
 30
0.0
 11
135.8119999999999
 21
120.6880000000001
 31
0.0
  0
LINE
  5
1168
  8
3
 10
144.1880000000001
 20
156.0
 30
0.0
 11
144.1880000000001
 21
120.6880000000001
 31
0.0
  0
LINE
  5
1169
  8
0
 10
145.0
 20
159.99999999999989
 30
0.0
 11
145.0
 21
121.4999999999999
 31
0.0
  0
LINE
  5
116A
  8
0
 10
145.0
 20
121.4999999999999
 30
0.0
 11
143.5
 21
119.9999999999999
 31
0.0
  0
LINE
  5
116B
  8
0
 10
136.5
 20
120.0
 30
0.0
 11
135.0
 21
121.5000000000001
 31
0.0
  0
LINE
  5
116C
  8
0
 10
145.0
 20
156.0
 30
0.0
 11
135.0
 21
156.00000000000011
 31
0.0
  0
LINE
  5
116D
  8
3
 10
144.1880000000001
 20
156.0
 30
0.0
 11
145.0
 21
157.40642525574569
 31
0.0
  0
LINE
  5
116E
  8
3
 10
135.8119999999999
 20
156.0
 30
0.0
 11
135.0
 21
157.40642525574569
 31
0.0
  0
LINE
  5
116F
  8
0
 10
145.0
 20
121.4999999999999
 30
0.0
 11
135.0
 21
121.5000000000001
 31
0.0
  0
TEXT
  5
1300
  8
0
 62
     3
 10
0.0
 20
0.0
 30
0.0
 40
10.0
  1
FKR10X40-CR-SUS
  7
STANDARD1
  0
LINE
  5
1471
  8
0
 10
129.49000000000001
 20
188.61890683630651
 30
0.0
 11
129.49000000000001
 21
170.0
 31
0.0
  0
LINE
  5
1472
  8
0
 10
150.49000000000001
 20
170.0
 30
0.0
 11
150.49000000000001
 21
184.0
 31
0.0
  0
LINE
  5
1473
  8
0
 10
206.1633245653185
 20
202.06
 30
0.0
 11
196.3344821543437
 21
202.06
 31
0.0
  0
LINE
  5
1474
  8
0
 10
214.75954632986549
 20
204.3313065752838
 30
0.0
 11
209.76118557420179
 21
202.6491723350922
 31
0.0
  0
LINE
  5
1475
  8
0
 10
150.49000000000001
 20
170.0
 30
0.0
 11
129.49000000000001
 21
170.0
 31
0.0
  0
LINE
  5
1476
  8
1
 10
140.0
 20
202.0
 30
0.0
 11
140.0
 21
115.0
 31
0.0
  0
LINE
  5
1477
  8
0
 10
148.0
 20
159.99999999999989
 30
0.0
 11
148.0
 21
170.0
 31
0.0
  0
LINE
  5
1478
  8
0
 10
132.0
 20
170.0
 30
0.0
 11
132.0
 21
159.99999999999989
 31
0.0
  0
LINE
  5
1479
  8
0
 10
132.0
 20
159.99999999999989
 30
0.0
 11
148.0
 21
159.99999999999989
 31
0.0
  0
ARC
  5
1487
  8
0
 10
240.70575361065079
 20
-54.49011794745357
 30
0.0
 40
270.0
 50
94.957086921351717
 51
113.6996745048306
  0
LINE
  5
1488
  8
0
 10
217.3751632491734
 20
214.5
 30
0.0
 11
218.0
 21
214.5
 31
0.0
  0
LINE
  5
1489
  8
0
 10
220.0
 20
212.5
 30
0.0
 11
220.0
 21
210.46511215822599
 31
0.0
  0
ARC
  5
148A
  8
0
 10
218.0
 20
212.5
 30
0.0
 40
2.0
 50
0.0
 51
90.0
  0
ARC
  5
148B
  8
0
 10
133.99000000000001
 20
188.61890683630651
 30
0.0
 40
4.5
 50
113.6996745048306
 51
180.0
  0
ARC
  5
148C
  8
0
 10
267.2876568623081
 20
-42.659934504540303
 30
0.0
 40
255.0
 50
106.4878909565075
 51
117.26006161868951
  0
ARC
  5
148D
  8
0
 10
196.3344821543437
 20
197.05999999999989
 30
0.0
 40
5.0
 50
90.0
 51
106.4878909565041
  0
ARC
  5
148E
  8
0
 10
212.57248880262389
 20
211.5053416583132
 30
0.0
 40
7.5
 50
286.9542294366114
 51
352.02753029962417
  0
LINE
  5
148F
  8
0
 10
129.49000000000001
 20
283.75347878491448
 30
0.0
 11
129.49000000000001
 21
290.24652121508541
 31
0.0
  0
CIRCLE
  5
1490
  8
0
 10
140.9515887584509
 20
287.0
 30
0.0
 40
6.5992762682978654
  0
LINE
  5
1491
  8
1
 10
140.0
 20
303.0
 30
0.0
 11
140.0
 21
271.0
 31
0.0
  0
LINE
  5
1492
  8
1
 10
225.0
 20
287.0
 30
0.0
 11
124.48999999999999
 21
287.0
 31
0.0
  0
ARC
  5
1493
  8
0
 10
140.0
 20
287.0
 30
0.0
 40
11.0
 50
197.16583016485569
 51
297.66428518543933
  0
ARC
  5
1494
  8
0
 10
214.5
 20
287.0
 30
0.0
 40
5.5
 50
270.0
 51
90.0
  0
ARC
  5
1495
  8
0
 10
163.06906329186671
 20
343.40482480838028
 30
0.0
 40
50.0
 50
248.946627138286
 51
278.79596523459998
  0
LINE
  5
1496
  8
0
 10
214.5
 20
292.5
 30
0.0
 11
171.66005904542439
 21
294.04840865160759
 31
0.0
  0
ARC
  5
1497
  8
0
 10
171.47945676250421
 20
289.05167143464263
 30
0.0
 40
5.0
 50
87.929999999997904
 51
98.795965234599976
  0
LINE
  5
1498
  8
0
 10
214.5
 20
281.5
 30
0.0
 11
171.66005904542439
 21
279.9515913483923
 31
0.0
  0
ARC
  5
1499
  8
0
 10
163.06906329186671
 20
230.59517519161969
 30
0.0
 40
50.0
 50
81.204034765400024
 51
111.0533728617139
  0
ARC
  5
149A
  8
0
 10
171.47945676250421
 20
284.94832856535737
 30
0.0
 40
5.0
 50
261.20403476540002
 51
272.06999999999891
  0
ARC
  5
149B
  8
0
 10
140.0
 20
287.0
 30
0.0
 40
11.0
 50
62.335714814560767
 51
162.83416983514431
  0
LINE
  5
149C
  8
0
 10
214.5
 20
55.5
 30
0.0
 11
171.66005904542439
 21
57.048408651607652
 31
0.0
  0
LINE
  5
149D
  8
0
 10
214.5
 20
44.5
 30
0.0
 11
171.66005904542439
 21
42.951591348392348
 31
0.0
  0
LINE
  5
149E
  8
1
 10
225.0
 20
50.0
 30
0.0
 11
124.48999999999999
 21
50.0
 31
0.0
  0
ARC
  5
149F
  8
0
 10
163.06906329186671
 20
106.4048248083803
 30
0.0
 40
50.0
 50
248.946627138286
 51
278.79596523459998
  0
ARC
  5
14A0
  8
0
 10
163.06906329186671
 20
-6.4048248083803108
 30
0.0
 40
50.0
 50
81.204034765400024
 51
111.0533728617139
  0
LINE
  5
14A1
  8
1
 10
140.0
 20
66.0
 30
0.0
 11
140.0
 21
34.0
 31
0.0
  0
ARC
  5
14A2
  8
0
 10
140.0
 20
50.0
 30
0.0
 40
11.0
 50
62.335714814560767
 51
162.83416983514431
  0
ARC
  5
14A3
  8
0
 10
140.0
 20
50.0
 30
0.0
 40
11.0
 50
197.16583016485569
 51
297.66428518543933
  0
LINE
  5
14A4
  8
0
 10
129.49000000000001
 20
46.753478784914563
 30
0.0
 11
129.49000000000001
 21
53.246521215085437
 31
0.0
  0
ARC
  5
14A5
  8
0
 10
171.47945676250421
 20
47.948328565357428
 30
0.0
 40
5.0
 50
261.20403476540002
 51
272.06999999999891
  0
ARC
  5
14A6
  8
0
 10
171.47945676250421
 20
52.051671434642572
 30
0.0
 40
5.0
 50
87.929999999997904
 51
98.795965234599976
  0
ARC
  5
14A7
  8
0
 10
214.5
 20
50.0
 30
0.0
 40
5.5
 50
270.0
 51
90.0
  0
CIRCLE
  5
14A8
  8
0
 10
140.0
 20
50.0
 30
0.0
 40
8.0
  0
CIRCLE
  5
14A9
  8
0
 10
140.0
 20
50.0
 30
0.0
 40
10.5
  0
LINE
  5
14AC
  8
0
 10
58.0
 20
159.99999999999989
 30
0.0
 11
58.0
 21
170.0
 31
0.0
  0
LINE
  5
14AD
  8
0
 10
42.0
 20
170.0
 30
0.0
 11
42.0
 21
159.99999999999989
 31
0.0
  0
LINE
  5
14AE
  8
0
 10
42.0
 20
159.99999999999989
 30
0.0
 11
58.0
 21
159.99999999999989
 31
0.0
  0
LINE
  5
14AF
  8
1
 10
50.0
 20
219.5
 30
0.0
 11
50.0
 21
115.0000000000006
 31
0.0
  0
LINE
  5
14B0
  8
0
 10
54.587586602744068
 20
214.5
 30
0.0
 11
45.412413397255932
 21
214.5
 31
0.0
  0
LINE
  5
14B1
  8
0
 10
60.5
 20
170.0
 30
0.0
 11
39.5
 21
170.0
 31
0.0
  0
POLYLINE
  5
14B2
  8
0
 10
43.438050759282881
 20
196.29930949170566
 30
0.0
 66
     1
 70
     8
  0
VERTEX
  8
0
  5
1790
 10
43.4381
 20
196.299
 30
0.000000
  70
    32
  0
VERTEX
  8
0
  5
1791
 10
43.4485
 20
196.177
 30
0.000000
  70
    32
  0
VERTEX
  8
0
  5
1792
 10
43.4748
 20
196.055
 30
0.000000
  70
    32
  0
VERTEX
  8
0
  5
1793
 10
43.5168
 20
195.934
 30
0.000000
  70
    32
  0
VERTEX
  8
0
  5
1794
 10
43.5744
 20
195.815
 30
0.000000
  70
    32
  0
VERTEX
  8
0
  5
1795
 10
43.6475
 20
195.697
 30
0.000000
  70
    32
  0
VERTEX
  8
0
  5
1796
 10
43.7358
 20
195.580
 30
0.000000
  70
    32
  0
VERTEX
  8
0
  5
1797
 10
43.8393
 20
195.466
 30
0.000000
  70
    32
  0
VERTEX
  8
0
  5
1798
 10
43.9576
 20
195.354
 30
0.000000
  70
    32
  0
VERTEX
  8
0
  5
1799
 10
44.0905
 20
195.245
 30
0.000000
  70
    32
  0
VERTEX
  8
0
  5
179A
 10
44.2376
 20
195.139
 30
0.000000
  70
    32
  0
VERTEX
  8
0
  5
179B
 10
44.3986
 20
195.035
 30
0.000000
  70
    32
  0
VERTEX
  8
0
  5
179C
 10
44.5731
 20
194.935
 30
0.000000
  70
    32
  0
VERTEX
  8
0
  5
179D
 10
44.7606
 20
194.839
 30
0.000000
  70
    32
  0
VERTEX
  8
0
  5
179E
 10
44.9608
 20
194.747
 30
0.000000
  70
    32
  0
VERTEX
  8
0
  5
179F
 10
45.1731
 20
194.658
 30
0.000000
  70
    32
  0
VERTEX
  8
0
  5
17A0
 10
45.3971
 20
194.574
 30
0.000000
  70
    32
  0
VERTEX
  8
0
  5
17A1
 10
45.6321
 20
194.495
 30
0.000000
  70
    32
  0
VERTEX
  8
0
  5
17A2
 10
45.8777
 20
194.420
 30
0.000000
  70
    32
  0
VERTEX
  8
0
  5
17A3
 10
46.1332
 20
194.350
 30
0.000000
  70
    32
  0
VERTEX
  8
0
  5
17A4
 10
46.3980
 20
194.285
 30
0.000000
  70
    32
  0
VERTEX
  8
0
  5
17A5
 10
46.6715
 20
194.225
 30
0.000000
  70
    32
  0
VERTEX
  8
0
  5
17A6
 10
46.9530
 20
194.170
 30
0.000000
  70
    32
  0
VERTEX
  8
0
  5
17A7
 10
47.2418
 20
194.121
 30
0.000000
  70
    32
  0
VERTEX
  8
0
  5
17A8
 10
47.5373
 20
194.078
 30
0.000000
  70
    32
  0
VERTEX
  8
0
  5
17A9
 10
47.8387
 20
194.040
 30
0.000000
  70
    32
  0
VERTEX
  8
0
  5
17AA
 10
48.1454
 20
194.008
 30
0.000000
  70
    32
  0
VERTEX
  8
0
  5
17AB
 10
48.4565
 20
193.982
 30
0.000000
  70
    32
  0
VERTEX
  8
0
  5
17AC
 10
48.7713
 20
193.961
 30
0.000000
  70
    32
  0
VERTEX
  8
0
  5
17AD
 10
49.0891
 20
193.947
 30
0.000000
  70
    32
  0
VERTEX
  8
0
  5
17AE
 10
49.4090
 20
193.939
 30
0.000000
  70
    32
  0
VERTEX
  8
0
  5
17AF
 10
49.7304
 20
193.937
 30
0.000000
  70
    32
  0
VERTEX
  8
0
  5
17B0
 10
50.0525
 20
193.940
 30
0.000000
  70
    32
  0
VERTEX
  8
0
  5
17B1
 10
50.3744
 20
193.950
 30
0.000000
  70
    32
  0
VERTEX
  8
0
  5
17B2
 10
50.6954
 20
193.966
 30
0.000000
  70
    32
  0
VERTEX
  8
0
  5
17B3
 10
51.0147
 20
193.988
 30
0.000000
  70
    32
  0
VERTEX
  8
0
  5
17B4
 10
51.3316
 20
194.015
 30
0.000000
  70
    32
  0
VERTEX
  8
0
  5
17B5
 10
51.6453
 20
194.049
 30
0.000000
  70
    32
  0
VERTEX
  8
0
  5
17B6
 10
51.9550
 20
194.088
 30
0.000000
  70
    32
  0
VERTEX
  8
0
  5
17B7
 10
52.2601
 20
194.133
 30
0.000000
  70
    32
  0
VERTEX
  8
0
  5
17B8
 10
52.5596
 20
194.183
 30
0.000000
  70
    32
  0
VERTEX
  8
0
  5
17B9
 10
52.8530
 20
194.239
 30
0.000000
  70
    32
  0
VERTEX
  8
0
  5
17BA
 10
53.1396
 20
194.300
 30
0.000000
  70
    32
  0
VERTEX
  8
0
  5
17BB
 10
53.4185
 20
194.366
 30
0.000000
  70
    32
  0
VERTEX
  8
0
  5
17BC
 10
53.6892
 20
194.438
 30
0.000000
  70
    32
  0
VERTEX
  8
0
  5
17BD
 10
53.9511
 20
194.514
 30
0.000000
  70
    32
  0
VERTEX
  8
0
  5
17BE
 10
54.2034
 20
194.595
 30
0.000000
  70
    32
  0
VERTEX
  8
0
  5
17BF
 10
54.4456
 20
194.680
 30
0.000000
  70
    32
  0
VERTEX
  8
0
  5
17C0
 10
54.6771
 20
194.769
 30
0.000000
  70
    32
  0
VERTEX
  8
0
  5
17C1
 10
54.8973
 20
194.863
 30
0.000000
  70
    32
  0
VERTEX
  8
0
  5
17C2
 10
55.1057
 20
194.960
 30
0.000000
  70
    32
  0
VERTEX
  8
0
  5
17C3
 10
55.3019
 20
195.061
 30
0.000000
  70
    32
  0
VERTEX
  8
0
  5
17C4
 10
55.4852
 20
195.165
 30
0.000000
  70
    32
  0
VERTEX
  8
0
  5
17C5
 10
55.6553
 20
195.272
 30
0.000000
  70
    32
  0
VERTEX
  8
0
  5
17C6
 10
55.8119
 20
195.382
 30
0.000000
  70
    32
  0
VERTEX
  8
0
  5
17C7
 10
55.9544
 20
195.494
 30
0.000000
  70
    32
  0
VERTEX
  8
0
  5
17C8
 10
56.0825
 20
195.609
 30
0.000000
  70
    32
  0
VERTEX
  8
0
  5
17C9
 10
56.1960
 20
195.726
 30
0.000000
  70
    32
  0
VERTEX
  8
0
  5
17CA
 10
56.2946
 20
195.844
 30
0.000000
  70
    32
  0
VERTEX
  8
0
  5
17CB
 10
56.3780
 20
195.964
 30
0.000000
  70
    32
  0
VERTEX
  8
0
  5
17CC
 10
56.4461
 20
196.085
 30
0.000000
  70
    32
  0
VERTEX
  8
0
  5
17CD
 10
56.4986
 20
196.207
 30
0.000000
  70
    32
  0
VERTEX
  8
0
  5
17CE
 10
56.5355
 20
196.330
 30
0.000000
  70
    32
  0
VERTEX
  8
0
  5
17CF
 10
56.5566
 20
196.452
 30
0.000000
  70
    32
  0
VERTEX
  8
0
  5
17D0
 10
56.5619
 20
196.575
 30
0.000000
  70
    32
  0
VERTEX
  8
0
  5
17D1
 10
56.5515
 20
196.697
 30
0.000000
  70
    32
  0
VERTEX
  8
0
  5
17D2
 10
56.5252
 20
196.819
 30
0.000000
  70
    32
  0
VERTEX
  8
0
  5
17D3
 10
56.4832
 20
196.940
 30
0.000000
  70
    32
  0
VERTEX
  8
0
  5
17D4
 10
56.4256
 20
197.060
 30
0.000000
  70
    32
  0
VERTEX
  8
0
  5
17D5
 10
56.3525
 20
197.178
 30
0.000000
  70
    32
  0
VERTEX
  8
0
  5
17D6
 10
56.2642
 20
197.294
 30
0.000000
  70
    32
  0
VERTEX
  8
0
  5
17D7
 10
56.1607
 20
197.408
 30
0.000000
  70
    32
  0
VERTEX
  8
0
  5
17D8
 10
56.0424
 20
197.520
 30
0.000000
  70
    32
  0
VERTEX
  8
0
  5
17D9
 10
55.9095
 20
197.629
 30
0.000000
  70
    32
  0
VERTEX
  8
0
  5
17DA
 10
55.7624
 20
197.736
 30
0.000000
  70
    32
  0
VERTEX
  8
0
  5
17DB
 10
55.6014
 20
197.839
 30
0.000000
  70
    32
  0
VERTEX
  8
0
  5
17DC
 10
55.4269
 20
197.939
 30
0.000000
  70
    32
  0
VERTEX
  8
0
  5
17DD
 10
55.2394
 20
198.035
 30
0.000000
  70
    32
  0
VERTEX
  8
0
  5
17DE
 10
55.0392
 20
198.128
 30
0.000000
  70
    32
  0
VERTEX
  8
0
  5
17DF
 10
54.8269
 20
198.216
 30
0.000000
  70
    32
  0
VERTEX
  8
0
  5
17E0
 10
54.6029
 20
198.300
 30
0.000000
  70
    32
  0
VERTEX
  8
0
  5
17E1
 10
54.3679
 20
198.380
 30
0.000000
  70
    32
  0
VERTEX
  8
0
  5
17E2
 10
54.1223
 20
198.455
 30
0.000000
  70
    32
  0
VERTEX
  8
0
  5
17E3
 10
53.8668
 20
198.525
 30
0.000000
  70
    32
  0
VERTEX
  8
0
  5
17E4
 10
53.6020
 20
198.590
 30
0.000000
  70
    32
  0
VERTEX
  8
0
  5
17E5
 10
53.3285
 20
198.650
 30
0.000000
  70
    32
  0
VERTEX
  8
0
  5
17E6
 10
53.0470
 20
198.704
 30
0.000000
  70
    32
  0
VERTEX
  8
0
  5
17E7
 10
52.7582
 20
198.753
 30
0.000000
  70
    32
  0
VERTEX
  8
0
  5
17E8
 10
52.4627
 20
198.797
 30
0.000000
  70
    32
  0
VERTEX
  8
0
  5
17E9
 10
52.1613
 20
198.835
 30
0.000000
  70
    32
  0
VERTEX
  8
0
  5
17EA
 10
51.8546
 20
198.867
 30
0.000000
  70
    32
  0
VERTEX
  8
0
  5
17EB
 10
51.5435
 20
198.893
 30
0.000000
  70
    32
  0
VERTEX
  8
0
  5
17EC
 10
51.2287
 20
198.913
 30
0.000000
  70
    32
  0
VERTEX
  8
0
  5
17ED
 10
50.9109
 20
198.927
 30
0.000000
  70
    32
  0
VERTEX
  8
0
  5
17EE
 10
50.5910
 20
198.936
 30
0.000000
  70
    32
  0
VERTEX
  8
0
  5
17EF
 10
50.2696
 20
198.938
 30
0.000000
  70
    32
  0
VERTEX
  8
0
  5
17F0
 10
49.9475
 20
198.934
 30
0.000000
  70
    32
  0
VERTEX
  8
0
  5
17F1
 10
49.6256
 20
198.924
 30
0.000000
  70
    32
  0
VERTEX
  8
0
  5
17F2
 10
49.3046
 20
198.909
 30
0.000000
  70
    32
  0
VERTEX
  8
0
  5
17F3
 10
48.9853
 20
198.887
 30
0.000000
  70
    32
  0
VERTEX
  8
0
  5
17F4
 10
48.6684
 20
198.859
 30
0.000000
  70
    32
  0
VERTEX
  8
0
  5
17F5
 10
48.3547
 20
198.826
 30
0.000000
  70
    32
  0
VERTEX
  8
0
  5
17F6
 10
48.0450
 20
198.787
 30
0.000000
  70
    32
  0
VERTEX
  8
0
  5
17F7
 10
47.7399
 20
198.742
 30
0.000000
  70
    32
  0
VERTEX
  8
0
  5
17F8
 10
47.4404
 20
198.691
 30
0.000000
  70
    32
  0
VERTEX
  8
0
  5
17F9
 10
47.1470
 20
198.635
 30
0.000000
  70
    32
  0
VERTEX
  8
0
  5
17FA
 10
46.8604
 20
198.574
 30
0.000000
  70
    32
  0
VERTEX
  8
0
  5
17FB
 10
46.5815
 20
198.508
 30
0.000000
  70
    32
  0
VERTEX
  8
0
  5
17FC
 10
46.3108
 20
198.437
 30
0.000000
  70
    32
  0
VERTEX
  8
0
  5
17FD
 10
46.0489
 20
198.361
 30
0.000000
  70
    32
  0
VERTEX
  8
0
  5
17FE
 10
45.7966
 20
198.280
 30
0.000000
  70
    32
  0
VERTEX
  8
0
  5
17FF
 10
45.5544
 20
198.195
 30
0.000000
  70
    32
  0
VERTEX
  8
0
  5
1800
 10
45.3229
 20
198.105
 30
0.000000
  70
    32
  0
VERTEX
  8
0
  5
1801
 10
45.1027
 20
198.012
 30
0.000000
  70
    32
  0
VERTEX
  8
0
  5
1802
 10
44.8943
 20
197.915
 30
0.000000
  70
    32
  0
VERTEX
  8
0
  5
1803
 10
44.6981
 20
197.814
 30
0.000000
  70
    32
  0
VERTEX
  8
0
  5
1804
 10
44.5148
 20
197.710
 30
0.000000
  70
    32
  0
VERTEX
  8
0
  5
1805
 10
44.3447
 20
197.603
 30
0.000000
  70
    32
  0
VERTEX
  8
0
  5
1806
 10
44.1881
 20
197.493
 30
0.000000
  70
    32
  0
VERTEX
  8
0
  5
1807
 10
44.0456
 20
197.380
 30
0.000000
  70
    32
  0
VERTEX
  8
0
  5
1808
 10
43.9175
 20
197.265
 30
0.000000
  70
    32
  0
VERTEX
  8
0
  5
1809
 10
43.8040
 20
197.149
 30
0.000000
  70
    32
  0
VERTEX
  8
0
  5
180A
 10
43.7054
 20
197.030
 30
0.000000
  70
    32
  0
VERTEX
  8
0
  5
180B
 10
43.6220
 20
196.910
 30
0.000000
  70
    32
  0
VERTEX
  8
0
  5
180C
 10
43.5539
 20
196.789
 30
0.000000
  70
    32
  0
VERTEX
  8
0
  5
180D
 10
43.5014
 20
196.667
 30
0.000000
  70
    32
  0
VERTEX
  8
0
  5
180E
 10
43.4645
 20
196.545
 30
0.000000
  70
    32
  0
VERTEX
  8
0
  5
180F
 10
43.4434
 20
196.422
 30
0.000000
  70
    32
  0
VERTEX
  8
0
  5
1810
 10
43.4381
 20
196.299
 30
0.000000
  70
    32
  0
SEQEND
  8
0
  5
1811
  0
LINE
  5
14B3
  8
0
 10
57.162318492125557
 20
192.73939878179399
 30
0.0
 11
42.837681507874443
 21
192.73939878179399
 31
0.0
  0
POLYLINE
  5
14B4
  8
0
 10
57.162884526038567
 20
192.73939878179394
 30
0.0
 66
     1
 70
     8
  0
VERTEX
  8
0
  5
1812
 10
57.1629
 20
192.739
 30
0.000000
  70
    32
  0
VERTEX
  8
0
  5
1813
 10
57.4749
 20
192.851
 30
0.000000
  70
    32
  0
VERTEX
  8
0
  5
1814
 10
57.7762
 20
192.968
 30
0.000000
  70
    32
  0
VERTEX
  8
0
  5
1815
 10
58.0662
 20
193.089
 30
0.000000
  70
    32
  0
VERTEX
  8
0
  5
1816
 10
58.3446
 20
193.215
 30
0.000000
  70
    32
  0
VERTEX
  8
0
  5
1817
 10
58.6109
 20
193.344
 30
0.000000
  70
    32
  0
VERTEX
  8
0
  5
1818
 10
58.8647
 20
193.478
 30
0.000000
  70
    32
  0
VERTEX
  8
0
  5
1819
 10
59.1058
 20
193.615
 30
0.000000
  70
    32
  0
VERTEX
  8
0
  5
181A
 10
59.3337
 20
193.756
 30
0.000000
  70
    32
  0
VERTEX
  8
0
  5
181B
 10
59.5482
 20
193.901
 30
0.000000
  70
    32
  0
VERTEX
  8
0
  5
181C
 10
59.7488
 20
194.048
 30
0.000000
  70
    32
  0
VERTEX
  8
0
  5
181D
 10
59.9354
 20
194.199
 30
0.000000
  70
    32
  0
VERTEX
  8
0
  5
181E
 10
60.1076
 20
194.352
 30
0.000000
  70
    32
  0
VERTEX
  8
0
  5
181F
 10
60.2652
 20
194.508
 30
0.000000
  70
    32
  0
VERTEX
  8
0
  5
1820
 10
60.4080
 20
194.666
 30
0.000000
  70
    32
  0
VERTEX
  8
0
  5
1821
 10
60.5358
 20
194.826
 30
0.000000
  70
    32
  0
VERTEX
  8
0
  5
1822
 10
60.6483
 20
194.988
 30
0.000000
  70
    32
  0
VERTEX
  8
0
  5
1823
 10
60.7455
 20
195.151
 30
0.000000
  70
    32
  0
VERTEX
  8
0
  5
1824
 10
60.8271
 20
195.316
 30
0.000000
  70
    32
  0
VERTEX
  8
0
  5
1825
 10
60.8931
 20
195.482
 30
0.000000
  70
    32
  0
VERTEX
  8
0
  5
1826
 10
60.9434
 20
195.649
 30
0.000000
  70
    32
  0
VERTEX
  8
0
  5
1827
 10
60.9778
 20
195.817
 30
0.000000
  70
    32
  0
VERTEX
  8
0
  5
1828
 10
60.9964
 20
195.985
 30
0.000000
  70
    32
  0
VERTEX
  8
0
  5
1829
 10
60.9991
 20
196.153
 30
0.000000
  70
    32
  0
VERTEX
  8
0
  5
182A
 10
60.9860
 20
196.321
 30
0.000000
  70
    32
  0
VERTEX
  8
0
  5
182B
 10
60.9569
 20
196.489
 30
0.000000
  70
    32
  0
VERTEX
  8
0
  5
182C
 10
60.9121
 20
196.656
 30
0.000000
  70
    32
  0
VERTEX
  8
0
  5
182D
 10
60.8515
 20
196.823
 30
0.000000
  70
    32
  0
VERTEX
  8
0
  5
182E
 10
60.7752
 20
196.988
 30
0.000000
  70
    32
  0
VERTEX
  8
0
  5
182F
 10
60.6833
 20
197.152
 30
0.000000
  70
    32
  0
VERTEX
  8
0
  5
1830
 10
60.5760
 20
197.314
 30
0.000000
  70
    32
  0
VERTEX
  8
0
  5
1831
 10
60.4534
 20
197.475
 30
0.000000
  70
    32
  0
VERTEX
  8
0
  5
1832
 10
60.3158
 20
197.634
 30
0.000000
  70
    32
  0
VERTEX
  8
0
  5
1833
 10
60.1632
 20
197.791
 30
0.000000
  70
    32
  0
VERTEX
  8
0
  5
1834
 10
59.9960
 20
197.945
 30
0.000000
  70
    32
  0
VERTEX
  8
0
  5
1835
 10
59.8143
 20
198.096
 30
0.000000
  70
    32
  0
VERTEX
  8
0
  5
1836
 10
59.6184
 20
198.245
 30
0.000000
  70
    32
  0
VERTEX
  8
0
  5
1837
 10
59.4087
 20
198.390
 30
0.000000
  70
    32
  0
VERTEX
  8
0
  5
1838
 10
59.1853
 20
198.532
 30
0.000000
  70
    32
  0
VERTEX
  8
0
  5
1839
 10
58.9487
 20
198.671
 30
0.000000
  70
    32
  0
VERTEX
  8
0
  5
183A
 10
58.6992
 20
198.806
 30
0.000000
  70
    32
  0
VERTEX
  8
0
  5
183B
 10
58.4371
 20
198.937
 30
0.000000
  70
    32
  0
VERTEX
  8
0
  5
183C
 10
58.1628
 20
199.064
 30
0.000000
  70
    32
  0
VERTEX
  8
0
  5
183D
 10
57.8767
 20
199.187
 30
0.000000
  70
    32
  0
VERTEX
  8
0
  5
183E
 10
57.5793
 20
199.305
 30
0.000000
  70
    32
  0
VERTEX
  8
0
  5
183F
 10
57.2709
 20
199.418
 30
0.000000
  70
    32
  0
VERTEX
  8
0
  5
1840
 10
56.9520
 20
199.527
 30
0.000000
  70
    32
  0
VERTEX
  8
0
  5
1841
 10
56.6231
 20
199.631
 30
0.000000
  70
    32
  0
VERTEX
  8
0
  5
1842
 10
56.2845
 20
199.730
 30
0.000000
  70
    32
  0
VERTEX
  8
0
  5
1843
 10
55.9370
 20
199.823
 30
0.000000
  70
    32
  0
VERTEX
  8
0
  5
1844
 10
55.5808
 20
199.911
 30
0.000000
  70
    32
  0
VERTEX
  8
0
  5
1845
 10
55.2166
 20
199.994
 30
0.000000
  70
    32
  0
VERTEX
  8
0
  5
1846
 10
54.8448
 20
200.071
 30
0.000000
  70
    32
  0
VERTEX
  8
0
  5
1847
 10
54.4661
 20
200.142
 30
0.000000
  70
    32
  0
VERTEX
  8
0
  5
1848
 10
54.0809
 20
200.207
 30
0.000000
  70
    32
  0
VERTEX
  8
0
  5
1849
 10
53.6898
 20
200.267
 30
0.000000
  70
    32
  0
VERTEX
  8
0
  5
184A
 10
53.2933
 20
200.320
 30
0.000000
  70
    32
  0
VERTEX
  8
0
  5
184B
 10
52.8922
 20
200.367
 30
0.000000
  70
    32
  0
VERTEX
  8
0
  5
184C
 10
52.4868
 20
200.408
 30
0.000000
  70
    32
  0
VERTEX
  8
0
  5
184D
 10
52.0778
 20
200.443
 30
0.000000
  70
    32
  0
VERTEX
  8
0
  5
184E
 10
51.6659
 20
200.472
 30
0.000000
  70
    32
  0
VERTEX
  8
0
  5
184F
 10
51.2515
 20
200.494
 30
0.000000
  70
    32
  0
VERTEX
  8
0
  5
1850
 10
50.8354
 20
200.510
 30
0.000000
  70
    32
  0
VERTEX
  8
0
  5
1851
 10
50.4180
 20
200.520
 30
0.000000
  70
    32
  0
VERTEX
  8
0
  5
1852
 10
50.0000
 20
200.523
 30
0.000000
  70
    32
  0
VERTEX
  8
0
  5
1853
 10
49.5820
 20
200.520
 30
0.000000
  70
    32
  0
VERTEX
  8
0
  5
1854
 10
49.1646
 20
200.510
 30
0.000000
  70
    32
  0
VERTEX
  8
0
  5
1855
 10
48.7485
 20
200.494
 30
0.000000
  70
    32
  0
VERTEX
  8
0
  5
1856
 10
48.3341
 20
200.472
 30
0.000000
  70
    32
  0
VERTEX
  8
0
  5
1857
 10
47.9222
 20
200.443
 30
0.000000
  70
    32
  0
VERTEX
  8
0
  5
1858
 10
47.5132
 20
200.408
 30
0.000000
  70
    32
  0
VERTEX
  8
0
  5
1859
 10
47.1078
 20
200.367
 30
0.000000
  70
    32
  0
VERTEX
  8
0
  5
185A
 10
46.7067
 20
200.320
 30
0.000000
  70
    32
  0
VERTEX
  8
0
  5
185B
 10
46.3102
 20
200.267
 30
0.000000
  70
    32
  0
VERTEX
  8
0
  5
185C
 10
45.9191
 20
200.207
 30
0.000000
  70
    32
  0
VERTEX
  8
0
  5
185D
 10
45.5339
 20
200.142
 30
0.000000
  70
    32
  0
VERTEX
  8
0
  5
185E
 10
45.1552
 20
200.071
 30
0.000000
  70
    32
  0
VERTEX
  8
0
  5
185F
 10
44.7834
 20
199.994
 30
0.000000
  70
    32
  0
VERTEX
  8
0
  5
1860
 10
44.4192
 20
199.911
 30
0.000000
  70
    32
  0
VERTEX
  8
0
  5
1861
 10
44.0630
 20
199.823
 30
0.000000
  70
    32
  0
VERTEX
  8
0
  5
1862
 10
43.7155
 20
199.730
 30
0.000000
  70
    32
  0
VERTEX
  8
0
  5
1863
 10
43.3769
 20
199.631
 30
0.000000
  70
    32
  0
VERTEX
  8
0
  5
1864
 10
43.0480
 20
199.527
 30
0.000000
  70
    32
  0
VERTEX
  8
0
  5
1865
 10
42.7291
 20
199.418
 30
0.000000
  70
    32
  0
VERTEX
  8
0
  5
1866
 10
42.4207
 20
199.305
 30
0.000000
  70
    32
  0
VERTEX
  8
0
  5
1867
 10
42.1233
 20
199.187
 30
0.000000
  70
    32
  0
VERTEX
  8
0
  5
1868
 10
41.8372
 20
199.064
 30
0.000000
  70
    32
  0
VERTEX
  8
0
  5
1869
 10
41.5629
 20
198.937
 30
0.000000
  70
    32
  0
VERTEX
  8
0
  5
186A
 10
41.3008
 20
198.806
 30
0.000000
  70
    32
  0
VERTEX
  8
0
  5
186B
 10
41.0513
 20
198.671
 30
0.000000
  70
    32
  0
VERTEX
  8
0
  5
186C
 10
40.8147
 20
198.532
 30
0.000000
  70
    32
  0
VERTEX
  8
0
  5
186D
 10
40.5913
 20
198.390
 30
0.000000
  70
    32
  0
VERTEX
  8
0
  5
186E
 10
40.3816
 20
198.245
 30
0.000000
  70
    32
  0
VERTEX
  8
0
  5
186F
 10
40.1857
 20
198.096
 30
0.000000
  70
    32
  0
VERTEX
  8
0
  5
1870
 10
40.0040
 20
197.945
 30
0.000000
  70
    32
  0
VERTEX
  8
0
  5
1871
 10
39.8368
 20
197.791
 30
0.000000
  70
    32
  0
VERTEX
  8
0
  5
1872
 10
39.6842
 20
197.634
 30
0.000000
  70
    32
  0
VERTEX
  8
0
  5
1873
 10
39.5466
 20
197.475
 30
0.000000
  70
    32
  0
VERTEX
  8
0
  5
1874
 10
39.4240
 20
197.314
 30
0.000000
  70
    32
  0
VERTEX
  8
0
  5
1875
 10
39.3167
 20
197.152
 30
0.000000
  70
    32
  0
VERTEX
  8
0
  5
1876
 10
39.2248
 20
196.988
 30
0.000000
  70
    32
  0
VERTEX
  8
0
  5
1877
 10
39.1485
 20
196.823
 30
0.000000
  70
    32
  0
VERTEX
  8
0
  5
1878
 10
39.0879
 20
196.656
 30
0.000000
  70
    32
  0
VERTEX
  8
0
  5
1879
 10
39.0431
 20
196.489
 30
0.000000
  70
    32
  0
VERTEX
  8
0
  5
187A
 10
39.0140
 20
196.321
 30
0.000000
  70
    32
  0
VERTEX
  8
0
  5
187B
 10
39.0009
 20
196.153
 30
0.000000
  70
    32
  0
VERTEX
  8
0
  5
187C
 10
39.0036
 20
195.985
 30
0.000000
  70
    32
  0
VERTEX
  8
0
  5
187D
 10
39.0222
 20
195.817
 30
0.000000
  70
    32
  0
VERTEX
  8
0
  5
187E
 10
39.0566
 20
195.649
 30
0.000000
  70
    32
  0
VERTEX
  8
0
  5
187F
 10
39.1069
 20
195.482
 30
0.000000
  70
    32
  0
VERTEX
  8
0
  5
1880
 10
39.1729
 20
195.316
 30
0.000000
  70
    32
  0
VERTEX
  8
0
  5
1881
 10
39.2545
 20
195.151
 30
0.000000
  70
    32
  0
VERTEX
  8
0
  5
1882
 10
39.3517
 20
194.988
 30
0.000000
  70
    32
  0
VERTEX
  8
0
  5
1883
 10
39.4642
 20
194.826
 30
0.000000
  70
    32
  0
VERTEX
  8
0
  5
1884
 10
39.5920
 20
194.666
 30
0.000000
  70
    32
  0
VERTEX
  8
0
  5
1885
 10
39.7348
 20
194.508
 30
0.000000
  70
    32
  0
VERTEX
  8
0
  5
1886
 10
39.8924
 20
194.352
 30
0.000000
  70
    32
  0
VERTEX
  8
0
  5
1887
 10
40.0646
 20
194.199
 30
0.000000
  70
    32
  0
VERTEX
  8
0
  5
1888
 10
40.2512
 20
194.048
 30
0.000000
  70
    32
  0
VERTEX
  8
0
  5
1889
 10
40.4518
 20
193.901
 30
0.000000
  70
    32
  0
VERTEX
  8
0
  5
188A
 10
40.6663
 20
193.756
 30
0.000000
  70
    32
  0
VERTEX
  8
0
  5
188B
 10
40.8942
 20
193.615
 30
0.000000
  70
    32
  0
VERTEX
  8
0
  5
188C
 10
41.1353
 20
193.478
 30
0.000000
  70
    32
  0
VERTEX
  8
0
  5
188D
 10
41.3891
 20
193.344
 30
0.000000
  70
    32
  0
VERTEX
  8
0
  5
188E
 10
41.6554
 20
193.215
 30
0.000000
  70
    32
  0
VERTEX
  8
0
  5
188F
 10
41.9338
 20
193.089
 30
0.000000
  70
    32
  0
VERTEX
  8
0
  5
1890
 10
42.2238
 20
192.968
 30
0.000000
  70
    32
  0
VERTEX
  8
0
  5
1891
 10
42.5251
 20
192.851
 30
0.000000
  70
    32
  0
VERTEX
  8
0
  5
1892
 10
42.8371
 20
192.739
 30
0.000000
  70
    32
  0
SEQEND
  8
0
  5
1893
  0
LINE
  5
14B5
  8
0
 10
60.998693238409601
 20
196.02955649733121
 30
0.0
 11
60.5
 21
170.0
 31
0.0
  0
ARC
  5
14B6
  8
0
 10
61.43150547408959
 20
204.16837727794149
 30
0.0
 40
5.0
 50
152.00740621392691
 51
213.91774177892489
  0
LINE
  5
14B7
  8
0
 10
57.035661422777139
 20
206.64981295708429
 30
0.0
 11
55.566581384368419
 21
213.70388530489581
 31
0.0
  0
ARC
  5
14B8
  8
0
 10
54.587586602744068
 20
213.5
 30
0.0
 40
1.0
 50
11.764253641803441
 51
90.0
  0
ARC
  5
14B9
  8
0
 10
56.83986246645236
 20
206.6090358961051
 30
0.0
 40
0.2
 50
332.00740621392691
 51
11.76425364180629
  0
LINE
  5
14BA
  8
0
 10
57.039862466452398
 20
206.6090358961051
 30
0.0
 11
57.039862466452398
 21
201.77809033000599
 31
0.0
  0
ARC
  5
14BB
  8
0
 10
70.307930164449999
 20
208.81699311371139
 30
0.0
 40
15.0
 50
209.72967053820409
 51
225.6958329883181
  0
LINE
  5
14BC
  8
0
 10
42.960137533547588
 20
206.6090358961051
 30
0.0
 11
42.960137533547588
 21
201.77809033000599
 31
0.0
  0
ARC
  5
14BD
  8
0
 10
38.56849452591041
 20
204.16837727794149
 30
0.0
 40
5.0
 50
326.08225822107511
 51
27.992593786073112
  0
LINE
  5
14BE
  8
0
 10
42.964338577222861
 20
206.64981295708429
 30
0.0
 11
44.433418615631567
 21
213.70388530489581
 31
0.0
  0
ARC
  5
14BF
  8
0
 10
43.16013753354764
 20
206.6090358961051
 30
0.0
 40
0.2
 50
168.23574635819369
 51
207.99259378607309
  0
ARC
  5
14C0
  8
0
 10
45.412413397255932
 20
213.5
 30
0.0
 40
1.0
 50
90.0
 51
168.23574635819509
  0
ARC
  5
14C1
  8
0
 10
29.692069835550001
 20
208.81699311371139
 30
0.0
 40
15.0
 50
314.3041670116819
 51
330.27032946179588
  0
LINE
  5
14C2
  8
0
 10
39.001306761590399
 20
196.02955649733121
 30
0.0
 11
39.5
 21
170.0
 31
0.0
  0
LINE
  5
14C3
  8
0
 10
288.0
 20
159.99999999999989
 30
0.0
 11
288.0
 21
170.0
 31
0.0
  0
LINE
  5
14C4
  8
0
 10
272.0
 20
170.0
 30
0.0
 11
272.0
 21
159.99999999999989
 31
0.0
  0
LINE
  5
14C5
  8
0
 10
272.0
 20
159.99999999999989
 30
0.0
 11
288.0
 21
159.99999999999989
 31
0.0
  0
LINE
  5
14C6
  8
0
 10
274.53844871509409
 20
204.60294183920951
 30
0.0
 11
285.48270538492272
 21
204.60294183920951
 31
0.0
  0
LINE
  5
14C7
  8
0
 10
274.32872008943588
 20
202.64917233509181
 30
0.0
 11
285.67127991056412
 21
202.64917233509181
 31
0.0
  0
LINE
  5
14C8
  8
0
 10
286.11892873467571
 20
202.06
 30
0.0
 11
273.88107126532429
 21
202.06
 31
0.0
  0
LINE
  5
14C9
  8
0
 10
290.5
 20
170.0
 30
0.0
 11
269.5
 21
170.0
 31
0.0
  0
LINE
  5
14CA
  8
0
 10
273.79930481999469
 20
201.75675913112539
 30
0.0
 11
286.20069518000531
 21
201.75675913112539
 31
0.0
  0
LINE
  5
14CB
  8
1
 10
280.0
 20
219.50000000000011
 30
0.0
 11
280.0
 21
114.99999999999881
 31
0.0
  0
LINE
  5
14CC
  8
0
 10
284.58758660274412
 20
214.5
 30
0.0
 11
275.41241339725582
 21
214.50000000000011
 31
0.0
  0
LINE
  5
14CD
  8
0
 10
272.96433857722269
 20
206.64981295708429
 30
0.0
 11
274.43341861563158
 21
213.70388530489581
 31
0.0
  0
ARC
  5
14CE
  8
0
 10
275.41241339725582
 20
213.5
 30
0.0
 40
1.0
 50
90.0
 51
168.23574635819509
  0
LINE
  5
14CF
  8
0
 10
287.03566142277731
 20
206.64981295708429
 30
0.0
 11
285.56658138436831
 21
213.70388530489581
 31
0.0
  0
ARC
  5
14D0
  8
0
 10
284.58758660274412
 20
213.5
 30
0.0
 40
1.0
 50
11.76425364180364
 51
90.0
  0
LINE
  5
14D1
  8
0
 10
287.03986246645229
 20
206.6090358961051
 30
0.0
 11
287.0398624664524
 21
193.5458984295683
 31
0.0
  0
ARC
  5
14D2
  8
0
 10
280.01774993163951
 20
216.158823351866
 30
0.0
 40
3.0
 50
269.66099929890152
 51
299.63458235356637
  0
LINE
  5
14D3
  8
0
 10
281.50114968001878
 20
213.55123343270529
 30
0.0
 11
283.39907015978298
 21
214.3450953562967
 31
0.0
  0
ARC
  5
14D4
  8
0
 10
284.17083639781907
 20
212.5
 30
0.0
 40
2.0
 50
90.0
 51
112.6985763169083
  0
ARC
  5
14D5
  8
0
 10
279.98225006836049
 20
216.158823351866
 30
0.0
 40
3.0
 50
240.3654176464336
 51
270.33900070109848
  0
LINE
  5
14D6
  8
0
 10
278.49885031998122
 20
213.55123343270529
 30
0.0
 11
276.60092984021702
 21
214.3450953562967
 31
0.0
  0
ARC
  5
14D7
  8
0
 10
275.82916360218093
 20
212.5
 30
0.0
 40
2.0
 50
67.301423683091713
 51
90.0
  0
ARC
  5
14D8
  8
0
 10
280.01057705000829
 20
209.96111498657629
 30
0.0
 40
0.8
 50
41.037685178419693
 51
138.96231482158029
  0
ARC
  5
14D9
  8
0
 10
260.34604359436543
 20
188.3682677838662
 30
0.0
 40
30.0
 50
33.602711735221028
 51
47.499353549681892
  0
ARC
  5
14DA
  8
0
 10
284.5
 20
204.4177659054493
 30
0.0
 40
1.0
 50
0.0
 51
33.602711735221028
  0
LINE
  5
14DB
  8
0
 10
285.5
 20
213.9092698284847
 30
0.0
 11
285.5
 21
204.4391112414539
 31
0.0
  0
LINE
  5
14DC
  8
0
 10
285.5
 20
204.4177659054493
 30
0.0
 11
285.72833846067579
 21
202.06
 31
0.0
  0
LINE
  5
14DD
  8
0
 10
274.52115410001682
 20
213.9092698284847
 30
0.0
 11
274.52115410001682
 21
204.4391112414539
 31
0.0
  0
ARC
  5
14DE
  8
0
 10
275.52115410001682
 20
204.4177659054493
 30
0.0
 40
1.0
 50
146.39728826477861
 51
180.0
  0
LINE
  5
14DF
  8
0
 10
274.52115410001682
 20
204.4177659054493
 30
0.0
 11
274.29281563934097
 21
202.06
 31
0.0
  0
ARC
  5
14E0
  8
0
 10
299.67511050565139
 20
188.3682677838662
 30
0.0
 40
30.0
 50
132.5006464503181
 51
146.39728826477861
  0
LINE
  5
14E1
  8
0
 10
286.11892873467571
 20
202.06
 30
0.0
 11
286.20069518000531
 21
201.75675913112539
 31
0.0
  0
ARC
  5
14E2
  8
0
 10
300.15802543939952
 20
208.84216492048679
 30
0.0
 40
15.0
 50
209.00892254597429
 51
229.35444282771269
  0
ARC
  5
14E3
  8
0
 10
259.84197456060048
 20
208.84216492048679
 30
0.0
 40
15.0
 50
310.64555717228728
 51
330.9910774540258
  0
ARC
  5
14E4
  8
0
 10
297.4182427593629
 20
189.73375180202279
 30
0.0
 40
11.0
 50
161.47738834069449
 51
211.41614743140769
  0
ARC
  5
14E5
  8
0
 10
286.0398624664524
 20
193.54589842956821
 30
0.0
 40
1.0
 50
341.47738834069452
 51
0.0
  0
ARC
  5
14E6
  8
0
 10
262.5817572406371
 20
189.73375180202279
 30
0.0
 40
11.0
 50
328.58385256859231
 51
18.522611659305522
  0
LINE
  5
14E7
  8
0
 10
272.96013753354771
 20
206.6090358961051
 30
0.0
 11
272.9601375335476
 21
193.5458984295683
 31
0.0
  0
ARC
  5
14E8
  8
0
 10
273.9601375335476
 20
193.54589842956821
 30
0.0
 40
1.0
 50
179.9999999999992
 51
198.52261165930551
  0
LINE
  5
14E9
  8
0
 10
269.0
 20
196.0424300450025
 30
0.0
 11
269.5
 21
170.0
 31
0.0
  0
LINE
  5
14EA
  8
0
 10
291.0
 20
196.0424300450025
 30
0.0
 11
290.5
 21
170.0
 31
0.0
  0
LINE
  5
151B
  8
0
 10
272.9601375335476
 20
193.96660932143951
 30
0.0
 11
273.09013736660921
 21
195.3714944826915
 31
0.0
  0
LINE
  5
151C
  8
0
 10
273.09013736660921
 20
195.3714944826915
 30
0.0
 11
273.37111187234859
 21
198.15203008633509
 31
0.0
  0
LINE
  5
151D
  8
0
 10
273.37111187234859
 20
198.15203008633509
 30
0.0
 11
273.65574655369147
 21
200.63128118768961
 31
0.0
  0
LINE
  5
151E
  8
0
 10
273.65574655369147
 20
200.63128118768961
 30
0.0
 11
273.79930481999469
 21
201.75675913112539
 31
0.0
  0
LINE
  5
151F
  8
0
 10
269.61264044014882
 20
197.46086058968919
 30
0.0
 11
269.59551488829641
 21
197.44247873393169
 31
0.0
  0
LINE
  5
1520
  8
0
 10
269.59551488829641
 20
197.44247873393169
 30
0.0
 11
269.51083305399442
 21
197.3436575738514
 31
0.0
  0
LINE
  5
1521
  8
0
 10
269.51083305399442
 20
197.3436575738514
 30
0.0
 11
269.43325527075302
 21
197.2447655767408
 31
0.0
  0
LINE
  5
1522
  8
0
 10
269.43325527075302
 20
197.2447655767408
 30
0.0
 11
269.36270276257221
 21
197.1459817858894
 31
0.0
  0
LINE
  5
1523
  8
0
 10
269.36270276257221
 20
197.1459817858894
 30
0.0
 11
269.2990412717358
 21
197.04744157675231
 31
0.0
  0
LINE
  5
1524
  8
0
 10
269.2990412717358
 20
197.04744157675231
 30
0.0
 11
269.26947346108932
 21
196.99783085497589
 31
0.0
  0
LINE
  5
1525
  8
0
 10
269.26947346108932
 20
196.99783085497589
 30
0.0
 11
269.24129170265729
 21
196.94776454591059
 31
0.0
  0
LINE
  5
1526
  8
0
 10
269.24129170265729
 20
196.94776454591059
 30
0.0
 11
269.18921561618242
 21
196.84632596535431
 31
0.0
  0
LINE
  5
1527
  8
0
 10
269.18921561618242
 20
196.84632596535431
 30
0.0
 11
269.14305643817369
 21
196.74325028624381
 31
0.0
  0
LINE
  5
1528
  8
0
 10
269.14305643817369
 20
196.74325028624381
 30
0.0
 11
269.10303297789881
 21
196.63866587143471
 31
0.0
  0
LINE
  5
1529
  8
0
 10
269.10303297789881
 20
196.63866587143471
 30
0.0
 11
269.06933907265949
 21
196.53270404122449
 31
0.0
  0
LINE
  5
152A
  8
0
 10
269.06933907265949
 20
196.53270404122449
 30
0.0
 11
269.04214355573009
 21
196.42549807873871
 31
0.0
  0
LINE
  5
152B
  8
0
 10
269.04214355573009
 20
196.42549807873871
 30
0.0
 11
269.03102868082402
 21
196.37147047936429
 31
0.0
  0
LINE
  5
152C
  8
0
 10
269.03102868082402
 20
196.37147047936429
 30
0.0
 11
269.02159054699553
 21
196.31718219087219
 31
0.0
  0
LINE
  5
152D
  8
0
 10
269.02159054699553
 20
196.31718219087219
 30
0.0
 11
269.00780015646711
 21
196.2078913393116
 31
0.0
  0
LINE
  5
152E
  8
0
 10
269.00780015646711
 20
196.2078913393116
 30
0.0
 11
269.00086925497982
 21
196.09776360748501
 31
0.0
  0
LINE
  5
152F
  8
0
 10
269.00086925497982
 20
196.09776360748501
 30
0.0
 11
269.0
 21
196.0424300450025
 31
0.0
  0
LINE
  5
1534
  8
0
 10
287.0398624664524
 20
193.96660932143951
 30
0.0
 11
286.90986263339079
 21
195.3714944826915
 31
0.0
  0
LINE
  5
1535
  8
0
 10
286.90986263339079
 20
195.3714944826915
 30
0.0
 11
286.62888812765141
 21
198.15203008633509
 31
0.0
  0
LINE
  5
1536
  8
0
 10
286.62888812765141
 20
198.15203008633509
 30
0.0
 11
286.34425344630853
 21
200.63128118768961
 31
0.0
  0
LINE
  5
1537
  8
0
 10
286.34425344630853
 20
200.63128118768961
 30
0.0
 11
286.20069518000531
 21
201.75675913112539
 31
0.0
  0
LINE
  5
1552
  8
0
 10
290.38735955985118
 20
197.46086058968919
 30
0.0
 11
290.40448511170359
 21
197.44247873393169
 31
0.0
  0
LINE
  5
1553
  8
0
 10
290.40448511170359
 20
197.44247873393169
 30
0.0
 11
290.48916694600558
 21
197.3436575738514
 31
0.0
  0
LINE
  5
1554
  8
0
 10
290.48916694600558
 20
197.3436575738514
 30
0.0
 11
290.56674472924698
 21
197.2447655767408
 31
0.0
  0
LINE
  5
1555
  8
0
 10
290.56674472924698
 20
197.2447655767408
 30
0.0
 11
290.63729723742779
 21
197.1459817858894
 31
0.0
  0
LINE
  5
1556
  8
0
 10
290.63729723742779
 20
197.1459817858894
 30
0.0
 11
290.7009587282642
 21
197.04744157675231
 31
0.0
  0
LINE
  5
1557
  8
0
 10
290.7009587282642
 20
197.04744157675231
 30
0.0
 11
290.73052653891068
 21
196.99783085497589
 31
0.0
  0
LINE
  5
1558
  8
0
 10
290.73052653891068
 20
196.99783085497589
 30
0.0
 11
290.75870829734271
 21
196.94776454591059
 31
0.0
  0
LINE
  5
1559
  8
0
 10
290.75870829734271
 20
196.94776454591059
 30
0.0
 11
290.81078438381758
 21
196.84632596535431
 31
0.0
  0
LINE
  5
155A
  8
0
 10
290.81078438381758
 20
196.84632596535431
 30
0.0
 11
290.85694356182631
 21
196.74325028624381
 31
0.0
  0
LINE
  5
155B
  8
0
 10
290.85694356182631
 20
196.74325028624381
 30
0.0
 11
290.89696702210119
 21
196.63866587143471
 31
0.0
  0
LINE
  5
155C
  8
0
 10
290.89696702210119
 20
196.63866587143471
 30
0.0
 11
290.93066092734051
 21
196.53270404122449
 31
0.0
  0
LINE
  5
155D
  8
0
 10
290.93066092734051
 20
196.53270404122449
 30
0.0
 11
290.95785644427002
 21
196.42549807873871
 31
0.0
  0
LINE
  5
155E
  8
0
 10
290.95785644427002
 20
196.42549807873871
 30
0.0
 11
290.96897131917598
 21
196.37147047936429
 31
0.0
  0
LINE
  5
155F
  8
0
 10
290.96897131917598
 20
196.37147047936429
 30
0.0
 11
290.97840945300447
 21
196.31718219087219
 31
0.0
  0
LINE
  5
1560
  8
0
 10
290.97840945300447
 20
196.31718219087219
 30
0.0
 11
290.99219984353289
 21
196.2078913393116
 31
0.0
  0
LINE
  5
1561
  8
0
 10
290.99219984353289
 20
196.2078913393116
 30
0.0
 11
290.99913074502018
 21
196.09776360748501
 31
0.0
  0
LINE
  5
1562
  8
0
 10
290.99913074502018
 20
196.09776360748501
 30
0.0
 11
291.0
 21
196.0424300450025
 31
0.0
  0
ARC
  5
1564
  8
0
 10
140.0
 20
287.0
 30
0.0
 40
2.6855911825890351
 50
191.27321412590859
 51
348.72678587409132
  0
LINE
  5
1565
  8
0
 10
137.25
 20
287.52499999999998
 30
0.0
 11
137.25
 21
286.47500000000002
 31
0.0
  0
LINE
  5
1566
  8
0
 10
142.75
 20
287.52499999999998
 30
0.0
 11
142.75
 21
286.47500000000002
 31
0.0
  0
ARC
  5
1567
  8
0
 10
140.0
 20
287.0
 30
0.0
 40
2.6855911825890351
 50
11.27321412590867
 51
168.72678587409129
  0
LINE
  5
1568
  8
0
 10
55.0
 20
196.336696830622
 30
0.0
 11
45.0
 21
196.33669683062189
 31
0.0
  0
ARC
  5
1569
  8
0
 10
50.0
 20
183.25999999999991
 30
0.0
 40
14.0
 50
101.0594800362036
 51
110.9248324276368
  0
ARC
  5
156A
  8
0
 10
50.0
 20
183.25999999999991
 30
0.0
 40
14.0
 50
69.075167572363185
 51
78.940519963796334
  0
LINE
  5
156B
  8
0
 10
52.685591182589057
 20
196.99999999999989
 30
0.0
 11
47.314408817410929
 21
196.99999999999989
 31
0.0
  0
LINE
  5
156C
  8
0
 10
45.0
 20
196.336696830622
 30
0.0
 11
45.0
 21
194.7296055006428
 31
0.0
  0
LINE
  5
156D
  8
0
 10
55.0
 20
196.336696830622
 30
0.0
 11
55.0
 21
194.90929275721669
 31
0.0
  0
CIRCLE
  5
156E
  8
0
 10
140.0
 20
287.0
 30
0.0
 40
5.0
  0
ARC
  5
156F
  8
0
 10
138.16933809398799
 20
288.05693314423132
 30
0.0
 40
0.6912500000000005
 50
309.68887794065529
 51
16.658241772777039
  0
ARC
  5
1570
  8
0
 10
139.21000000000001
 20
288.36832013797948
 30
0.0
 40
0.3949999999999998
 50
43.341758227221163
 51
196.65824177277699
  0
ARC
  5
1571
  8
0
 10
140.0
 20
289.11386628846242
 30
0.0
 40
0.6912499999999989
 50
223.34175822722099
 51
316.65824177277892
  0
ARC
  5
1572
  8
0
 10
140.78999999999991
 20
288.36832013797948
 30
0.0
 40
0.3950000000000002
 50
343.3417582272229
 51
136.65824177277881
  0
ARC
  5
1573
  8
0
 10
138.16933809398799
 20
285.94306685576879
 30
0.0
 40
0.691250000000001
 50
343.3417582272229
 51
50.311122059331822
  0
ARC
  5
1574
  8
0
 10
139.21000000000001
 20
285.63167986202058
 30
0.0
 40
0.3950000000000001
 50
163.3417582272229
 51
316.65824177277892
  0
ARC
  5
1575
  8
0
 10
140.0
 20
284.88613371153758
 30
0.0
 40
0.6912500000000003
 50
43.341758227221163
 51
136.65824177277511
  0
ARC
  5
1576
  8
0
 10
140.78999999999991
 20
285.63167986202058
 30
0.0
 40
0.3949999999999998
 50
223.34175822722099
 51
16.658241772777039
  0
ARC
  5
1577
  8
0
 10
141.83066190601201
 20
285.94306685576879
 30
0.0
 40
0.6912500000000003
 50
129.68887794066811
 51
196.65824177277699
  0
ARC
  5
1578
  8
0
 10
141.83066190601201
 20
288.05693314423132
 30
0.0
 40
0.6912500000000011
 50
163.3417582272229
 51
230.3111220593446
  0
LINE
  5
1579
  8
0
 10
137.25
 20
286.47500000000002
 30
0.0
 11
138.6107830991341
 21
286.47500000000002
 31
0.0
  0
LINE
  5
157A
  8
0
 10
137.25
 20
287.52499999999998
 30
0.0
 11
138.61078309913401
 21
287.52499999999998
 31
0.0
  0
LINE
  5
157B
  8
0
 10
141.3892169008661
 20
287.52499999999998
 30
0.0
 11
142.75
 21
287.52499999999998
 31
0.0
  0
LINE
  5
157C
  8
0
 10
141.38921690086599
 20
286.47500000000002
 30
0.0
 11
142.75
 21
286.47500000000002
 31
0.0
  0
LINE
  5
157D
  8
0
 10
142.45749370353639
 20
196.99999999999989
 30
0.0
 11
137.30440881741089
 21
196.99999999999989
 31
0.0
  0
LINE
  5
157E
  8
0
 10
140.77623350630429
 20
196.336696830622
 30
0.0
 11
134.99000000000001
 21
196.33669683062189
 31
0.0
  0
LINE
  5
157F
  8
0
 10
134.99000000000001
 20
196.336696830622
 30
0.0
 11
134.99000000000001
 21
193.95339562964131
 31
0.0
  0
ARC
  5
1580
  8
0
 10
139.99000000000001
 20
183.25999999999991
 30
0.0
 40
14.0
 50
101.0594800362036
 51
110.9248324276368
  0
LINE
  5
1582
  8
0
 10
273.88107126532429
 20
202.06
 30
0.0
 11
273.79930481999469
 21
201.75675913112539
 31
0.0
  0
LINE
  5
158C
  8
0
 10
53.5
 20
119.9999999999999
 30
0.0
 11
46.5
 21
120.0
 31
0.0
  0
LINE
  5
158D
  8
0
 10
45.0
 20
159.99999999999989
 30
0.0
 11
45.0
 21
121.5000000000001
 31
0.0
  0
LINE
  5
158E
  8
3
 10
45.811999999999898
 20
156.0
 30
0.0
 11
45.811999999999898
 21
120.6880000000001
 31
0.0
  0
LINE
  5
158F
  8
3
 10
54.188000000000102
 20
156.0
 30
0.0
 11
54.188000000000102
 21
120.6880000000001
 31
0.0
  0
LINE
  5
1590
  8
0
 10
55.0
 20
159.99999999999989
 30
0.0
 11
55.0
 21
121.4999999999999
 31
0.0
  0
LINE
  5
1591
  8
0
 10
55.0
 20
121.4999999999999
 30
0.0
 11
53.5
 21
119.9999999999999
 31
0.0
  0
LINE
  5
1592
  8
0
 10
46.5
 20
120.0
 30
0.0
 11
45.0
 21
121.5000000000001
 31
0.0
  0
LINE
  5
1593
  8
0
 10
55.0
 20
156.0
 30
0.0
 11
45.0
 21
156.00000000000011
 31
0.0
  0
LINE
  5
1594
  8
3
 10
54.188000000000102
 20
156.0
 30
0.0
 11
55.0
 21
157.40642525574569
 31
0.0
  0
LINE
  5
1595
  8
3
 10
45.811999999999898
 20
156.0
 30
0.0
 11
45.0
 21
157.40642525574569
 31
0.0
  0
LINE
  5
1596
  8
0
 10
55.0
 20
121.4999999999999
 30
0.0
 11
45.0
 21
121.5000000000001
 31
0.0
  0
LINE
  5
1597
  8
0
 10
283.5
 20
119.9999999999999
 30
0.0
 11
276.5
 21
120.0
 31
0.0
  0
LINE
  5
1598
  8
0
 10
275.0
 20
159.99999999999989
 30
0.0
 11
275.0
 21
121.5000000000001
 31
0.0
  0
LINE
  5
1599
  8
3
 10
275.8119999999999
 20
156.0
 30
0.0
 11
275.8119999999999
 21
120.6880000000001
 31
0.0
  0
LINE
  5
159A
  8
3
 10
284.1880000000001
 20
156.0
 30
0.0
 11
284.1880000000001
 21
120.6880000000001
 31
0.0
  0
LINE
  5
159B
  8
0
 10
285.0
 20
159.99999999999989
 30
0.0
 11
285.0
 21
121.4999999999999
 31
0.0
  0
LINE
  5
159C
  8
0
 10
285.0
 20
121.4999999999999
 30
0.0
 11
283.5
 21
119.9999999999999
 31
0.0
  0
LINE
  5
159D
  8
0
 10
276.5
 20
120.0
 30
0.0
 11
275.0
 21
121.5000000000001
 31
0.0
  0
LINE
  5
159E
  8
0
 10
285.0
 20
156.0
 30
0.0
 11
275.0
 21
156.00000000000011
 31
0.0
  0
LINE
  5
159F
  8
3
 10
284.1880000000001
 20
156.0
 30
0.0
 11
285.0
 21
157.40642525574569
 31
0.0
  0
LINE
  5
15A0
  8
3
 10
275.8119999999999
 20
156.0
 30
0.0
 11
275.0
 21
157.40642525574569
 31
0.0
  0
LINE
  5
15A1
  8
0
 10
285.0
 20
121.4999999999999
 30
0.0
 11
275.0
 21
121.5000000000001
 31
0.0
  0
CIRCLE
  5
15A2
  8
3
 10
140.0
 20
50.0
 30
0.0
 40
4.1879999999999882
  0
CIRCLE
  5
15A3
  8
0
 10
140.0
 20
50.0
 30
0.0
 40
5.0
  0
POLYLINE
  5
162D
  8
0
 66
     1
 10
0.0
 20
0.0
 30
0.0
 70
     2
  0
VERTEX
  5
162E
  8
0
 10
206.1633245653185
 20
202.06
 30
0.0
 42
0.0019265250137809
  0
VERTEX
  5
16AD
  8
0
 10
206.29517070190201
 20
202.06097816313371
 30
0.0
 42
0.0035485646017095
 70
     1
  0
VERTEX
  5
162F
  8
0
 10
206.36674084396989
 20
202.062292981751
 30
0.0
 42
0.0000436548668103
  0
VERTEX
  5
16AE
  8
0
 10
206.53791166193699
 20
202.06666792909499
 30
0.0
 42
0.0016041450440964
 70
     1
  0
VERTEX
  5
1630
  8
0
 10
206.5425694630008
 20
202.06680233923819
 30
0.0
 42
0.0019532528247484
  0
VERTEX
  5
16AF
  8
0
 10
206.63088082400279
 20
202.06997971934121
 30
0.0
 42
0.0018887169507667
 70
     1
  0
VERTEX
  5
1631
  8
0
 10
206.72218174261991
 20
202.07396732773401
 30
0.0
 42
0.0023911698022903
  0
VERTEX
  5
16B0
  8
0
 10
206.7934714865514
 20
202.0776925698521
 30
0.0
 42
0.0017849468126074
 70
     1
  0
VERTEX
  5
1632
  8
0
 10
206.8889281727013
 20
202.08348047433961
 30
0.0
 42
0.0030624146371591
  0
VERTEX
  5
16B1
  8
0
 10
206.99060635119889
 20
202.09063558815271
 30
0.0
 42
0.0021440410753445
 70
     1
  0
VERTEX
  5
1633
  8
0
 10
207.1357221396643
 20
202.10236714071209
 30
0.0
 42
0.0028108032089385
  0
VERTEX
  5
16B2
  8
0
 10
207.20961262450149
 20
202.10907827793201
 30
0.0
 42
0.0014493320421629
 70
     1
  0
VERTEX
  5
1634
  8
0
 10
207.3527973069223
 20
202.12331410855839
 30
0.0
 42
0.0057636384174923
  0
VERTEX
  5
16B3
  8
0
 10
207.5295769011573
 20
202.14346931709451
 30
0.0
 42
0.0039777585353829
 70
     1
  0
VERTEX
  5
1635
  8
0
 10
207.7851025953544
 20
202.17765751317509
 30
0.0
 42
0.0058857904403129
  0
VERTEX
  5
16B4
  8
0
 10
207.99452940264021
 20
202.20989486350891
 30
0.0
 42
0.0049658951877443
 70
     1
  0
VERTEX
  5
1636
  8
0
 10
208.24186085412649
 20
202.25348127838311
 30
0.0
 42
0.005078365732336
  0
VERTEX
  5
16B5
  8
0
 10
208.47164789219011
 20
202.29875285031929
 30
0.0
 42
0.0054511940727036
 70
     1
  0
VERTEX
  5
1637
  8
0
 10
208.684784172279
 20
202.34542672722279
 30
0.0
 42
0.0048732903389526
  0
VERTEX
  5
16B6
  8
0
 10
208.92460386712449
 20
202.4031576739182
 30
0.0
 42
0.0056958095510781
 70
     1
  0
VERTEX
  5
1638
  8
0
 10
209.12870365195801
 20
202.4568781931419
 30
0.0
 42
0.0031786765477168
  0
VERTEX
  5
16B8
  8
0
 10
209.15775121559639
 20
202.46507764214951
 30
0.0
 42
0.0002944624246653
 70
     1
  0
VERTEX
  5
1639
  8
0
 10
209.47068967361611
 20
202.55576446657361
 30
0.0
 42
0.0071129115793766
  0
VERTEX
  5
16B7
  8
0
 10
209.56541837851731
 20
202.58474389858819
 30
0.0
 42
0.0034187547675359
 70
     1
  0
VERTEX
  5
163A
  8
0
 10
209.76118557420071
 20
202.64917233509181
 30
0.0
  0
SEQEND
  5
163B
  8
0
  0
ENDSEC
  0
EOF
