  0
SECTION
  2
HEADER
  9
$ACADVER
  1
AC1009
  9
$INSBASE
 10
0.0
 20
0.0
 30
0.0
  9
$EXTMIN
 10
0.0
 20
-2.960436562073669
 30
0.0
  9
$EXTMAX
 10
271.08609146906178
 20
216.9219775458285
 30
0.0
  9
$LIMMIN
 10
0.0
 20
0.0
  9
$LIMMAX
 10
187.5
 20
135.0
  9
$ORTHOMODE
 70
     0
  9
$REGENMODE
 70
     1
  9
$FILLMODE
 70
     1
  9
$QTEXTMODE
 70
     0
  9
$MIRRTEXT
 70
     0
  9
$DRAGMODE
 70
     2
  9
$LTSCALE
 40
10.0
  9
$OSMODE
 70
    55
  9
$ATTMODE
 70
     1
  9
$TEXTSIZE
 40
4.0
  9
$TRACEWID
 40
0.05
  9
$TEXTSTYLE
  7
STANDARD
  9
$CLAYER
  8
0
  9
$CELTYPE
  6
BYLAYER
  9
$CECOLOR
 62
   256
  9
$DIMSCALE
 40
0.5
  9
$DIMASZ
 40
3.0
  9
$DIMEXO
 40
2.0
  9
$DIMDLI
 40
0.38
  9
$DIMRND
 40
0.0
  9
$DIMDLE
 40
0.0
  9
$DIMEXE
 40
2.0
  9
$DIMTP
 40
0.0
  9
$DIMTM
 40
0.0
  9
$DIMTXT
 40
3.0
  9
$DIMCEN
 40
0.0
  9
$DIMTSZ
 40
0.0
  9
$DIMTOL
 70
     0
  9
$DIMLIM
 70
     0
  9
$DIMTIH
 70
     0
  9
$DIMTOH
 70
     0
  9
$DIMSE1
 70
     0
  9
$DIMSE2
 70
     0
  9
$DIMTAD
 70
     1
  9
$DIMZIN
 70
     0
  9
$DIMBLK
  1

  9
$DIMASO
 70
     0
  9
$DIMSHO
 70
     0
  9
$DIMPOST
  1

  9
$DIMAPOST
  1

  9
$DIMALT
 70
     0
  9
$DIMALTD
 70
     2
  9
$DIMALTF
 40
25.399999999999999
  9
$DIMLFAC
 40
1.0
  9
$DIMTOFL
 70
     0
  9
$DIMTVP
 40
1.6000000000000001
  9
$DIMTIX
 70
     1
  9
$DIMSOXD
 70
     0
  9
$DIMSAH
 70
     0
  9
$DIMBLK1
  1

  9
$DIMBLK2
  1

  9
$DIMSTYLE
  2
STANDARD
  9
$DIMCLRD
 70
     0
  9
$DIMCLRE
 70
     0
  9
$DIMCLRT
 70
     0
  9
$DIMTFAC
 40
1.0
  9
$DIMGAP
 40
0.09
  9
$LUNITS
 70
     2
  9
$LUPREC
 70
     4
  9
$SKETCHINC
 40
0.1
  9
$FILLETRAD
 40
1.25
  9
$AUNITS
 70
     0
  9
$AUPREC
 70
     0
  9
$MENU
  1
E:\r13\win\SUPPORT\ACAD
  9
$ELEVATION
 40
0.0
  9
$PELEVATION
 40
0.0
  9
$THICKNESS
 40
0.0
  9
$LIMCHECK
 70
     0
  9
$BLIPMODE
 70
     0
  9
$CHAMFERA
 40
0.0
  9
$CHAMFERB
 40
0.0
  9
$SKPOLY
 70
     0
  9
$TDCREATE
 40
2449840.6143865739
  9
$TDUPDATE
 40
2456598.6469408101
  9
$TDINDWG
 40
0.2256732755
  9
$TDUSRTIMER
 40
0.2256732755
  9
$USRTIMER
 70
     1
  9
$ANGBASE
 50
0.0
  9
$ANGDIR
 70
     0
  9
$PDMODE
 70
     0
  9
$PDSIZE
 40
0.0
  9
$PLINEWID
 40
0.0
  9
$COORDS
 70
     1
  9
$SPLFRAME
 70
     0
  9
$SPLINETYPE
 70
     6
  9
$SPLINESEGS
 70
     8
  9
$ATTDIA
 70
     0
  9
$ATTREQ
 70
     1
  9
$HANDLING
 70
     1
  9
$HANDSEED
  5
1339
  9
$SURFTAB1
 70
     6
  9
$SURFTAB2
 70
     6
  9
$SURFTYPE
 70
     6
  9
$SURFU
 70
     6
  9
$SURFV
 70
     6
  9
$UCSNAME
  2

  9
$UCSORG
 10
0.0
 20
0.0
 30
0.0
  9
$UCSXDIR
 10
1.0
 20
0.0
 30
0.0
  9
$UCSYDIR
 10
0.0
 20
1.0
 30
0.0
  9
$PUCSNAME
  2

  9
$PUCSORG
 10
0.0
 20
0.0
 30
0.0
  9
$PUCSXDIR
 10
1.0
 20
0.0
 30
0.0
  9
$PUCSYDIR
 10
0.0
 20
1.0
 30
0.0
  9
$USERI1
 70
     0
  9
$USERI2
 70
     1
  9
$USERI3
 70
     1
  9
$USERI4
 70
     0
  9
$USERI5
 70
     0
  9
$USERR1
 40
0.0
  9
$USERR2
 40
0.0
  9
$USERR3
 40
0.0
  9
$USERR4
 40
0.0
  9
$USERR5
 40
0.0
  9
$WORLDVIEW
 70
     1
  9
$SHADEDGE
 70
     3
  9
$SHADEDIF
 70
    70
  9
$TILEMODE
 70
     1
  9
$MAXACTVP
 70
    16
  9
$PLIMCHECK
 70
     0
  9
$PEXTMIN
 10
1.0000000000000000E+020
 20
1.0000000000000000E+020
 30
1.0000000000000000E+020
  9
$PEXTMAX
 10
-1.0000000000000000E+020
 20
-1.0000000000000000E+020
 30
-1.0000000000000000E+020
  9
$PLIMMIN
 10
0.0
 20
0.0
  9
$PLIMMAX
 10
12.0
 20
9.0
  9
$UNITMODE
 70
     0
  9
$VISRETAIN
 70
     0
  9
$PLINEGEN
 70
     0
  9
$PSLTSCALE
 70
     0
  0
ENDSEC
  0
SECTION
  2
TABLES
  0
TABLE
  2
VPORT
 70
     1
  0
VPORT
  2
*ACTIVE
 70
     0
 10
0.0
 20
0.0
 11
1.0
 21
1.0
 12
135.54304636570239
 22
140.33326237816951
 13
0.0
 23
0.0
 14
5.0
 24
5.0
 15
5.0
 25
5.0
 16
0.0
 26
0.0
 36
1.0
 17
0.0
 27
0.0
 37
0.0
 40
289.13216306304753
 41
1.7807262569832401
 42
50.0
 43
0.0
 44
0.0
 50
0.0
 51
0.0
 71
     0
 72
   100
 73
     1
 74
     0
 75
     0
 76
     0
 77
     0
 78
     0
  0
ENDTAB
  0
TABLE
  2
LTYPE
 70
     4
  0
LTYPE
  2
CONTINUOUS
 70
     0
  3
Solid Line
 72
    65
 73
     0
 40
0.0
  0
LTYPE
  2
CENTER
 70
     0
  3
____ _ ____ _ ____ _ ____ _ ____ _ ____ _ ____
 72
    65
 73
     4
 40
2.0
 49
1.25
 49
-0.25
 49
0.25
 49
-0.25
  0
LTYPE
  2
HIDDEN
 70
     0
  3
_ _ _ _ _ _ _ _ _ _ _ _ _ _ _ _ _ _ _ _ _ _ _
 72
    65
 73
     2
 40
0.375
 49
0.25
 49
-0.125
  0
LTYPE
  2
PHANTOM2
 70
     0
  3
___ _ _ ___ _ _ ___ _ _ ___ _ _
 72
    65
 73
     6
 40
1.25
 49
0.625
 49
-0.125
 49
0.125
 49
-0.125
 49
0.125
 49
-0.125
  0
ENDTAB
  0
TABLE
  2
LAYER
 70
     4
  0
LAYER
  2
0
 70
     0
 62
     7
  6
CONTINUOUS
  0
LAYER
  2
1
 70
     0
 62
     1
  6
CENTER
  0
LAYER
  2
2
 70
     0
 62
     2
  6
HIDDEN
  0
LAYER
  2
3
 70
     0
 62
     3
  6
CONTINUOUS
  0
ENDTAB
  0
TABLE
  2
STYLE
 70
     2
  0
STYLE
  2
STANDARD
 70
     0
 40
0.0
 41
1.0
 50
0.0
 71
     0
 42
4.0
  3
TXT
  4
BIGFONT
  0
STYLE
  2
STANDARD1
 70
     0
 40
0.0
 41
1.0
 50
0.0
 71
     0
 42
3.0
  3
txt
  4

  0
ENDTAB
  0
TABLE
  2
VIEW
 70
     1
  0
VIEW
  2
ALL
 70
     0
 40
179.66152299999999
 10
141.903918
 20
89.830760999999995
 41
0.0
 11
0.0
 21
0.0
 31
1.0
 12
0.0
 22
0.0
 32
0.0
 42
0.0
 43
0.0
 44
0.0
 50
0.0
 71
     0
  0
ENDTAB
  0
TABLE
  2
UCS
 70
     0
  0
ENDTAB
  0
TABLE
  2
APPID
 70
     4
  0
APPID
  2
ACAD
 70
     0
  0
APPID
  2
DCO15
 70
     0
  0
APPID
  2
ACAD_MLEADERVER
 70
     0
  0
APPID
  2
ACAD_NAV_VCDISPLAY
 70
     0
  0
ENDTAB
  0
TABLE
  2
DIMSTYLE
 70
     1
  0
DIMSTYLE
  2
STANDARD
 70
     0
  3

  4

  5

  6

  7

 40
1.0
 41
0.18
 42
0.0625
 43
0.38
 44
0.18
 45
0.0
 46
0.0
 47
0.0
 48
0.0
140
0.18
141
0.09
142
0.0
143
25.399999999999999
144
1.0
145
0.0
146
1.0
147
0.09
 71
     0
 72
     0
 73
     1
 74
     1
 75
     0
 76
     0
 77
     0
 78
     0
170
     0
171
     2
172
     0
173
     0
174
     0
175
     0
176
     0
177
     0
178
     0
  0
ENDTAB
  0
ENDSEC
  0
SECTION
  2
BLOCKS
  0
BLOCK
  8
0
  2
$MODEL_SPACE
 70
     0
 10
0.0
 20
0.0
 30
0.0
  3
$MODEL_SPACE
  1

  0
ENDBLK
  5
1BD
  8
0
  0
BLOCK
 67
     1
  8
0
  2
$PAPER_SPACE
 70
     0
 10
0.0
 20
0.0
 30
0.0
  3
$PAPER_SPACE
  1

  0
ENDBLK
  5
1BB
 67
     1
  8
0
  0
ENDSEC
  0
SECTION
  2
ENTITIES
  0
LINE
  5
E7E
  8
1
 10
212.3482288941957
 20
202.4219775458285
 30
0.0
 11
127.8482288941956
 21
202.4219775458285
 31
0.0
  0
ARC
  5
E7F
  8
0
 10
142.34822889419561
 20
202.4219775458285
 30
0.0
 40
9.5
 50
43.960390333331041
 51
167.0937516733598
  0
ARC
  5
E80
  8
0
 10
161.70851641283599
 20
157.8379826577372
 30
0.0
 40
40.0
 50
76.417232813746722
 51
108.2431324165678
  0
ARC
  5
E81
  8
0
 10
161.70851641283599
 20
247.00597243391979
 30
0.0
 40
40.0
 50
251.7568675834319
 51
283.58276718625319
  0
ARC
  5
E82
  8
0
 10
142.34822889419561
 20
202.4219775458285
 30
0.0
 40
9.5
 50
192.90624832664011
 51
316.03960966666949
  0
LINE
  5
E83
  8
1
 10
142.34822889419561
 20
216.9219775458285
 30
0.0
 11
142.34822889419561
 21
187.9219775458285
 31
0.0
  0
CIRCLE
  5
E84
  8
0
 10
143.12094364135029
 20
202.4219775458285
 30
0.0
 40
5.3807200853997337
  0
LINE
  5
E86
  8
0
 10
133.08822889419571
 20
200.30009159224861
 30
0.0
 11
133.08822889419571
 21
204.54386349940839
 31
0.0
  0
LINE
  5
E93
  8
0
 10
172.45734056512191
 20
196.58267041085651
 30
0.0
 11
202.59822889419561
 21
197.6719775458285
 31
0.0
  0
LINE
  5
E94
  8
0
 10
172.45734056512191
 20
208.26128468080049
 30
0.0
 11
202.59822889419561
 21
207.1719775458285
 31
0.0
  0
ARC
  5
E95
  8
0
 10
172.27675590098571
 20
201.57940826460461
 30
0.0
 40
5.0
 50
256.41723281374669
 51
272.0697979717865
  0
ARC
  5
E96
  8
0
 10
172.27675590098571
 20
203.26454682705241
 30
0.0
 40
5.0
 50
87.930202028213543
 51
103.58276718625319
  0
ARC
  5
E97
  8
0
 10
202.59822889419561
 20
202.4219775458285
 30
0.0
 40
4.75
 50
270.0
 51
90.0
  0
LINE
  5
E98
  8
0
 10
133.09822889419561
 20
133.3660100055462
 30
0.0
 11
133.0982288941957
 21
118.7855544955904
 31
0.0
  0
LINE
  5
E99
  8
0
 10
151.5982288941957
 20
118.7855544955904
 30
0.0
 11
151.59822889419561
 21
129.7855544955905
 31
0.0
  0
LINE
  5
E9A
  8
0
 10
203.5728406092654
 20
145.09424470299891
 30
0.0
 11
196.310854567554
 21
142.8073359079109
 31
0.0
  0
LINE
  5
E9B
  8
0
 10
193.3071258558287
 20
142.34555449559039
 30
0.0
 11
184.5033693504156
 21
142.34555449559039
 31
0.0
  0
LINE
  5
E9C
  8
0
 10
151.5982288941957
 20
118.7855544955904
 30
0.0
 11
133.0982288941957
 21
118.7855544955904
 31
0.0
  0
LINE
  5
E9E
  8
0
 10
149.10822889419569
 20
112.2855544955905
 30
0.0
 11
149.10822889419569
 21
118.7855544955904
 31
0.0
  0
LINE
  5
E9F
  8
0
 10
135.60822889419569
 20
118.7855544955904
 30
0.0
 11
135.60822889419569
 21
112.2855544955905
 31
0.0
  0
LINE
  5
EA1
  8
0
 10
135.60822889419569
 20
112.2855544955905
 30
0.0
 11
149.10822889419569
 21
112.2855544955905
 31
0.0
  0
LINE
  5
EA2
  8
1
 10
142.35822889419569
 20
144.98555449559041
 30
0.0
 11
142.35822889419569
 21
107.2855544955904
 31
0.0
  0
LINE
  5
EA3
  8
2
 10
145.72322889419581
 20
113.4855544955914
 30
0.0
 11
138.9732288941955
 21
113.4855544955914
 31
0.0
  0
LINE
  5
EA4
  8
2
 10
145.72322889419581
 20
113.4855544955914
 30
0.0
 11
146.9232288941952
 21
112.2855544955905
 31
0.0
  0
LINE
  5
EA5
  8
2
 10
145.72322889419581
 20
125.3680862503211
 30
0.0
 11
146.34822889419581
 21
124.2855544955905
 31
0.0
  0
LINE
  5
EA6
  8
2
 10
146.34822889419581
 20
112.86055449559061
 30
0.0
 11
146.34822889419581
 21
124.2855544955905
 31
0.0
  0
LINE
  5
EA7
  8
2
 10
145.72322889419581
 20
113.4855544955914
 30
0.0
 11
145.72322889419581
 21
126.2855544955904
 31
0.0
  0
LINE
  5
EA8
  8
2
 10
138.9732288941955
 20
125.3680862503211
 30
0.0
 11
138.3482288941955
 21
124.2855544955905
 31
0.0
  0
LINE
  5
EA9
  8
2
 10
142.34822889419561
 20
128.2341116541055
 30
0.0
 11
145.72322889419581
 21
126.2855544955904
 31
0.0
  0
LINE
  5
EAA
  8
2
 10
142.3482288941957
 20
128.2341116541055
 30
0.0
 11
138.9732288941955
 21
126.2855544955904
 31
0.0
  0
LINE
  5
EAB
  8
2
 10
138.9732288941955
 20
113.4855544955914
 30
0.0
 11
137.773228894196
 21
112.2855544955905
 31
0.0
  0
LINE
  5
EAC
  8
2
 10
138.9732288941955
 20
126.2855544955904
 30
0.0
 11
145.7232288941957
 21
126.2855544955904
 31
0.0
  0
LINE
  5
EAD
  8
2
 10
138.3482288941955
 20
124.2855544955905
 30
0.0
 11
146.34822889419581
 21
124.2855544955905
 31
0.0
  0
LINE
  5
EAE
  8
2
 10
138.9732288941955
 20
113.4855544955914
 30
0.0
 11
138.9732288941955
 21
126.2855544955904
 31
0.0
  0
LINE
  5
EAF
  8
2
 10
138.3482288941955
 20
112.86055449559061
 30
0.0
 11
138.3482288941955
 21
124.2855544955905
 31
0.0
  0
ARC
  5
EB0
  8
0
 10
142.35822889419569
 20
56.035502119709349
 30
0.0
 40
9.5
 50
43.960390333331041
 51
167.0937516733598
  0
ARC
  5
EB1
  8
0
 10
142.35822889419569
 20
56.035502119709349
 30
0.0
 40
9.5
 50
192.90624832664011
 51
316.03960966666949
  0
LINE
  5
EB2
  8
1
 10
212.35822889419569
 20
56.035502119709371
 30
0.0
 11
127.8582288941957
 21
56.035502119709349
 31
0.0
  0
LINE
  5
EB3
  8
1
 10
142.35822889419569
 20
70.535502119709349
 30
0.0
 11
142.35822889419569
 21
41.535502119709349
 31
0.0
  0
LINE
  5
EB4
  8
0
 10
133.09822889419561
 20
53.91361616612943
 30
0.0
 11
133.09822889419561
 21
58.157388073289297
 31
0.0
  0
LINE
  5
EB5
  8
0
 10
172.4673405651219
 20
50.19619498473741
 30
0.0
 11
202.60822889419569
 21
51.285502119709349
 31
0.0
  0
LINE
  5
EB6
  8
0
 10
172.4673405651219
 20
61.874809254681331
 30
0.0
 11
202.60822889419569
 21
60.785502119709378
 31
0.0
  0
ARC
  5
EB7
  8
0
 10
161.71851641283601
 20
11.451507231618111
 30
0.0
 40
40.0
 50
76.417232813746722
 51
108.2431324165678
  0
ARC
  5
EB8
  8
0
 10
172.2867559009857
 20
55.19293283848549
 30
0.0
 40
5.0
 50
256.41723281374669
 51
272.0697979717865
  0
ARC
  5
EB9
  8
0
 10
161.71851641283601
 20
100.6194970078006
 30
0.0
 40
40.0
 50
251.7568675834319
 51
283.58276718625319
  0
ARC
  5
EBA
  8
0
 10
172.2867559009857
 20
56.878071400933258
 30
0.0
 40
5.0
 50
87.930202028213543
 51
103.58276718625319
  0
ARC
  5
EBB
  8
0
 10
202.60822889419569
 20
56.035502119709371
 30
0.0
 40
4.75
 50
270.0
 51
90.0
  0
CIRCLE
  5
EBC
  8
0
 10
142.35822889419569
 20
56.035502119709349
 30
0.0
 40
9.2500000000000213
  0
CIRCLE
  5
EBD
  8
0
 10
142.35822889419561
 20
56.035502119709349
 30
0.0
 40
3.375
  0
CIRCLE
  5
EBE
  8
3
 10
142.35822889419561
 20
56.035502119709349
 30
0.0
 40
4.0
  0
LINE
  5
EC1
  8
0
 10
77.300888487322936
 20
112.2855544955905
 30
0.0
 11
77.300888487322936
 21
118.7855544955904
 31
0.0
  0
LINE
  5
EC2
  8
0
 10
63.800888487322929
 20
118.7855544955904
 30
0.0
 11
63.800888487322929
 21
112.2855544955905
 31
0.0
  0
LINE
  5
EC4
  8
0
 10
63.800888487322929
 20
112.2855544955905
 30
0.0
 11
77.300888487322936
 21
112.2855544955905
 31
0.0
  0
LINE
  5
EC5
  8
0
 10
64.34744994411875
 20
137.01336026625569
 30
0.0
 11
76.754327030527122
 21
137.01336026625569
 31
0.0
  0
LINE
  5
EC6
  8
0
 10
79.800888487322936
 20
118.7855544955904
 30
0.0
 11
61.300888487322929
 21
118.7855544955904
 31
0.0
  0
LINE
  5
EC7
  8
1
 10
70.550888487322936
 20
159.57058872112731
 30
0.0
 11
70.550888487322936
 21
107.2855544955904
 31
0.0
  0
ARC
  5
EC8
  8
0
 10
203.86981531642721
 20
151.28563795816009
 30
0.0
 40
3.5
 50
355.33664836780463
 51
90.395685692583854
  0
ARC
  5
EC9
  8
0
 10
226.81085593686939
 20
-74.065049744680493
 30
0.0
 40
230.0
 50
95.730460647055494
 51
113.38817846563499
  0
ARC
  5
ECA
  8
0
 10
137.0982288941957
 20
133.3660100055462
 30
0.0
 40
4.0
 50
113.3881784656329
 51
180.0
  0
ARC
  5
ECB
  8
0
 10
248.84273482747579
 20
-67.555536171792539
 30
0.0
 40
220.0
 50
107.8410827436654
 51
116.23286702971259
  0
ARC
  5
ECC
  8
0
 10
184.5033693504156
 20
132.34555449559051
 30
0.0
 40
10.0
 50
90.0
 51
107.8410827436654
  0
ARC
  5
ECD
  8
0
 10
193.3071258558287
 20
152.34555449559051
 30
0.0
 40
10.0
 50
270.0
 51
287.47999999999939
  0
ARC
  5
ECE
  8
0
 10
199.47617838737821
 20
151.9657335256459
 30
0.0
 40
8.0
 50
300.80266237156633
 51
350.14910440292891
  0
LINE
  5
ECF
  8
0
 10
207.35822889419569
 20
151.57019148641211
 30
0.0
 11
207.35822889419569
 21
150.597055401331
 31
0.0
  0
LINE
  5
ED0
  8
0
 10
72.388154247937024
 20
138.16114130127761
 30
0.0
 11
68.713622726708849
 21
138.16114130127761
 31
0.0
  0
POLYLINE
  5
ED1
  8
0
 10
72.388154247937024
 20
138.16114130127764
 30
0.0
 66
     1
 70
     8
  0
VERTEX
  8
0
  5
1131
 10
72.3882
 20
138.161
 30
0.000000
  70
    32
  0
VERTEX
  8
0
  5
1132
 10
72.6053
 20
138.195
 30
0.000000
  70
    32
  0
VERTEX
  8
0
  5
1133
 10
72.8186
 20
138.232
 30
0.000000
  70
    32
  0
VERTEX
  8
0
  5
1134
 10
73.0276
 20
138.273
 30
0.000000
  70
    32
  0
VERTEX
  8
0
  5
1135
 10
73.2318
 20
138.318
 30
0.000000
  70
    32
  0
VERTEX
  8
0
  5
1136
 10
73.4310
 20
138.366
 30
0.000000
  70
    32
  0
VERTEX
  8
0
  5
1137
 10
73.6247
 20
138.418
 30
0.000000
  70
    32
  0
VERTEX
  8
0
  5
1138
 10
73.8125
 20
138.473
 30
0.000000
  70
    32
  0
VERTEX
  8
0
  5
1139
 10
73.9941
 20
138.531
 30
0.000000
  70
    32
  0
VERTEX
  8
0
  5
113A
 10
74.1692
 20
138.592
 30
0.000000
  70
    32
  0
VERTEX
  8
0
  5
113B
 10
74.3375
 20
138.656
 30
0.000000
  70
    32
  0
VERTEX
  8
0
  5
113C
 10
74.4985
 20
138.723
 30
0.000000
  70
    32
  0
VERTEX
  8
0
  5
113D
 10
74.6520
 20
138.792
 30
0.000000
  70
    32
  0
VERTEX
  8
0
  5
113E
 10
74.7977
 20
138.865
 30
0.000000
  70
    32
  0
VERTEX
  8
0
  5
113F
 10
74.9353
 20
138.939
 30
0.000000
  70
    32
  0
VERTEX
  8
0
  5
1140
 10
75.0646
 20
139.016
 30
0.000000
  70
    32
  0
VERTEX
  8
0
  5
1141
 10
75.1853
 20
139.096
 30
0.000000
  70
    32
  0
VERTEX
  8
0
  5
1142
 10
75.2972
 20
139.177
 30
0.000000
  70
    32
  0
VERTEX
  8
0
  5
1143
 10
75.4001
 20
139.260
 30
0.000000
  70
    32
  0
VERTEX
  8
0
  5
1144
 10
75.4938
 20
139.345
 30
0.000000
  70
    32
  0
VERTEX
  8
0
  5
1145
 10
75.5780
 20
139.431
 30
0.000000
  70
    32
  0
VERTEX
  8
0
  5
1146
 10
75.6527
 20
139.519
 30
0.000000
  70
    32
  0
VERTEX
  8
0
  5
1147
 10
75.7177
 20
139.608
 30
0.000000
  70
    32
  0
VERTEX
  8
0
  5
1148
 10
75.7729
 20
139.698
 30
0.000000
  70
    32
  0
VERTEX
  8
0
  5
1149
 10
75.8182
 20
139.788
 30
0.000000
  70
    32
  0
VERTEX
  8
0
  5
114A
 10
75.8534
 20
139.880
 30
0.000000
  70
    32
  0
VERTEX
  8
0
  5
114B
 10
75.8786
 20
139.972
 30
0.000000
  70
    32
  0
VERTEX
  8
0
  5
114C
 10
75.8936
 20
140.064
 30
0.000000
  70
    32
  0
VERTEX
  8
0
  5
114D
 10
75.8985
 20
140.157
 30
0.000000
  70
    32
  0
VERTEX
  8
0
  5
114E
 10
75.8932
 20
140.249
 30
0.000000
  70
    32
  0
VERTEX
  8
0
  5
114F
 10
75.8777
 20
140.342
 30
0.000000
  70
    32
  0
VERTEX
  8
0
  5
1150
 10
75.8521
 20
140.434
 30
0.000000
  70
    32
  0
VERTEX
  8
0
  5
1151
 10
75.8164
 20
140.525
 30
0.000000
  70
    32
  0
VERTEX
  8
0
  5
1152
 10
75.7708
 20
140.616
 30
0.000000
  70
    32
  0
VERTEX
  8
0
  5
1153
 10
75.7152
 20
140.706
 30
0.000000
  70
    32
  0
VERTEX
  8
0
  5
1154
 10
75.6497
 20
140.795
 30
0.000000
  70
    32
  0
VERTEX
  8
0
  5
1155
 10
75.5746
 20
140.882
 30
0.000000
  70
    32
  0
VERTEX
  8
0
  5
1156
 10
75.4900
 20
140.969
 30
0.000000
  70
    32
  0
VERTEX
  8
0
  5
1157
 10
75.3959
 20
141.053
 30
0.000000
  70
    32
  0
VERTEX
  8
0
  5
1158
 10
75.2926
 20
141.136
 30
0.000000
  70
    32
  0
VERTEX
  8
0
  5
1159
 10
75.1804
 20
141.217
 30
0.000000
  70
    32
  0
VERTEX
  8
0
  5
115A
 10
75.0593
 20
141.297
 30
0.000000
  70
    32
  0
VERTEX
  8
0
  5
115B
 10
74.9296
 20
141.374
 30
0.000000
  70
    32
  0
VERTEX
  8
0
  5
115C
 10
74.7916
 20
141.448
 30
0.000000
  70
    32
  0
VERTEX
  8
0
  5
115D
 10
74.6456
 20
141.520
 30
0.000000
  70
    32
  0
VERTEX
  8
0
  5
115E
 10
74.4918
 20
141.590
 30
0.000000
  70
    32
  0
VERTEX
  8
0
  5
115F
 10
74.3304
 20
141.657
 30
0.000000
  70
    32
  0
VERTEX
  8
0
  5
1160
 10
74.1619
 20
141.721
 30
0.000000
  70
    32
  0
VERTEX
  8
0
  5
1161
 10
73.9865
 20
141.782
 30
0.000000
  70
    32
  0
VERTEX
  8
0
  5
1162
 10
73.8046
 20
141.840
 30
0.000000
  70
    32
  0
VERTEX
  8
0
  5
1163
 10
73.6165
 20
141.894
 30
0.000000
  70
    32
  0
VERTEX
  8
0
  5
1164
 10
73.4226
 20
141.946
 30
0.000000
  70
    32
  0
VERTEX
  8
0
  5
1165
 10
73.2232
 20
141.994
 30
0.000000
  70
    32
  0
VERTEX
  8
0
  5
1166
 10
73.0188
 20
142.038
 30
0.000000
  70
    32
  0
VERTEX
  8
0
  5
1167
 10
72.8096
 20
142.079
 30
0.000000
  70
    32
  0
VERTEX
  8
0
  5
1168
 10
72.5962
 20
142.116
 30
0.000000
  70
    32
  0
VERTEX
  8
0
  5
1169
 10
72.3788
 20
142.150
 30
0.000000
  70
    32
  0
VERTEX
  8
0
  5
116A
 10
72.1580
 20
142.180
 30
0.000000
  70
    32
  0
VERTEX
  8
0
  5
116B
 10
71.9341
 20
142.206
 30
0.000000
  70
    32
  0
VERTEX
  8
0
  5
116C
 10
71.7076
 20
142.228
 30
0.000000
  70
    32
  0
VERTEX
  8
0
  5
116D
 10
71.4789
 20
142.246
 30
0.000000
  70
    32
  0
VERTEX
  8
0
  5
116E
 10
71.2485
 20
142.260
 30
0.000000
  70
    32
  0
VERTEX
  8
0
  5
116F
 10
71.0167
 20
142.270
 30
0.000000
  70
    32
  0
VERTEX
  8
0
  5
1170
 10
70.7840
 20
142.276
 30
0.000000
  70
    32
  0
VERTEX
  8
0
  5
1171
 10
70.5509
 20
142.278
 30
0.000000
  70
    32
  0
VERTEX
  8
0
  5
1172
 10
70.3178
 20
142.276
 30
0.000000
  70
    32
  0
VERTEX
  8
0
  5
1173
 10
70.0851
 20
142.270
 30
0.000000
  70
    32
  0
VERTEX
  8
0
  5
1174
 10
69.8533
 20
142.260
 30
0.000000
  70
    32
  0
VERTEX
  8
0
  5
1175
 10
69.6228
 20
142.246
 30
0.000000
  70
    32
  0
VERTEX
  8
0
  5
1176
 10
69.3941
 20
142.228
 30
0.000000
  70
    32
  0
VERTEX
  8
0
  5
1177
 10
69.1676
 20
142.206
 30
0.000000
  70
    32
  0
VERTEX
  8
0
  5
1178
 10
68.9438
 20
142.180
 30
0.000000
  70
    32
  0
VERTEX
  8
0
  5
1179
 10
68.7229
 20
142.150
 30
0.000000
  70
    32
  0
VERTEX
  8
0
  5
117A
 10
68.5056
 20
142.116
 30
0.000000
  70
    32
  0
VERTEX
  8
0
  5
117B
 10
68.2922
 20
142.079
 30
0.000000
  70
    32
  0
VERTEX
  8
0
  5
117C
 10
68.0830
 20
142.038
 30
0.000000
  70
    32
  0
VERTEX
  8
0
  5
117D
 10
67.8785
 20
141.994
 30
0.000000
  70
    32
  0
VERTEX
  8
0
  5
117E
 10
67.6792
 20
141.946
 30
0.000000
  70
    32
  0
VERTEX
  8
0
  5
117F
 10
67.4852
 20
141.894
 30
0.000000
  70
    32
  0
VERTEX
  8
0
  5
1180
 10
67.2971
 20
141.840
 30
0.000000
  70
    32
  0
VERTEX
  8
0
  5
1181
 10
67.1152
 20
141.782
 30
0.000000
  70
    32
  0
VERTEX
  8
0
  5
1182
 10
66.9399
 20
141.721
 30
0.000000
  70
    32
  0
VERTEX
  8
0
  5
1183
 10
66.7713
 20
141.657
 30
0.000000
  70
    32
  0
VERTEX
  8
0
  5
1184
 10
66.6100
 20
141.590
 30
0.000000
  70
    32
  0
VERTEX
  8
0
  5
1185
 10
66.4562
 20
141.520
 30
0.000000
  70
    32
  0
VERTEX
  8
0
  5
1186
 10
66.3101
 20
141.448
 30
0.000000
  70
    32
  0
VERTEX
  8
0
  5
1187
 10
66.1722
 20
141.374
 30
0.000000
  70
    32
  0
VERTEX
  8
0
  5
1188
 10
66.0425
 20
141.297
 30
0.000000
  70
    32
  0
VERTEX
  8
0
  5
1189
 10
65.9214
 20
141.217
 30
0.000000
  70
    32
  0
VERTEX
  8
0
  5
118A
 10
65.8091
 20
141.136
 30
0.000000
  70
    32
  0
VERTEX
  8
0
  5
118B
 10
65.7059
 20
141.053
 30
0.000000
  70
    32
  0
VERTEX
  8
0
  5
118C
 10
65.6118
 20
140.969
 30
0.000000
  70
    32
  0
VERTEX
  8
0
  5
118D
 10
65.5271
 20
140.882
 30
0.000000
  70
    32
  0
VERTEX
  8
0
  5
118E
 10
65.4520
 20
140.795
 30
0.000000
  70
    32
  0
VERTEX
  8
0
  5
118F
 10
65.3866
 20
140.706
 30
0.000000
  70
    32
  0
VERTEX
  8
0
  5
1190
 10
65.3310
 20
140.616
 30
0.000000
  70
    32
  0
VERTEX
  8
0
  5
1191
 10
65.2853
 20
140.525
 30
0.000000
  70
    32
  0
VERTEX
  8
0
  5
1192
 10
65.2497
 20
140.434
 30
0.000000
  70
    32
  0
VERTEX
  8
0
  5
1193
 10
65.2241
 20
140.342
 30
0.000000
  70
    32
  0
VERTEX
  8
0
  5
1194
 10
65.2086
 20
140.249
 30
0.000000
  70
    32
  0
VERTEX
  8
0
  5
1195
 10
65.2033
 20
140.157
 30
0.000000
  70
    32
  0
VERTEX
  8
0
  5
1196
 10
65.2082
 20
140.064
 30
0.000000
  70
    32
  0
VERTEX
  8
0
  5
1197
 10
65.2232
 20
139.972
 30
0.000000
  70
    32
  0
VERTEX
  8
0
  5
1198
 10
65.2484
 20
139.880
 30
0.000000
  70
    32
  0
VERTEX
  8
0
  5
1199
 10
65.2836
 20
139.788
 30
0.000000
  70
    32
  0
VERTEX
  8
0
  5
119A
 10
65.3289
 20
139.698
 30
0.000000
  70
    32
  0
VERTEX
  8
0
  5
119B
 10
65.3840
 20
139.608
 30
0.000000
  70
    32
  0
VERTEX
  8
0
  5
119C
 10
65.4490
 20
139.519
 30
0.000000
  70
    32
  0
VERTEX
  8
0
  5
119D
 10
65.5237
 20
139.431
 30
0.000000
  70
    32
  0
VERTEX
  8
0
  5
119E
 10
65.6080
 20
139.345
 30
0.000000
  70
    32
  0
VERTEX
  8
0
  5
119F
 10
65.7017
 20
139.260
 30
0.000000
  70
    32
  0
VERTEX
  8
0
  5
11A0
 10
65.8046
 20
139.177
 30
0.000000
  70
    32
  0
VERTEX
  8
0
  5
11A1
 10
65.9165
 20
139.096
 30
0.000000
  70
    32
  0
VERTEX
  8
0
  5
11A2
 10
66.0372
 20
139.016
 30
0.000000
  70
    32
  0
VERTEX
  8
0
  5
11A3
 10
66.1665
 20
138.939
 30
0.000000
  70
    32
  0
VERTEX
  8
0
  5
11A4
 10
66.3041
 20
138.865
 30
0.000000
  70
    32
  0
VERTEX
  8
0
  5
11A5
 10
66.4498
 20
138.792
 30
0.000000
  70
    32
  0
VERTEX
  8
0
  5
11A6
 10
66.6033
 20
138.723
 30
0.000000
  70
    32
  0
VERTEX
  8
0
  5
11A7
 10
66.7643
 20
138.656
 30
0.000000
  70
    32
  0
VERTEX
  8
0
  5
11A8
 10
66.9325
 20
138.592
 30
0.000000
  70
    32
  0
VERTEX
  8
0
  5
11A9
 10
67.1076
 20
138.531
 30
0.000000
  70
    32
  0
VERTEX
  8
0
  5
11AA
 10
67.2893
 20
138.473
 30
0.000000
  70
    32
  0
VERTEX
  8
0
  5
11AB
 10
67.4771
 20
138.418
 30
0.000000
  70
    32
  0
VERTEX
  8
0
  5
11AC
 10
67.6708
 20
138.366
 30
0.000000
  70
    32
  0
VERTEX
  8
0
  5
11AD
 10
67.8699
 20
138.318
 30
0.000000
  70
    32
  0
VERTEX
  8
0
  5
11AE
 10
68.0742
 20
138.273
 30
0.000000
  70
    32
  0
VERTEX
  8
0
  5
11AF
 10
68.2832
 20
138.232
 30
0.000000
  70
    32
  0
VERTEX
  8
0
  5
11B0
 10
68.4964
 20
138.195
 30
0.000000
  70
    32
  0
VERTEX
  8
0
  5
11B1
 10
68.7136
 20
138.161
 30
0.000000
  70
    32
  0
SEQEND
  8
0
  5
11B2
  0
POLYLINE
  5
ED2
  8
0
 10
76.754327030527108
 20
137.01336026625572
 30
0.0
 66
     1
 70
     8
  0
VERTEX
  8
0
  5
11B3
 10
76.7543
 20
137.013
 30
0.000000
  70
    32
  0
VERTEX
  8
0
  5
11B4
 10
77.0228
 20
137.108
 30
0.000000
  70
    32
  0
VERTEX
  8
0
  5
11B5
 10
77.2820
 20
137.207
 30
0.000000
  70
    32
  0
VERTEX
  8
0
  5
11B6
 10
77.5315
 20
137.309
 30
0.000000
  70
    32
  0
VERTEX
  8
0
  5
11B7
 10
77.7709
 20
137.416
 30
0.000000
  70
    32
  0
VERTEX
  8
0
  5
11B8
 10
77.9999
 20
137.525
 30
0.000000
  70
    32
  0
VERTEX
  8
0
  5
11B9
 10
78.2182
 20
137.638
 30
0.000000
  70
    32
  0
VERTEX
  8
0
  5
11BA
 10
78.4254
 20
137.755
 30
0.000000
  70
    32
  0
VERTEX
  8
0
  5
11BB
 10
78.6213
 20
137.874
 30
0.000000
  70
    32
  0
VERTEX
  8
0
  5
11BC
 10
78.8055
 20
137.996
 30
0.000000
  70
    32
  0
VERTEX
  8
0
  5
11BD
 10
78.9779
 20
138.121
 30
0.000000
  70
    32
  0
VERTEX
  8
0
  5
11BE
 10
79.1381
 20
138.248
 30
0.000000
  70
    32
  0
VERTEX
  8
0
  5
11BF
 10
79.2859
 20
138.377
 30
0.000000
  70
    32
  0
VERTEX
  8
0
  5
11C0
 10
79.4212
 20
138.509
 30
0.000000
  70
    32
  0
VERTEX
  8
0
  5
11C1
 10
79.5436
 20
138.643
 30
0.000000
  70
    32
  0
VERTEX
  8
0
  5
11C2
 10
79.6531
 20
138.778
 30
0.000000
  70
    32
  0
VERTEX
  8
0
  5
11C3
 10
79.7495
 20
138.915
 30
0.000000
  70
    32
  0
VERTEX
  8
0
  5
11C4
 10
79.8326
 20
139.053
 30
0.000000
  70
    32
  0
VERTEX
  8
0
  5
11C5
 10
79.9023
 20
139.192
 30
0.000000
  70
    32
  0
VERTEX
  8
0
  5
11C6
 10
79.9586
 20
139.333
 30
0.000000
  70
    32
  0
VERTEX
  8
0
  5
11C7
 10
80.0013
 20
139.474
 30
0.000000
  70
    32
  0
VERTEX
  8
0
  5
11C8
 10
80.0304
 20
139.615
 30
0.000000
  70
    32
  0
VERTEX
  8
0
  5
11C9
 10
80.0458
 20
139.757
 30
0.000000
  70
    32
  0
VERTEX
  8
0
  5
11CA
 10
80.0475
 20
139.899
 30
0.000000
  70
    32
  0
VERTEX
  8
0
  5
11CB
 10
80.0356
 20
140.041
 30
0.000000
  70
    32
  0
VERTEX
  8
0
  5
11CC
 10
80.0099
 20
140.183
 30
0.000000
  70
    32
  0
VERTEX
  8
0
  5
11CD
 10
79.9707
 20
140.324
 30
0.000000
  70
    32
  0
VERTEX
  8
0
  5
11CE
 10
79.9178
 20
140.464
 30
0.000000
  70
    32
  0
VERTEX
  8
0
  5
11CF
 10
79.8515
 20
140.604
 30
0.000000
  70
    32
  0
VERTEX
  8
0
  5
11D0
 10
79.7718
 20
140.742
 30
0.000000
  70
    32
  0
VERTEX
  8
0
  5
11D1
 10
79.6787
 20
140.880
 30
0.000000
  70
    32
  0
VERTEX
  8
0
  5
11D2
 10
79.5726
 20
141.015
 30
0.000000
  70
    32
  0
VERTEX
  8
0
  5
11D3
 10
79.4534
 20
141.149
 30
0.000000
  70
    32
  0
VERTEX
  8
0
  5
11D4
 10
79.3213
 20
141.282
 30
0.000000
  70
    32
  0
VERTEX
  8
0
  5
11D5
 10
79.1767
 20
141.412
 30
0.000000
  70
    32
  0
VERTEX
  8
0
  5
11D6
 10
79.0196
 20
141.539
 30
0.000000
  70
    32
  0
VERTEX
  8
0
  5
11D7
 10
78.8503
 20
141.665
 30
0.000000
  70
    32
  0
VERTEX
  8
0
  5
11D8
 10
78.6690
 20
141.788
 30
0.000000
  70
    32
  0
VERTEX
  8
0
  5
11D9
 10
78.4761
 20
141.908
 30
0.000000
  70
    32
  0
VERTEX
  8
0
  5
11DA
 10
78.2717
 20
142.025
 30
0.000000
  70
    32
  0
VERTEX
  8
0
  5
11DB
 10
78.0562
 20
142.138
 30
0.000000
  70
    32
  0
VERTEX
  8
0
  5
11DC
 10
77.8299
 20
142.249
 30
0.000000
  70
    32
  0
VERTEX
  8
0
  5
11DD
 10
77.5931
 20
142.356
 30
0.000000
  70
    32
  0
VERTEX
  8
0
  5
11DE
 10
77.3461
 20
142.460
 30
0.000000
  70
    32
  0
VERTEX
  8
0
  5
11DF
 10
77.0893
 20
142.559
 30
0.000000
  70
    32
  0
VERTEX
  8
0
  5
11E0
 10
76.8231
 20
142.655
 30
0.000000
  70
    32
  0
VERTEX
  8
0
  5
11E1
 10
76.5479
 20
142.747
 30
0.000000
  70
    32
  0
VERTEX
  8
0
  5
11E2
 10
76.2641
 20
142.834
 30
0.000000
  70
    32
  0
VERTEX
  8
0
  5
11E3
 10
75.9720
 20
142.918
 30
0.000000
  70
    32
  0
VERTEX
  8
0
  5
11E4
 10
75.6720
 20
142.996
 30
0.000000
  70
    32
  0
VERTEX
  8
0
  5
11E5
 10
75.3647
 20
143.071
 30
0.000000
  70
    32
  0
VERTEX
  8
0
  5
11E6
 10
75.0505
 20
143.140
 30
0.000000
  70
    32
  0
VERTEX
  8
0
  5
11E7
 10
74.7298
 20
143.205
 30
0.000000
  70
    32
  0
VERTEX
  8
0
  5
11E8
 10
74.4031
 20
143.265
 30
0.000000
  70
    32
  0
VERTEX
  8
0
  5
11E9
 10
74.0708
 20
143.320
 30
0.000000
  70
    32
  0
VERTEX
  8
0
  5
11EA
 10
73.7334
 20
143.371
 30
0.000000
  70
    32
  0
VERTEX
  8
0
  5
11EB
 10
73.3914
 20
143.416
 30
0.000000
  70
    32
  0
VERTEX
  8
0
  5
11EC
 10
73.0454
 20
143.456
 30
0.000000
  70
    32
  0
VERTEX
  8
0
  5
11ED
 10
72.6958
 20
143.490
 30
0.000000
  70
    32
  0
VERTEX
  8
0
  5
11EE
 10
72.3430
 20
143.520
 30
0.000000
  70
    32
  0
VERTEX
  8
0
  5
11EF
 10
71.9877
 20
143.544
 30
0.000000
  70
    32
  0
VERTEX
  8
0
  5
11F0
 10
71.6303
 20
143.563
 30
0.000000
  70
    32
  0
VERTEX
  8
0
  5
11F1
 10
71.2714
 20
143.576
 30
0.000000
  70
    32
  0
VERTEX
  8
0
  5
11F2
 10
70.9114
 20
143.584
 30
0.000000
  70
    32
  0
VERTEX
  8
0
  5
11F3
 10
70.5509
 20
143.587
 30
0.000000
  70
    32
  0
VERTEX
  8
0
  5
11F4
 10
70.1904
 20
143.584
 30
0.000000
  70
    32
  0
VERTEX
  8
0
  5
11F5
 10
69.8304
 20
143.576
 30
0.000000
  70
    32
  0
VERTEX
  8
0
  5
11F6
 10
69.4715
 20
143.563
 30
0.000000
  70
    32
  0
VERTEX
  8
0
  5
11F7
 10
69.1141
 20
143.544
 30
0.000000
  70
    32
  0
VERTEX
  8
0
  5
11F8
 10
68.7588
 20
143.520
 30
0.000000
  70
    32
  0
VERTEX
  8
0
  5
11F9
 10
68.4060
 20
143.490
 30
0.000000
  70
    32
  0
VERTEX
  8
0
  5
11FA
 10
68.0564
 20
143.456
 30
0.000000
  70
    32
  0
VERTEX
  8
0
  5
11FB
 10
67.7103
 20
143.416
 30
0.000000
  70
    32
  0
VERTEX
  8
0
  5
11FC
 10
67.3684
 20
143.371
 30
0.000000
  70
    32
  0
VERTEX
  8
0
  5
11FD
 10
67.0310
 20
143.320
 30
0.000000
  70
    32
  0
VERTEX
  8
0
  5
11FE
 10
66.6987
 20
143.265
 30
0.000000
  70
    32
  0
VERTEX
  8
0
  5
11FF
 10
66.3720
 20
143.205
 30
0.000000
  70
    32
  0
VERTEX
  8
0
  5
1200
 10
66.0513
 20
143.140
 30
0.000000
  70
    32
  0
VERTEX
  8
0
  5
1201
 10
65.7370
 20
143.071
 30
0.000000
  70
    32
  0
VERTEX
  8
0
  5
1202
 10
65.4297
 20
142.996
 30
0.000000
  70
    32
  0
VERTEX
  8
0
  5
1203
 10
65.1298
 20
142.918
 30
0.000000
  70
    32
  0
VERTEX
  8
0
  5
1204
 10
64.8377
 20
142.834
 30
0.000000
  70
    32
  0
VERTEX
  8
0
  5
1205
 10
64.5539
 20
142.747
 30
0.000000
  70
    32
  0
VERTEX
  8
0
  5
1206
 10
64.2786
 20
142.655
 30
0.000000
  70
    32
  0
VERTEX
  8
0
  5
1207
 10
64.0124
 20
142.559
 30
0.000000
  70
    32
  0
VERTEX
  8
0
  5
1208
 10
63.7557
 20
142.460
 30
0.000000
  70
    32
  0
VERTEX
  8
0
  5
1209
 10
63.5087
 20
142.356
 30
0.000000
  70
    32
  0
VERTEX
  8
0
  5
120A
 10
63.2719
 20
142.249
 30
0.000000
  70
    32
  0
VERTEX
  8
0
  5
120B
 10
63.0456
 20
142.138
 30
0.000000
  70
    32
  0
VERTEX
  8
0
  5
120C
 10
62.8301
 20
142.025
 30
0.000000
  70
    32
  0
VERTEX
  8
0
  5
120D
 10
62.6257
 20
141.908
 30
0.000000
  70
    32
  0
VERTEX
  8
0
  5
120E
 10
62.4327
 20
141.788
 30
0.000000
  70
    32
  0
VERTEX
  8
0
  5
120F
 10
62.2515
 20
141.665
 30
0.000000
  70
    32
  0
VERTEX
  8
0
  5
1210
 10
62.0822
 20
141.539
 30
0.000000
  70
    32
  0
VERTEX
  8
0
  5
1211
 10
61.9251
 20
141.412
 30
0.000000
  70
    32
  0
VERTEX
  8
0
  5
1212
 10
61.7804
 20
141.282
 30
0.000000
  70
    32
  0
VERTEX
  8
0
  5
1213
 10
61.6484
 20
141.149
 30
0.000000
  70
    32
  0
VERTEX
  8
0
  5
1214
 10
61.5292
 20
141.015
 30
0.000000
  70
    32
  0
VERTEX
  8
0
  5
1215
 10
61.4230
 20
140.880
 30
0.000000
  70
    32
  0
VERTEX
  8
0
  5
1216
 10
61.3300
 20
140.742
 30
0.000000
  70
    32
  0
VERTEX
  8
0
  5
1217
 10
61.2503
 20
140.604
 30
0.000000
  70
    32
  0
VERTEX
  8
0
  5
1218
 10
61.1839
 20
140.464
 30
0.000000
  70
    32
  0
VERTEX
  8
0
  5
1219
 10
61.1311
 20
140.324
 30
0.000000
  70
    32
  0
VERTEX
  8
0
  5
121A
 10
61.0918
 20
140.183
 30
0.000000
  70
    32
  0
VERTEX
  8
0
  5
121B
 10
61.0662
 20
140.041
 30
0.000000
  70
    32
  0
VERTEX
  8
0
  5
121C
 10
61.0543
 20
139.899
 30
0.000000
  70
    32
  0
VERTEX
  8
0
  5
121D
 10
61.0560
 20
139.757
 30
0.000000
  70
    32
  0
VERTEX
  8
0
  5
121E
 10
61.0714
 20
139.615
 30
0.000000
  70
    32
  0
VERTEX
  8
0
  5
121F
 10
61.1005
 20
139.474
 30
0.000000
  70
    32
  0
VERTEX
  8
0
  5
1220
 10
61.1432
 20
139.333
 30
0.000000
  70
    32
  0
VERTEX
  8
0
  5
1221
 10
61.1995
 20
139.192
 30
0.000000
  70
    32
  0
VERTEX
  8
0
  5
1222
 10
61.2692
 20
139.053
 30
0.000000
  70
    32
  0
VERTEX
  8
0
  5
1223
 10
61.3523
 20
138.915
 30
0.000000
  70
    32
  0
VERTEX
  8
0
  5
1224
 10
61.4487
 20
138.778
 30
0.000000
  70
    32
  0
VERTEX
  8
0
  5
1225
 10
61.5582
 20
138.643
 30
0.000000
  70
    32
  0
VERTEX
  8
0
  5
1226
 10
61.6806
 20
138.509
 30
0.000000
  70
    32
  0
VERTEX
  8
0
  5
1227
 10
61.8159
 20
138.377
 30
0.000000
  70
    32
  0
VERTEX
  8
0
  5
1228
 10
61.9637
 20
138.248
 30
0.000000
  70
    32
  0
VERTEX
  8
0
  5
1229
 10
62.1239
 20
138.121
 30
0.000000
  70
    32
  0
VERTEX
  8
0
  5
122A
 10
62.2962
 20
137.996
 30
0.000000
  70
    32
  0
VERTEX
  8
0
  5
122B
 10
62.4805
 20
137.874
 30
0.000000
  70
    32
  0
VERTEX
  8
0
  5
122C
 10
62.6763
 20
137.755
 30
0.000000
  70
    32
  0
VERTEX
  8
0
  5
122D
 10
62.8836
 20
137.638
 30
0.000000
  70
    32
  0
VERTEX
  8
0
  5
122E
 10
63.1019
 20
137.525
 30
0.000000
  70
    32
  0
VERTEX
  8
0
  5
122F
 10
63.3309
 20
137.416
 30
0.000000
  70
    32
  0
VERTEX
  8
0
  5
1230
 10
63.5703
 20
137.309
 30
0.000000
  70
    32
  0
VERTEX
  8
0
  5
1231
 10
63.8198
 20
137.207
 30
0.000000
  70
    32
  0
VERTEX
  8
0
  5
1232
 10
64.0789
 20
137.108
 30
0.000000
  70
    32
  0
VERTEX
  8
0
  5
1233
 10
64.3474
 20
137.013
 30
0.000000
  70
    32
  0
SEQEND
  8
0
  5
1234
  0
POLYLINE
  5
ED3
  8
0
 10
76.110487625273137
 20
148.86815995994957
 30
0.0
 66
     1
 70
     8
  0
VERTEX
  8
0
  5
1235
 10
76.1105
 20
148.868
 30
0.000000
  70
    32
  0
VERTEX
  8
0
  5
1236
 10
76.0871
 20
148.846
 30
0.000000
  70
    32
  0
VERTEX
  8
0
  5
1237
 10
76.0639
 20
148.824
 30
0.000000
  70
    32
  0
VERTEX
  8
0
  5
1238
 10
76.0409
 20
148.801
 30
0.000000
  70
    32
  0
VERTEX
  8
0
  5
1239
 10
76.0182
 20
148.778
 30
0.000000
  70
    32
  0
VERTEX
  8
0
  5
123A
 10
75.9957
 20
148.754
 30
0.000000
  70
    32
  0
VERTEX
  8
0
  5
123B
 10
75.9734
 20
148.730
 30
0.000000
  70
    32
  0
VERTEX
  8
0
  5
123C
 10
75.9513
 20
148.706
 30
0.000000
  70
    32
  0
VERTEX
  8
0
  5
123D
 10
75.9295
 20
148.681
 30
0.000000
  70
    32
  0
VERTEX
  8
0
  5
123E
 10
75.9079
 20
148.656
 30
0.000000
  70
    32
  0
VERTEX
  8
0
  5
123F
 10
75.8866
 20
148.631
 30
0.000000
  70
    32
  0
VERTEX
  8
0
  5
1240
 10
75.8655
 20
148.606
 30
0.000000
  70
    32
  0
VERTEX
  8
0
  5
1241
 10
75.8447
 20
148.580
 30
0.000000
  70
    32
  0
VERTEX
  8
0
  5
1242
 10
75.8241
 20
148.553
 30
0.000000
  70
    32
  0
VERTEX
  8
0
  5
1243
 10
75.8038
 20
148.527
 30
0.000000
  70
    32
  0
VERTEX
  8
0
  5
1244
 10
75.7837
 20
148.500
 30
0.000000
  70
    32
  0
VERTEX
  8
0
  5
1245
 10
75.7639
 20
148.473
 30
0.000000
  70
    32
  0
VERTEX
  8
0
  5
1246
 10
75.7443
 20
148.445
 30
0.000000
  70
    32
  0
VERTEX
  8
0
  5
1247
 10
75.7250
 20
148.417
 30
0.000000
  70
    32
  0
VERTEX
  8
0
  5
1248
 10
75.7060
 20
148.389
 30
0.000000
  70
    32
  0
VERTEX
  8
0
  5
1249
 10
75.6873
 20
148.360
 30
0.000000
  70
    32
  0
VERTEX
  8
0
  5
124A
 10
75.6688
 20
148.332
 30
0.000000
  70
    32
  0
VERTEX
  8
0
  5
124B
 10
75.6507
 20
148.303
 30
0.000000
  70
    32
  0
VERTEX
  8
0
  5
124C
 10
75.6328
 20
148.273
 30
0.000000
  70
    32
  0
VERTEX
  8
0
  5
124D
 10
75.6152
 20
148.244
 30
0.000000
  70
    32
  0
VERTEX
  8
0
  5
124E
 10
75.5978
 20
148.214
 30
0.000000
  70
    32
  0
VERTEX
  8
0
  5
124F
 10
75.5808
 20
148.184
 30
0.000000
  70
    32
  0
VERTEX
  8
0
  5
1250
 10
75.5641
 20
148.153
 30
0.000000
  70
    32
  0
VERTEX
  8
0
  5
1251
 10
75.5476
 20
148.122
 30
0.000000
  70
    32
  0
VERTEX
  8
0
  5
1252
 10
75.5315
 20
148.091
 30
0.000000
  70
    32
  0
VERTEX
  8
0
  5
1253
 10
75.5156
 20
148.060
 30
0.000000
  70
    32
  0
VERTEX
  8
0
  5
1254
 10
75.5001
 20
148.029
 30
0.000000
  70
    32
  0
VERTEX
  8
0
  5
1255
 10
75.4849
 20
147.997
 30
0.000000
  70
    32
  0
VERTEX
  8
0
  5
1256
 10
75.4699
 20
147.965
 30
0.000000
  70
    32
  0
VERTEX
  8
0
  5
1257
 10
75.4553
 20
147.933
 30
0.000000
  70
    32
  0
VERTEX
  8
0
  5
1258
 10
75.4410
 20
147.900
 30
0.000000
  70
    32
  0
VERTEX
  8
0
  5
1259
 10
75.4270
 20
147.868
 30
0.000000
  70
    32
  0
VERTEX
  8
0
  5
125A
 10
75.4134
 20
147.835
 30
0.000000
  70
    32
  0
VERTEX
  8
0
  5
125B
 10
75.4000
 20
147.802
 30
0.000000
  70
    32
  0
VERTEX
  8
0
  5
125C
 10
75.3870
 20
147.768
 30
0.000000
  70
    32
  0
VERTEX
  8
0
  5
125D
 10
75.3743
 20
147.735
 30
0.000000
  70
    32
  0
VERTEX
  8
0
  5
125E
 10
75.3619
 20
147.701
 30
0.000000
  70
    32
  0
VERTEX
  8
0
  5
125F
 10
75.3498
 20
147.667
 30
0.000000
  70
    32
  0
VERTEX
  8
0
  5
1260
 10
75.3381
 20
147.633
 30
0.000000
  70
    32
  0
VERTEX
  8
0
  5
1261
 10
75.3267
 20
147.599
 30
0.000000
  70
    32
  0
VERTEX
  8
0
  5
1262
 10
75.3156
 20
147.564
 30
0.000000
  70
    32
  0
VERTEX
  8
0
  5
1263
 10
75.3049
 20
147.530
 30
0.000000
  70
    32
  0
VERTEX
  8
0
  5
1264
 10
75.2945
 20
147.495
 30
0.000000
  70
    32
  0
VERTEX
  8
0
  5
1265
 10
75.2844
 20
147.460
 30
0.000000
  70
    32
  0
VERTEX
  8
0
  5
1266
 10
75.2747
 20
147.425
 30
0.000000
  70
    32
  0
VERTEX
  8
0
  5
1267
 10
75.2653
 20
147.389
 30
0.000000
  70
    32
  0
VERTEX
  8
0
  5
1268
 10
75.2563
 20
147.354
 30
0.000000
  70
    32
  0
VERTEX
  8
0
  5
1269
 10
75.2476
 20
147.318
 30
0.000000
  70
    32
  0
VERTEX
  8
0
  5
126A
 10
75.2393
 20
147.283
 30
0.000000
  70
    32
  0
VERTEX
  8
0
  5
126B
 10
75.2312
 20
147.247
 30
0.000000
  70
    32
  0
VERTEX
  8
0
  5
126C
 10
75.2236
 20
147.211
 30
0.000000
  70
    32
  0
VERTEX
  8
0
  5
126D
 10
75.2163
 20
147.175
 30
0.000000
  70
    32
  0
VERTEX
  8
0
  5
126E
 10
75.2093
 20
147.139
 30
0.000000
  70
    32
  0
VERTEX
  8
0
  5
126F
 10
75.2027
 20
147.102
 30
0.000000
  70
    32
  0
VERTEX
  8
0
  5
1270
 10
75.1965
 20
147.066
 30
0.000000
  70
    32
  0
VERTEX
  8
0
  5
1271
 10
75.1906
 20
147.029
 30
0.000000
  70
    32
  0
VERTEX
  8
0
  5
1272
 10
75.1850
 20
146.993
 30
0.000000
  70
    32
  0
VERTEX
  8
0
  5
1273
 10
75.1798
 20
146.956
 30
0.000000
  70
    32
  0
VERTEX
  8
0
  5
1274
 10
75.1750
 20
146.919
 30
0.000000
  70
    32
  0
VERTEX
  8
0
  5
1275
 10
75.1705
 20
146.883
 30
0.000000
  70
    32
  0
VERTEX
  8
0
  5
1276
 10
75.1663
 20
146.846
 30
0.000000
  70
    32
  0
VERTEX
  8
0
  5
1277
 10
75.1626
 20
146.809
 30
0.000000
  70
    32
  0
VERTEX
  8
0
  5
1278
 10
75.1592
 20
146.772
 30
0.000000
  70
    32
  0
VERTEX
  8
0
  5
1279
 10
75.1561
 20
146.735
 30
0.000000
  70
    32
  0
VERTEX
  8
0
  5
127A
 10
75.1534
 20
146.698
 30
0.000000
  70
    32
  0
VERTEX
  8
0
  5
127B
 10
75.1511
 20
146.660
 30
0.000000
  70
    32
  0
VERTEX
  8
0
  5
127C
 10
75.1491
 20
146.623
 30
0.000000
  70
    32
  0
VERTEX
  8
0
  5
127D
 10
75.1475
 20
146.586
 30
0.000000
  70
    32
  0
VERTEX
  8
0
  5
127E
 10
75.1462
 20
146.549
 30
0.000000
  70
    32
  0
VERTEX
  8
0
  5
127F
 10
75.1453
 20
146.511
 30
0.000000
  70
    32
  0
VERTEX
  8
0
  5
1280
 10
75.1448
 20
146.474
 30
0.000000
  70
    32
  0
VERTEX
  8
0
  5
1281
 10
75.1446
 20
146.437
 30
0.000000
  70
    32
  0
VERTEX
  8
0
  5
1282
 10
75.1448
 20
146.400
 30
0.000000
  70
    32
  0
VERTEX
  8
0
  5
1283
 10
75.1453
 20
146.362
 30
0.000000
  70
    32
  0
VERTEX
  8
0
  5
1284
 10
75.1462
 20
146.325
 30
0.000000
  70
    32
  0
VERTEX
  8
0
  5
1285
 10
75.1475
 20
146.288
 30
0.000000
  70
    32
  0
VERTEX
  8
0
  5
1286
 10
75.1491
 20
146.251
 30
0.000000
  70
    32
  0
VERTEX
  8
0
  5
1287
 10
75.1511
 20
146.213
 30
0.000000
  70
    32
  0
VERTEX
  8
0
  5
1288
 10
75.1534
 20
146.176
 30
0.000000
  70
    32
  0
VERTEX
  8
0
  5
1289
 10
75.1561
 20
146.139
 30
0.000000
  70
    32
  0
VERTEX
  8
0
  5
128A
 10
75.1592
 20
146.102
 30
0.000000
  70
    32
  0
VERTEX
  8
0
  5
128B
 10
75.1626
 20
146.065
 30
0.000000
  70
    32
  0
VERTEX
  8
0
  5
128C
 10
75.1664
 20
146.028
 30
0.000000
  70
    32
  0
VERTEX
  8
0
  5
128D
 10
75.1705
 20
145.991
 30
0.000000
  70
    32
  0
VERTEX
  8
0
  5
128E
 10
75.1750
 20
145.954
 30
0.000000
  70
    32
  0
VERTEX
  8
0
  5
128F
 10
75.1798
 20
145.918
 30
0.000000
  70
    32
  0
VERTEX
  8
0
  5
1290
 10
75.1850
 20
145.881
 30
0.000000
  70
    32
  0
VERTEX
  8
0
  5
1291
 10
75.1906
 20
145.844
 30
0.000000
  70
    32
  0
VERTEX
  8
0
  5
1292
 10
75.1965
 20
145.808
 30
0.000000
  70
    32
  0
VERTEX
  8
0
  5
1293
 10
75.2027
 20
145.771
 30
0.000000
  70
    32
  0
VERTEX
  8
0
  5
1294
 10
75.2093
 20
145.735
 30
0.000000
  70
    32
  0
VERTEX
  8
0
  5
1295
 10
75.2163
 20
145.699
 30
0.000000
  70
    32
  0
VERTEX
  8
0
  5
1296
 10
75.2236
 20
145.663
 30
0.000000
  70
    32
  0
VERTEX
  8
0
  5
1297
 10
75.2313
 20
145.627
 30
0.000000
  70
    32
  0
VERTEX
  8
0
  5
1298
 10
75.2393
 20
145.591
 30
0.000000
  70
    32
  0
VERTEX
  8
0
  5
1299
 10
75.2476
 20
145.555
 30
0.000000
  70
    32
  0
VERTEX
  8
0
  5
129A
 10
75.2563
 20
145.520
 30
0.000000
  70
    32
  0
VERTEX
  8
0
  5
129B
 10
75.2654
 20
145.484
 30
0.000000
  70
    32
  0
VERTEX
  8
0
  5
129C
 10
75.2747
 20
145.449
 30
0.000000
  70
    32
  0
VERTEX
  8
0
  5
129D
 10
75.2845
 20
145.414
 30
0.000000
  70
    32
  0
VERTEX
  8
0
  5
129E
 10
75.2945
 20
145.379
 30
0.000000
  70
    32
  0
VERTEX
  8
0
  5
129F
 10
75.3049
 20
145.344
 30
0.000000
  70
    32
  0
VERTEX
  8
0
  5
12A0
 10
75.3156
 20
145.309
 30
0.000000
  70
    32
  0
VERTEX
  8
0
  5
12A1
 10
75.3267
 20
145.275
 30
0.000000
  70
    32
  0
VERTEX
  8
0
  5
12A2
 10
75.3381
 20
145.241
 30
0.000000
  70
    32
  0
VERTEX
  8
0
  5
12A3
 10
75.3498
 20
145.207
 30
0.000000
  70
    32
  0
VERTEX
  8
0
  5
12A4
 10
75.3619
 20
145.173
 30
0.000000
  70
    32
  0
VERTEX
  8
0
  5
12A5
 10
75.3743
 20
145.139
 30
0.000000
  70
    32
  0
VERTEX
  8
0
  5
12A6
 10
75.3870
 20
145.105
 30
0.000000
  70
    32
  0
VERTEX
  8
0
  5
12A7
 10
75.4000
 20
145.072
 30
0.000000
  70
    32
  0
VERTEX
  8
0
  5
12A8
 10
75.4134
 20
145.039
 30
0.000000
  70
    32
  0
VERTEX
  8
0
  5
12A9
 10
75.4271
 20
145.006
 30
0.000000
  70
    32
  0
VERTEX
  8
0
  5
12AA
 10
75.4410
 20
144.974
 30
0.000000
  70
    32
  0
VERTEX
  8
0
  5
12AB
 10
75.4554
 20
144.941
 30
0.000000
  70
    32
  0
VERTEX
  8
0
  5
12AC
 10
75.4700
 20
144.909
 30
0.000000
  70
    32
  0
VERTEX
  8
0
  5
12AD
 10
75.4849
 20
144.877
 30
0.000000
  70
    32
  0
VERTEX
  8
0
  5
12AE
 10
75.5001
 20
144.845
 30
0.000000
  70
    32
  0
VERTEX
  8
0
  5
12AF
 10
75.5157
 20
144.814
 30
0.000000
  70
    32
  0
VERTEX
  8
0
  5
12B0
 10
75.5315
 20
144.782
 30
0.000000
  70
    32
  0
VERTEX
  8
0
  5
12B1
 10
75.5477
 20
144.751
 30
0.000000
  70
    32
  0
VERTEX
  8
0
  5
12B2
 10
75.5641
 20
144.721
 30
0.000000
  70
    32
  0
VERTEX
  8
0
  5
12B3
 10
75.5808
 20
144.690
 30
0.000000
  70
    32
  0
VERTEX
  8
0
  5
12B4
 10
75.5979
 20
144.660
 30
0.000000
  70
    32
  0
VERTEX
  8
0
  5
12B5
 10
75.6152
 20
144.630
 30
0.000000
  70
    32
  0
SEQEND
  8
0
  5
12B6
  0
ARC
  5
ED4
  8
0
 10
75.586182723711175
 20
149.47239862984591
 30
0.0
 40
0.8
 50
310.9485553384975
 51
0.7091766292514306
  0
LINE
  5
ED5
  8
0
 10
76.386182725242946
 20
149.687364405735
 30
0.0
 11
76.386182725242946
 21
143.43299929148921
 31
0.0
  0
ARC
  5
ED6
  8
0
 10
82.699931115245136
 20
148.34589876814701
 30
0.0
 40
8.0
 50
207.6756501154475
 51
226.9090172032935
  0
LINE
  5
ED7
  8
0
 10
66.202338341038015
 20
154.7855544955905
 30
0.0
 11
74.899438633607843
 21
154.7855544955905
 31
0.0
  0
ARC
  5
ED8
  8
0
 10
74.899438633607843
 20
154.28555449559039
 30
0.0
 40
0.5
 50
12.65659409713297
 51
90.0
  0
LINE
  5
ED9
  8
0
 10
75.387289040698064
 20
154.3951080455189
 30
0.0
 11
76.386182725242946
 21
149.687364405735
 31
0.0
  0
ARC
  5
EDA
  8
0
 10
58.401845859400737
 20
148.34589876814701
 30
0.0
 40
8.0
 50
313.0909827967065
 51
332.32434988455248
  0
LINE
  5
EDB
  8
0
 10
65.714487933947808
 20
154.3951080455189
 30
0.0
 11
64.715594249402926
 21
149.687364405735
 31
0.0
  0
ARC
  5
EDC
  8
0
 10
66.202338341038015
 20
154.28555449559039
 30
0.0
 40
0.5
 50
90.0
 51
167.343405902867
  0
LINE
  5
EDD
  8
0
 10
64.715594249402926
 20
149.687364405735
 30
0.0
 11
64.715594249402926
 21
143.43299929148921
 31
0.0
  0
POLYLINE
  5
EDE
  8
0
 10
64.991289349372735
 20
148.86815995994957
 30
0.0
 66
     1
 70
     8
  0
VERTEX
  8
0
  5
12B7
 10
64.9913
 20
148.868
 30
0.000000
  70
    32
  0
VERTEX
  8
0
  5
12B8
 10
65.0147
 20
148.846
 30
0.000000
  70
    32
  0
VERTEX
  8
0
  5
12B9
 10
65.0379
 20
148.824
 30
0.000000
  70
    32
  0
VERTEX
  8
0
  5
12BA
 10
65.0608
 20
148.801
 30
0.000000
  70
    32
  0
VERTEX
  8
0
  5
12BB
 10
65.0836
 20
148.778
 30
0.000000
  70
    32
  0
VERTEX
  8
0
  5
12BC
 10
65.1061
 20
148.754
 30
0.000000
  70
    32
  0
VERTEX
  8
0
  5
12BD
 10
65.1284
 20
148.730
 30
0.000000
  70
    32
  0
VERTEX
  8
0
  5
12BE
 10
65.1504
 20
148.706
 30
0.000000
  70
    32
  0
VERTEX
  8
0
  5
12BF
 10
65.1723
 20
148.681
 30
0.000000
  70
    32
  0
VERTEX
  8
0
  5
12C0
 10
65.1938
 20
148.656
 30
0.000000
  70
    32
  0
VERTEX
  8
0
  5
12C1
 10
65.2152
 20
148.631
 30
0.000000
  70
    32
  0
VERTEX
  8
0
  5
12C2
 10
65.2363
 20
148.606
 30
0.000000
  70
    32
  0
VERTEX
  8
0
  5
12C3
 10
65.2571
 20
148.580
 30
0.000000
  70
    32
  0
VERTEX
  8
0
  5
12C4
 10
65.2777
 20
148.553
 30
0.000000
  70
    32
  0
VERTEX
  8
0
  5
12C5
 10
65.2980
 20
148.527
 30
0.000000
  70
    32
  0
VERTEX
  8
0
  5
12C6
 10
65.3181
 20
148.500
 30
0.000000
  70
    32
  0
VERTEX
  8
0
  5
12C7
 10
65.3379
 20
148.473
 30
0.000000
  70
    32
  0
VERTEX
  8
0
  5
12C8
 10
65.3575
 20
148.445
 30
0.000000
  70
    32
  0
VERTEX
  8
0
  5
12C9
 10
65.3767
 20
148.417
 30
0.000000
  70
    32
  0
VERTEX
  8
0
  5
12CA
 10
65.3957
 20
148.389
 30
0.000000
  70
    32
  0
VERTEX
  8
0
  5
12CB
 10
65.4145
 20
148.360
 30
0.000000
  70
    32
  0
VERTEX
  8
0
  5
12CC
 10
65.4329
 20
148.332
 30
0.000000
  70
    32
  0
VERTEX
  8
0
  5
12CD
 10
65.4511
 20
148.303
 30
0.000000
  70
    32
  0
VERTEX
  8
0
  5
12CE
 10
65.4690
 20
148.273
 30
0.000000
  70
    32
  0
VERTEX
  8
0
  5
12CF
 10
65.4866
 20
148.244
 30
0.000000
  70
    32
  0
VERTEX
  8
0
  5
12D0
 10
65.5039
 20
148.214
 30
0.000000
  70
    32
  0
VERTEX
  8
0
  5
12D1
 10
65.5210
 20
148.184
 30
0.000000
  70
    32
  0
VERTEX
  8
0
  5
12D2
 10
65.5377
 20
148.153
 30
0.000000
  70
    32
  0
VERTEX
  8
0
  5
12D3
 10
65.5542
 20
148.122
 30
0.000000
  70
    32
  0
VERTEX
  8
0
  5
12D4
 10
65.5703
 20
148.091
 30
0.000000
  70
    32
  0
VERTEX
  8
0
  5
12D5
 10
65.5861
 20
148.060
 30
0.000000
  70
    32
  0
VERTEX
  8
0
  5
12D6
 10
65.6017
 20
148.029
 30
0.000000
  70
    32
  0
VERTEX
  8
0
  5
12D7
 10
65.6169
 20
147.997
 30
0.000000
  70
    32
  0
VERTEX
  8
0
  5
12D8
 10
65.6318
 20
147.965
 30
0.000000
  70
    32
  0
VERTEX
  8
0
  5
12D9
 10
65.6465
 20
147.933
 30
0.000000
  70
    32
  0
VERTEX
  8
0
  5
12DA
 10
65.6608
 20
147.900
 30
0.000000
  70
    32
  0
VERTEX
  8
0
  5
12DB
 10
65.6748
 20
147.868
 30
0.000000
  70
    32
  0
VERTEX
  8
0
  5
12DC
 10
65.6884
 20
147.835
 30
0.000000
  70
    32
  0
VERTEX
  8
0
  5
12DD
 10
65.7018
 20
147.802
 30
0.000000
  70
    32
  0
VERTEX
  8
0
  5
12DE
 10
65.7148
 20
147.768
 30
0.000000
  70
    32
  0
VERTEX
  8
0
  5
12DF
 10
65.7275
 20
147.735
 30
0.000000
  70
    32
  0
VERTEX
  8
0
  5
12E0
 10
65.7399
 20
147.701
 30
0.000000
  70
    32
  0
VERTEX
  8
0
  5
12E1
 10
65.7520
 20
147.667
 30
0.000000
  70
    32
  0
VERTEX
  8
0
  5
12E2
 10
65.7637
 20
147.633
 30
0.000000
  70
    32
  0
VERTEX
  8
0
  5
12E3
 10
65.7751
 20
147.599
 30
0.000000
  70
    32
  0
VERTEX
  8
0
  5
12E4
 10
65.7862
 20
147.564
 30
0.000000
  70
    32
  0
VERTEX
  8
0
  5
12E5
 10
65.7969
 20
147.530
 30
0.000000
  70
    32
  0
VERTEX
  8
0
  5
12E6
 10
65.8073
 20
147.495
 30
0.000000
  70
    32
  0
VERTEX
  8
0
  5
12E7
 10
65.8173
 20
147.460
 30
0.000000
  70
    32
  0
VERTEX
  8
0
  5
12E8
 10
65.8271
 20
147.425
 30
0.000000
  70
    32
  0
VERTEX
  8
0
  5
12E9
 10
65.8364
 20
147.389
 30
0.000000
  70
    32
  0
VERTEX
  8
0
  5
12EA
 10
65.8455
 20
147.354
 30
0.000000
  70
    32
  0
VERTEX
  8
0
  5
12EB
 10
65.8542
 20
147.318
 30
0.000000
  70
    32
  0
VERTEX
  8
0
  5
12EC
 10
65.8625
 20
147.283
 30
0.000000
  70
    32
  0
VERTEX
  8
0
  5
12ED
 10
65.8705
 20
147.247
 30
0.000000
  70
    32
  0
VERTEX
  8
0
  5
12EE
 10
65.8782
 20
147.211
 30
0.000000
  70
    32
  0
VERTEX
  8
0
  5
12EF
 10
65.8855
 20
147.175
 30
0.000000
  70
    32
  0
VERTEX
  8
0
  5
12F0
 10
65.8925
 20
147.139
 30
0.000000
  70
    32
  0
VERTEX
  8
0
  5
12F1
 10
65.8991
 20
147.102
 30
0.000000
  70
    32
  0
VERTEX
  8
0
  5
12F2
 10
65.9053
 20
147.066
 30
0.000000
  70
    32
  0
VERTEX
  8
0
  5
12F3
 10
65.9112
 20
147.029
 30
0.000000
  70
    32
  0
VERTEX
  8
0
  5
12F4
 10
65.9168
 20
146.993
 30
0.000000
  70
    32
  0
VERTEX
  8
0
  5
12F5
 10
65.9220
 20
146.956
 30
0.000000
  70
    32
  0
VERTEX
  8
0
  5
12F6
 10
65.9268
 20
146.919
 30
0.000000
  70
    32
  0
VERTEX
  8
0
  5
12F7
 10
65.9313
 20
146.883
 30
0.000000
  70
    32
  0
VERTEX
  8
0
  5
12F8
 10
65.9354
 20
146.846
 30
0.000000
  70
    32
  0
VERTEX
  8
0
  5
12F9
 10
65.9392
 20
146.809
 30
0.000000
  70
    32
  0
VERTEX
  8
0
  5
12FA
 10
65.9426
 20
146.772
 30
0.000000
  70
    32
  0
VERTEX
  8
0
  5
12FB
 10
65.9457
 20
146.735
 30
0.000000
  70
    32
  0
VERTEX
  8
0
  5
12FC
 10
65.9484
 20
146.698
 30
0.000000
  70
    32
  0
VERTEX
  8
0
  5
12FD
 10
65.9507
 20
146.660
 30
0.000000
  70
    32
  0
VERTEX
  8
0
  5
12FE
 10
65.9527
 20
146.623
 30
0.000000
  70
    32
  0
VERTEX
  8
0
  5
12FF
 10
65.9543
 20
146.586
 30
0.000000
  70
    32
  0
VERTEX
  8
0
  5
1300
 10
65.9556
 20
146.549
 30
0.000000
  70
    32
  0
VERTEX
  8
0
  5
1301
 10
65.9565
 20
146.511
 30
0.000000
  70
    32
  0
VERTEX
  8
0
  5
1302
 10
65.9570
 20
146.474
 30
0.000000
  70
    32
  0
VERTEX
  8
0
  5
1303
 10
65.9572
 20
146.437
 30
0.000000
  70
    32
  0
VERTEX
  8
0
  5
1304
 10
65.9570
 20
146.400
 30
0.000000
  70
    32
  0
VERTEX
  8
0
  5
1305
 10
65.9565
 20
146.362
 30
0.000000
  70
    32
  0
VERTEX
  8
0
  5
1306
 10
65.9556
 20
146.325
 30
0.000000
  70
    32
  0
VERTEX
  8
0
  5
1307
 10
65.9543
 20
146.288
 30
0.000000
  70
    32
  0
VERTEX
  8
0
  5
1308
 10
65.9527
 20
146.251
 30
0.000000
  70
    32
  0
VERTEX
  8
0
  5
1309
 10
65.9507
 20
146.213
 30
0.000000
  70
    32
  0
VERTEX
  8
0
  5
130A
 10
65.9484
 20
146.176
 30
0.000000
  70
    32
  0
VERTEX
  8
0
  5
130B
 10
65.9457
 20
146.139
 30
0.000000
  70
    32
  0
VERTEX
  8
0
  5
130C
 10
65.9426
 20
146.102
 30
0.000000
  70
    32
  0
VERTEX
  8
0
  5
130D
 10
65.9392
 20
146.065
 30
0.000000
  70
    32
  0
VERTEX
  8
0
  5
130E
 10
65.9354
 20
146.028
 30
0.000000
  70
    32
  0
VERTEX
  8
0
  5
130F
 10
65.9313
 20
145.991
 30
0.000000
  70
    32
  0
VERTEX
  8
0
  5
1310
 10
65.9268
 20
145.954
 30
0.000000
  70
    32
  0
VERTEX
  8
0
  5
1311
 10
65.9220
 20
145.918
 30
0.000000
  70
    32
  0
VERTEX
  8
0
  5
1312
 10
65.9168
 20
145.881
 30
0.000000
  70
    32
  0
VERTEX
  8
0
  5
1313
 10
65.9112
 20
145.844
 30
0.000000
  70
    32
  0
VERTEX
  8
0
  5
1314
 10
65.9053
 20
145.808
 30
0.000000
  70
    32
  0
VERTEX
  8
0
  5
1315
 10
65.8990
 20
145.771
 30
0.000000
  70
    32
  0
VERTEX
  8
0
  5
1316
 10
65.8924
 20
145.735
 30
0.000000
  70
    32
  0
VERTEX
  8
0
  5
1317
 10
65.8855
 20
145.699
 30
0.000000
  70
    32
  0
VERTEX
  8
0
  5
1318
 10
65.8782
 20
145.663
 30
0.000000
  70
    32
  0
VERTEX
  8
0
  5
1319
 10
65.8705
 20
145.627
 30
0.000000
  70
    32
  0
VERTEX
  8
0
  5
131A
 10
65.8625
 20
145.591
 30
0.000000
  70
    32
  0
VERTEX
  8
0
  5
131B
 10
65.8542
 20
145.555
 30
0.000000
  70
    32
  0
VERTEX
  8
0
  5
131C
 10
65.8455
 20
145.520
 30
0.000000
  70
    32
  0
VERTEX
  8
0
  5
131D
 10
65.8364
 20
145.484
 30
0.000000
  70
    32
  0
VERTEX
  8
0
  5
131E
 10
65.8270
 20
145.449
 30
0.000000
  70
    32
  0
VERTEX
  8
0
  5
131F
 10
65.8173
 20
145.414
 30
0.000000
  70
    32
  0
VERTEX
  8
0
  5
1320
 10
65.8073
 20
145.379
 30
0.000000
  70
    32
  0
VERTEX
  8
0
  5
1321
 10
65.7969
 20
145.344
 30
0.000000
  70
    32
  0
VERTEX
  8
0
  5
1322
 10
65.7861
 20
145.309
 30
0.000000
  70
    32
  0
VERTEX
  8
0
  5
1323
 10
65.7751
 20
145.275
 30
0.000000
  70
    32
  0
VERTEX
  8
0
  5
1324
 10
65.7637
 20
145.241
 30
0.000000
  70
    32
  0
VERTEX
  8
0
  5
1325
 10
65.7519
 20
145.207
 30
0.000000
  70
    32
  0
VERTEX
  8
0
  5
1326
 10
65.7399
 20
145.173
 30
0.000000
  70
    32
  0
VERTEX
  8
0
  5
1327
 10
65.7275
 20
145.139
 30
0.000000
  70
    32
  0
VERTEX
  8
0
  5
1328
 10
65.7148
 20
145.105
 30
0.000000
  70
    32
  0
VERTEX
  8
0
  5
1329
 10
65.7017
 20
145.072
 30
0.000000
  70
    32
  0
VERTEX
  8
0
  5
132A
 10
65.6884
 20
145.039
 30
0.000000
  70
    32
  0
VERTEX
  8
0
  5
132B
 10
65.6747
 20
145.006
 30
0.000000
  70
    32
  0
VERTEX
  8
0
  5
132C
 10
65.6607
 20
144.974
 30
0.000000
  70
    32
  0
VERTEX
  8
0
  5
132D
 10
65.6464
 20
144.941
 30
0.000000
  70
    32
  0
VERTEX
  8
0
  5
132E
 10
65.6318
 20
144.909
 30
0.000000
  70
    32
  0
VERTEX
  8
0
  5
132F
 10
65.6169
 20
144.877
 30
0.000000
  70
    32
  0
VERTEX
  8
0
  5
1330
 10
65.6016
 20
144.845
 30
0.000000
  70
    32
  0
VERTEX
  8
0
  5
1331
 10
65.5861
 20
144.814
 30
0.000000
  70
    32
  0
VERTEX
  8
0
  5
1332
 10
65.5703
 20
144.782
 30
0.000000
  70
    32
  0
VERTEX
  8
0
  5
1333
 10
65.5541
 20
144.751
 30
0.000000
  70
    32
  0
VERTEX
  8
0
  5
1334
 10
65.5377
 20
144.721
 30
0.000000
  70
    32
  0
VERTEX
  8
0
  5
1335
 10
65.5209
 20
144.690
 30
0.000000
  70
    32
  0
VERTEX
  8
0
  5
1336
 10
65.5039
 20
144.660
 30
0.000000
  70
    32
  0
VERTEX
  8
0
  5
1337
 10
65.4866
 20
144.630
 30
0.000000
  70
    32
  0
SEQEND
  8
0
  5
1338
  0
ARC
  5
EDF
  8
0
 10
65.515594247871135
 20
149.47239862984591
 30
0.0
 40
0.8
 50
179.29082337074851
 51
229.05144466150259
  0
LINE
  5
EE0
  8
0
 10
265.93464161534672
 20
154.7855544955905
 30
0.0
 11
257.24166870356453
 21
154.7855544955905
 31
0.0
  0
LINE
  5
EE1
  8
0
 10
255.7500660524741
 20
149.66446622074491
 30
0.0
 11
255.7500660524741
 21
138.76831232910419
 31
0.0
  0
LINE
  5
EE2
  8
0
 10
260.50159991272909
 20
152.0664389218785
 30
0.0
 11
262.67058302539442
 21
152.0664389218785
 31
0.0
  0
LINE
  5
EE3
  8
0
 10
259.7419592083163
 20
150.0823153251479
 30
0.0
 11
263.45053465060943
 21
150.0823153251479
 31
0.0
  0
LINE
  5
EE4
  8
0
 10
256.11510676800827
 20
142.07139898191889
 30
0.0
 11
267.05707617011518
 21
142.07139898191889
 31
0.0
  0
LINE
  5
EE5
  8
0
 10
256.84021884984941
 20
145.0677842177019
 30
0.0
 11
266.33609146906178
 21
145.0677842177019
 31
0.0
  0
LINE
  5
EE6
  8
0
 10
256.60402686335942
 20
142.7685462692759
 30
0.0
 11
266.5681560747642
 21
142.7685462692759
 31
0.0
  0
LINE
  5
EE7
  8
0
 10
266.98706440641052
 20
142.34555449559039
 30
0.0
 11
256.1851185317131
 21
142.34555449559039
 31
0.0
  0
LINE
  5
EE8
  8
0
 10
270.83609146906178
 20
118.7855544955904
 30
0.0
 11
252.33609146906181
 21
118.7855544955904
 31
0.0
  0
LINE
  5
EE9
  8
0
 10
268.33609146906178
 20
112.2855544955905
 30
0.0
 11
268.33609146906178
 21
118.7855544955904
 31
0.0
  0
LINE
  5
EEA
  8
0
 10
254.83609146906181
 20
118.7855544955904
 30
0.0
 11
254.83609146906181
 21
112.2855544955905
 31
0.0
  0
LINE
  5
EEB
  8
0
 10
254.83609146906181
 20
112.2855544955905
 30
0.0
 11
268.33609146906178
 21
112.2855544955905
 31
0.0
  0
LINE
  5
EEC
  8
1
 10
261.58609146906178
 20
159.57058872112731
 30
0.0
 11
261.58609146906178
 21
107.2855544955904
 31
0.0
  0
ARC
  5
EED
  8
0
 10
265.93464161534672
 20
154.28555449559039
 30
0.0
 40
0.5
 50
12.65659409713297
 51
90.0
  0
LINE
  5
EEE
  8
0
 10
266.42249202243693
 20
154.3951080455189
 30
0.0
 11
267.42138570698182
 21
149.68736440573491
 31
0.0
  0
LINE
  5
EEF
  8
0
 10
267.42138570698182
 20
149.68736440573491
 30
0.0
 11
267.42138570698182
 21
138.8001745950879
 31
0.0
  0
ARC
  5
EF0
  8
0
  6
CONTINUOUS
 10
269.90851814626387
 20
145.83663436226129
 30
0.0
 40
10.0
 50
118.79561527160629
 51
136.0638165139936
  0
ARC
  5
EF1
  8
0
  6
CONTINUOUS
 10
265.81418195497668
 20
153.28555449559039
 30
0.0
 40
1.5
 50
90.0
 51
118.79561527160629
  0
LINE
  5
EF2
  8
0
  6
CONTINUOUS
 10
262.60049702280281
 20
152.24949821653561
 30
0.0
 11
263.43022372980732
 21
150.0823153251479
 31
0.0
  0
ARC
  5
EF3
  8
0
  6
CONTINUOUS
 10
263.06744397905408
 20
152.4282733267932
 30
0.0
 40
0.5
 50
136.06381651399249
 51
200.9498226902104
  0
ARC
  5
EF4
  8
0
  6
CONTINUOUS
 10
257.08154392175328
 20
141.27920272925439
 30
0.0
 40
10.0
 50
22.26297169193387
 51
41.283103248970171
  0
ARC
  5
EF5
  8
0
  6
CONTINUOUS
 10
272.78468966561792
 20
153.61699594095441
 30
0.0
 40
10.0
 50
200.69958459211799
 51
215.02957793266171
  0
ARC
  5
EF6
  8
0
  6
CONTINUOUS
 10
266.0947663971578
 20
141.27920272925439
 30
0.0
 40
10.0
 50
138.71689675102979
 51
157.7370283080661
  0
LINE
  5
EF7
  8
0
  6
CONTINUOUS
 10
260.57581329610849
 20
152.24949821653561
 30
0.0
 11
259.74608658910392
 21
150.0823153251479
 31
0.0
  0
ARC
  5
EF8
  8
0
  6
CONTINUOUS
 10
253.26779217264721
 20
145.83663436226129
 30
0.0
 40
10.0
 50
43.936183486006371
 51
61.204384728393627
  0
ARC
  5
EF9
  8
0
  6
CONTINUOUS
 10
260.10886633985712
 20
152.4282733267932
 30
0.0
 40
0.5
 50
339.0501773097896
 51
43.936183486007501
  0
LINE
  5
EFA
  8
0
 10
256.75381829647432
 20
154.3951080455189
 30
0.0
 11
255.7549246119294
 21
149.68736440573491
 31
0.0
  0
ARC
  5
EFB
  8
0
  6
CONTINUOUS
 10
250.39162065329319
 20
153.61699594095441
 30
0.0
 40
10.0
 50
324.97042206733829
 51
339.30041540788199
  0
ARC
  5
EFC
  8
0
  6
CONTINUOUS
 10
257.36212836393452
 20
153.28555449559039
 30
0.0
 40
1.5
 50
61.204384728393627
 51
90.0
  0
ARC
  5
EFD
  8
0
 10
257.24166870356453
 20
154.28555449559039
 30
0.0
 40
0.5
 50
90.0
 51
167.343405902867
  0
LINE
  5
EFE
  8
0
  6
CONTINUOUS
 10
266.33609146906178
 20
145.0677842177019
 30
0.0
 11
266.33609146906178
 21
154.58361156219371
 31
0.0
  0
LINE
  5
EFF
  8
0
  6
CONTINUOUS
 10
256.84021884984941
 20
145.0677842177019
 30
0.0
 11
256.84021884984941
 21
154.58361156219371
 31
0.0
  0
LINE
  5
F00
  8
0
  6
CONTINUOUS
 10
266.98706440641052
 20
142.34555449559039
 30
0.0
 11
267.05707617011518
 21
142.07139898191889
 31
0.0
  0
LINE
  5
F01
  8
0
  6
CONTINUOUS
 10
267.05707617011518
 20
142.07139898191889
 30
0.0
 11
267.42384159881482
 21
138.77812254197801
 31
0.0
  0
ARC
  5
F02
  8
0
  6
CONTINUOUS
 10
274.18676416114118
 20
134.1031874382808
 30
0.0
 40
8.0
 50
149.5265495885719
 51
212.6634991376466
  0
ARC
  5
F03
  8
0
  6
CONTINUOUS
 10
266.42998591198318
 20
138.66743887673039
 30
0.0
 40
1.0
 50
329.52654958857192
 51
6.3547273638236677
  0
ARC
  5
F04
  8
0
  6
CONTINUOUS
 10
267.0260148967368
 20
137.62079303759421
 30
0.0
 40
5.0
 50
46.631165890173051
 51
76.160424193720175
  0
LINE
  5
F05
  8
0
  6
CONTINUOUS
 10
267.42138570698182
 20
143.4335875176771
 30
0.0
 11
268.22203584864423
 21
142.47563947003661
 31
0.0
  0
ARC
  5
F06
  8
0
  6
CONTINUOUS
 10
269.08609146906178
 20
139.80163794637551
 30
0.0
 40
2.0
 50
0.0
 51
46.631165890173051
  0
ARC
  5
F07
  8
0
  6
CONTINUOUS
 10
256.74219702614027
 20
138.66743887673039
 30
0.0
 40
1.0
 50
173.64527263617629
 51
210.4734504114281
  0
ARC
  5
F08
  8
0
  6
CONTINUOUS
 10
254.08609146906181
 20
139.80163794637551
 30
0.0
 40
2.0
 50
133.36883410982691
 51
180.0
  0
LINE
  5
F09
  8
0
  6
CONTINUOUS
 10
255.75079723114169
 20
143.4335875176771
 30
0.0
 11
254.9501470894794
 21
142.47563947003661
 31
0.0
  0
LINE
  5
F0A
  8
0
  6
CONTINUOUS
 10
256.11510676800827
 20
142.07139898191889
 30
0.0
 11
255.74834133930881
 21
138.77812254197801
 31
0.0
  0
LINE
  5
F0B
  8
0
  6
CONTINUOUS
 10
256.1851185317131
 20
142.34555449559039
 30
0.0
 11
256.11510676800827
 21
142.07139898191889
 31
0.0
  0
ARC
  5
F0C
  8
0
  6
CONTINUOUS
 10
256.14616804138677
 20
137.62079303759421
 30
0.0
 40
5.0
 50
103.8395758062798
 51
133.36883410982691
  0
ARC
  5
F0D
  8
0
  6
CONTINUOUS
 10
248.9854187769823
 20
134.1031874382808
 30
0.0
 40
8.0
 50
327.33650086235338
 51
30.4734504114281
  0
LINE
  5
F0E
  8
2
 10
70.540888487322889
 20
128.2341116541055
 30
0.0
 11
73.915888487323045
 21
126.2855544955904
 31
0.0
  0
LINE
  5
F0F
  8
2
 10
66.540888487322803
 20
124.2855544955905
 30
0.0
 11
74.540888487323031
 21
124.2855544955905
 31
0.0
  0
LINE
  5
F10
  8
2
 10
67.165888487322775
 20
126.2855544955904
 30
0.0
 11
73.915888487323002
 21
126.2855544955904
 31
0.0
  0
LINE
  5
F11
  8
2
 10
73.915888487323045
 20
113.4855544955914
 30
0.0
 11
67.165888487322775
 21
113.4855544955914
 31
0.0
  0
LINE
  5
F12
  8
2
 10
66.540888487322803
 20
112.86055449559061
 30
0.0
 11
66.540888487322803
 21
124.2855544955905
 31
0.0
  0
LINE
  5
F13
  8
2
 10
67.165888487322775
 20
113.4855544955914
 30
0.0
 11
67.165888487322775
 21
126.2855544955904
 31
0.0
  0
LINE
  5
F14
  8
2
 10
67.165888487322775
 20
113.4855544955914
 30
0.0
 11
65.965888487323326
 21
112.2855544955905
 31
0.0
  0
LINE
  5
F15
  8
2
 10
70.540888487322917
 20
128.2341116541055
 30
0.0
 11
67.165888487322761
 21
126.2855544955904
 31
0.0
  0
LINE
  5
F16
  8
2
 10
67.165888487322775
 20
125.3680862503211
 30
0.0
 11
66.540888487322803
 21
124.2855544955905
 31
0.0
  0
LINE
  5
F17
  8
2
 10
73.915888487323045
 20
113.4855544955914
 30
0.0
 11
73.915888487323045
 21
126.2855544955904
 31
0.0
  0
LINE
  5
F18
  8
2
 10
74.540888487323031
 20
112.86055449559061
 30
0.0
 11
74.540888487323031
 21
124.2855544955905
 31
0.0
  0
LINE
  5
F19
  8
2
 10
73.915888487323045
 20
113.4855544955914
 30
0.0
 11
75.115888487322508
 21
112.2855544955905
 31
0.0
  0
LINE
  5
F1A
  8
2
 10
73.915888487323045
 20
125.3680862503211
 30
0.0
 11
74.540888487323031
 21
124.2855544955905
 31
0.0
  0
LINE
  5
F1B
  8
2
 10
265.57609146906191
 20
112.86055449559061
 30
0.0
 11
265.57609146906191
 21
124.2855544955905
 31
0.0
  0
LINE
  5
F1C
  8
2
 10
264.95109146906191
 20
113.4855544955914
 30
0.0
 11
264.95109146906191
 21
126.2855544955904
 31
0.0
  0
LINE
  5
F1D
  8
2
 10
258.20109146906162
 20
113.4855544955914
 30
0.0
 11
258.20109146906162
 21
126.2855544955904
 31
0.0
  0
LINE
  5
F1E
  8
2
 10
257.57609146906168
 20
112.86055449559061
 30
0.0
 11
257.57609146906168
 21
124.2855544955905
 31
0.0
  0
LINE
  5
F1F
  8
2
 10
264.95109146906191
 20
113.4855544955914
 30
0.0
 11
258.20109146906162
 21
113.4855544955914
 31
0.0
  0
LINE
  5
F20
  8
2
 10
258.20109146906162
 20
113.4855544955914
 30
0.0
 11
257.0010914690622
 21
112.2855544955905
 31
0.0
  0
LINE
  5
F21
  8
2
 10
264.95109146906191
 20
113.4855544955914
 30
0.0
 11
266.15109146906138
 21
112.2855544955905
 31
0.0
  0
LINE
  5
F22
  8
2
 10
258.20109146906162
 20
126.2855544955904
 30
0.0
 11
264.95109146906191
 21
126.2855544955904
 31
0.0
  0
LINE
  5
F23
  8
2
 10
257.57609146906168
 20
124.2855544955905
 30
0.0
 11
265.57609146906191
 21
124.2855544955905
 31
0.0
  0
LINE
  5
F24
  8
2
 10
261.57609146906168
 20
128.2341116541055
 30
0.0
 11
264.95109146906191
 21
126.2855544955904
 31
0.0
  0
LINE
  5
F25
  8
2
 10
258.20109146906162
 20
125.3680862503211
 30
0.0
 11
257.57609146906168
 21
124.2855544955905
 31
0.0
  0
LINE
  5
F26
  8
2
 10
261.57609146906179
 20
128.2341116541055
 30
0.0
 11
258.20109146906162
 21
126.2855544955904
 31
0.0
  0
LINE
  5
F27
  8
2
 10
264.95109146906191
 20
125.3680862503211
 30
0.0
 11
265.57609146906191
 21
124.2855544955905
 31
0.0
  0
LINE
  5
F28
  8
0
  6
CONTINUOUS
 10
80.04846682426556
 20
139.84600510666601
 30
0.0
 11
79.800888487322936
 21
118.7855544955904
 31
0.0
  0
LINE
  5
F29
  8
0
  6
CONTINUOUS
 10
61.053310150380312
 20
139.84600510666601
 30
0.0
 11
61.300888487322929
 21
118.7855544955904
 31
0.0
  0
LINE
  5
F2A
  8
0
  6
CONTINUOUS
 10
271.08609146906178
 20
139.80163794637551
 30
0.0
 11
270.83609146906178
 21
118.7855544955904
 31
0.0
  0
LINE
  5
F2B
  8
0
  6
CONTINUOUS
 10
252.08609146906181
 20
139.80163794637551
 30
0.0
 11
252.33609146906181
 21
118.7855544955904
 31
0.0
  0
CIRCLE
  5
F2C
  8
0
  6
CONTINUOUS
 10
142.35822889419569
 20
56.035502119709349
 30
0.0
 40
6.75
  0
LINE
  5
F2E
  8
0
  6
CONTINUOUS
 10
256.84021884984941
 20
145.0677842177019
 30
0.0
 11
256.5569306057775
 21
142.34555449559039
 31
0.0
  0
LINE
  5
F2F
  8
0
  6
CONTINUOUS
 10
266.33609146906178
 20
145.0677842177019
 30
0.0
 11
266.61525233234607
 21
142.34555449559039
 31
0.0
  0
CIRCLE
  5
F89
  8
0
 10
142.34822889419561
 20
202.4219775458285
 30
0.0
 40
4.0
  0
ARC
  5
F8C
  8
0
 10
140.51756698818369
 20
203.47891069005971
 30
0.0
 40
0.6912500000000005
 50
309.68887794065949
 51
16.658241772777039
  0
ARC
  5
F8D
  8
0
 10
141.55822889419571
 20
203.79029768380801
 30
0.0
 40
0.3949999999999998
 50
43.341758227221717
 51
196.65824177277699
  0
ARC
  5
F8E
  8
0
 10
142.3482288941957
 20
204.53584383429089
 30
0.0
 40
0.6912499999999989
 50
223.3417582272217
 51
316.6582417727783
  0
ARC
  5
F8F
  8
0
 10
143.13822889419561
 20
203.79029768380801
 30
0.0
 40
0.3950000000000002
 50
343.3417582272229
 51
136.65824177277821
  0
ARC
  5
F90
  8
0
 10
140.51756698818369
 20
201.36504440159729
 30
0.0
 40
0.691250000000001
 50
343.3417582272229
 51
50.311122059331304
  0
ARC
  5
F91
  8
0
 10
141.55822889419571
 20
201.0536574078491
 30
0.0
 40
0.3950000000000001
 50
163.3417582272229
 51
316.6582417727783
  0
ARC
  5
F92
  8
0
 10
142.3482288941957
 20
200.30811125736611
 30
0.0
 40
0.6912500000000003
 50
43.341758227221717
 51
136.65824177277651
  0
ARC
  5
F93
  8
0
 10
143.13822889419561
 20
201.0536574078491
 30
0.0
 40
0.3949999999999998
 50
223.3417582272217
 51
16.658241772777039
  0
ARC
  5
F94
  8
0
 10
144.1788908002076
 20
201.36504440159729
 30
0.0
 40
0.6912500000000003
 50
129.6888779406687
 51
196.65824177277699
  0
ARC
  5
F95
  8
0
 10
144.1788908002076
 20
203.47891069005971
 30
0.0
 40
0.6912500000000011
 50
163.3417582272229
 51
230.31112205934281
  0
LINE
  5
F99
  8
0
 10
139.59822889419561
 20
201.89697754582849
 30
0.0
 11
140.95901199332971
 21
201.89697754582849
 31
0.0
  0
LINE
  5
F9A
  8
0
 10
139.59822889419561
 20
202.9469775458285
 30
0.0
 11
140.9590119933296
 21
202.9469775458285
 31
0.0
  0
LINE
  5
F9B
  8
0
 10
143.73744579506169
 20
202.9469775458285
 30
0.0
 11
145.0982288941957
 21
202.9469775458285
 31
0.0
  0
LINE
  5
F9C
  8
0
 10
143.7374457950616
 20
201.89697754582849
 30
0.0
 11
145.0982288941957
 21
201.89697754582849
 31
0.0
  0
ARC
  5
F9D
  8
0
 10
142.34822889419561
 20
202.4219775458285
 30
0.0
 40
2.7567916134521511
 50
355.97735839170269
 51
4.0226416083006269
  0
LINE
  5
F9E
  8
0
 10
145.09822889419561
 20
202.9469775458285
 30
0.0
 11
145.0982288941957
 21
201.89697754582849
 31
0.0
  0
LINE
  5
F9F
  8
0
 10
139.5982288941957
 20
202.9469775458285
 30
0.0
 11
139.5982288941957
 21
201.89697754582849
 31
0.0
  0
ARC
  5
FA0
  8
0
 10
142.34822889419561
 20
202.4219775458285
 30
0.0
 40
2.7567916134521511
 50
10.978391329937949
 51
169.02160867006199
  0
ARC
  5
FA1
  8
0
 10
142.34822889419561
 20
202.4219775458285
 30
0.0
 40
2.7567916134521511
 50
190.97839132993789
 51
349.02160867006211
  0
ARC
  5
FA2
  8
0
 10
142.34822889419561
 20
202.4219775458285
 30
0.0
 40
2.7567916134521511
 50
175.97735839169599
 51
184.0226416083039
  0
ARC
  5
FA5
  8
0
 10
142.35822889419569
 20
133.2755544955904
 30
0.0
 40
8.0
 50
110.15731621557541
 51
119.9999999999997
  0
LINE
  5
FA6
  8
0
 10
138.35822889419569
 20
140.20375772586601
 30
0.0
 11
143.21134550080359
 21
140.20375772586601
 31
0.0
  0
LINE
  5
FA8
  8
0
 10
144.7181165649221
 20
140.78555449559039
 30
0.0
 11
139.60143728074351
 21
140.78555449559039
 31
0.0
  0
LINE
  5
FAA
  8
0
 10
138.35822889419569
 20
140.20375772586601
 30
0.0
 11
138.35822889419569
 21
138.2463554347155
 31
0.0
  0
ARC
  5
FAD
  8
0
 10
70.550888487322922
 20
133.2755544955904
 30
0.0
 40
8.0
 50
110.15731621557541
 51
119.9999999999997
  0
LINE
  5
FAE
  8
0
 10
66.550888487323007
 20
140.20375772586601
 30
0.0
 11
74.550888487322922
 21
140.20375772586601
 31
0.0
  0
ARC
  5
FAF
  8
0
 10
70.550888487322922
 20
133.2755544955904
 30
0.0
 40
8.0
 50
60.000000000000277
 51
69.842683784424523
  0
LINE
  5
FB0
  8
0
 10
73.307680100775073
 20
140.78555449559039
 30
0.0
 11
67.794096873870785
 21
140.78555449559039
 31
0.0
  0
LINE
  5
FB2
  8
0
 10
66.550888487323007
 20
140.20375772586601
 30
0.0
 11
66.55088848732295
 21
138.74587415807599
 31
0.0
  0
LINE
  5
FB3
  8
0
 10
74.550888487322922
 20
140.20375772586601
 30
0.0
 11
74.550888487322922
 21
138.74587415807599
 31
0.0
  0
TEXT
  5
10A0
  8
0
 62
     3
 10
0.0
 20
0.0
 30
0.0
 40
10.0
  1
FKF8L-OG
  7
STANDARD1
  0
ENDSEC
  0
EOF
