  0
SECTION
  2
HEADER
  9
$ACADVER
  1
AC1009
  9
$INSBASE
 10
0.0
 20
0.0
 30
0.0
  9
$EXTMIN
 10
0.0
 20
-2.960436562073669
 30
0.0
  9
$EXTMAX
 10
188.7052537881078
 20
150.13457632800669
 30
0.0
  9
$LIMMIN
 10
0.0
 20
0.0
  9
$LIMMAX
 10
187.5
 20
135.0
  9
$ORTHOMODE
 70
     0
  9
$REGENMODE
 70
     1
  9
$FILLMODE
 70
     1
  9
$QTEXTMODE
 70
     0
  9
$MIRRTEXT
 70
     0
  9
$DRAGMODE
 70
     2
  9
$LTSCALE
 40
5.0
  9
$OSMODE
 70
    55
  9
$ATTMODE
 70
     1
  9
$TEXTSIZE
 40
4.0
  9
$TRACEWID
 40
0.05
  9
$TEXTSTYLE
  7
STANDARD
  9
$CLAYER
  8
0
  9
$CELTYPE
  6
BYLAYER
  9
$CECOLOR
 62
   256
  9
$DIMSCALE
 40
0.5
  9
$DIMASZ
 40
3.0
  9
$DIMEXO
 40
2.0
  9
$DIMDLI
 40
0.38
  9
$DIMRND
 40
0.0
  9
$DIMDLE
 40
0.0
  9
$DIMEXE
 40
2.0
  9
$DIMTP
 40
0.0
  9
$DIMTM
 40
0.0
  9
$DIMTXT
 40
3.0
  9
$DIMCEN
 40
0.0
  9
$DIMTSZ
 40
0.0
  9
$DIMTOL
 70
     0
  9
$DIMLIM
 70
     0
  9
$DIMTIH
 70
     0
  9
$DIMTOH
 70
     0
  9
$DIMSE1
 70
     0
  9
$DIMSE2
 70
     0
  9
$DIMTAD
 70
     1
  9
$DIMZIN
 70
     0
  9
$DIMBLK
  1

  9
$DIMASO
 70
     0
  9
$DIMSHO
 70
     0
  9
$DIMPOST
  1

  9
$DIMAPOST
  1

  9
$DIMALT
 70
     0
  9
$DIMALTD
 70
     2
  9
$DIMALTF
 40
25.399999999999999
  9
$DIMLFAC
 40
1.0
  9
$DIMTOFL
 70
     0
  9
$DIMTVP
 40
1.6000000000000001
  9
$DIMTIX
 70
     1
  9
$DIMSOXD
 70
     0
  9
$DIMSAH
 70
     0
  9
$DIMBLK1
  1

  9
$DIMBLK2
  1

  9
$DIMSTYLE
  2
STANDARD
  9
$DIMCLRD
 70
     0
  9
$DIMCLRE
 70
     0
  9
$DIMCLRT
 70
     0
  9
$DIMTFAC
 40
1.0
  9
$DIMGAP
 40
0.09
  9
$LUNITS
 70
     2
  9
$LUPREC
 70
     4
  9
$SKETCHINC
 40
0.1
  9
$FILLETRAD
 40
1.25
  9
$AUNITS
 70
     0
  9
$AUPREC
 70
     0
  9
$MENU
  1
E:\r13\win\SUPPORT\ACAD
  9
$ELEVATION
 40
0.0
  9
$PELEVATION
 40
0.0
  9
$THICKNESS
 40
0.0
  9
$LIMCHECK
 70
     0
  9
$BLIPMODE
 70
     0
  9
$CHAMFERA
 40
0.0
  9
$CHAMFERB
 40
0.0
  9
$SKPOLY
 70
     0
  9
$TDCREATE
 40
2449840.6143865739
  9
$TDUPDATE
 40
2456598.6467795721
  9
$TDINDWG
 40
0.232676713
  9
$TDUSRTIMER
 40
0.232676713
  9
$USRTIMER
 70
     1
  9
$ANGBASE
 50
0.0
  9
$ANGDIR
 70
     0
  9
$PDMODE
 70
     0
  9
$PDSIZE
 40
0.0
  9
$PLINEWID
 40
0.0
  9
$COORDS
 70
     1
  9
$SPLFRAME
 70
     0
  9
$SPLINETYPE
 70
     6
  9
$SPLINESEGS
 70
     8
  9
$ATTDIA
 70
     0
  9
$ATTREQ
 70
     1
  9
$HANDLING
 70
     1
  9
$HANDSEED
  5
10E0
  9
$SURFTAB1
 70
     6
  9
$SURFTAB2
 70
     6
  9
$SURFTYPE
 70
     6
  9
$SURFU
 70
     6
  9
$SURFV
 70
     6
  9
$UCSNAME
  2

  9
$UCSORG
 10
0.0
 20
0.0
 30
0.0
  9
$UCSXDIR
 10
1.0
 20
0.0
 30
0.0
  9
$UCSYDIR
 10
0.0
 20
1.0
 30
0.0
  9
$PUCSNAME
  2

  9
$PUCSORG
 10
0.0
 20
0.0
 30
0.0
  9
$PUCSXDIR
 10
1.0
 20
0.0
 30
0.0
  9
$PUCSYDIR
 10
0.0
 20
1.0
 30
0.0
  9
$USERI1
 70
     0
  9
$USERI2
 70
     1
  9
$USERI3
 70
     1
  9
$USERI4
 70
     0
  9
$USERI5
 70
     0
  9
$USERR1
 40
0.0
  9
$USERR2
 40
0.0
  9
$USERR3
 40
0.0
  9
$USERR4
 40
0.0
  9
$USERR5
 40
0.0
  9
$WORLDVIEW
 70
     1
  9
$SHADEDGE
 70
     3
  9
$SHADEDIF
 70
    70
  9
$TILEMODE
 70
     1
  9
$MAXACTVP
 70
    16
  9
$PLIMCHECK
 70
     0
  9
$PEXTMIN
 10
1.0000000000000000E+020
 20
1.0000000000000000E+020
 30
1.0000000000000000E+020
  9
$PEXTMAX
 10
-1.0000000000000000E+020
 20
-1.0000000000000000E+020
 30
-1.0000000000000000E+020
  9
$PLIMMIN
 10
0.0
 20
0.0
  9
$PLIMMAX
 10
12.0
 20
9.0
  9
$UNITMODE
 70
     0
  9
$VISRETAIN
 70
     0
  9
$PLINEGEN
 70
     0
  9
$PSLTSCALE
 70
     0
  0
ENDSEC
  0
SECTION
  2
TABLES
  0
TABLE
  2
VPORT
 70
     1
  0
VPORT
  2
*ACTIVE
 70
     0
 10
0.0
 20
0.0
 11
1.0
 21
1.0
 12
94.352627333417601
 22
96.807326195753888
 13
0.0
 23
0.0
 14
5.0
 24
5.0
 15
5.0
 25
5.0
 16
0.0
 26
0.0
 36
1.0
 17
0.0
 27
0.0
 37
0.0
 40
201.31706310110599
 41
1.7807262569832401
 42
50.0
 43
0.0
 44
0.0
 50
0.0
 51
0.0
 71
     0
 72
   100
 73
     1
 74
     0
 75
     0
 76
     0
 77
     0
 78
     0
  0
ENDTAB
  0
TABLE
  2
LTYPE
 70
     4
  0
LTYPE
  2
CONTINUOUS
 70
     0
  3
Solid Line
 72
    65
 73
     0
 40
0.0
  0
LTYPE
  2
CENTER
 70
     0
  3
____ _ ____ _ ____ _ ____ _ ____ _ ____ _ ____
 72
    65
 73
     4
 40
2.0
 49
1.25
 49
-0.25
 49
0.25
 49
-0.25
  0
LTYPE
  2
HIDDEN
 70
     0
  3
_ _ _ _ _ _ _ _ _ _ _ _ _ _ _ _ _ _ _ _ _ _ _
 72
    65
 73
     2
 40
0.375
 49
0.25
 49
-0.125
  0
LTYPE
  2
PHANTOM2
 70
     0
  3
___ _ _ ___ _ _ ___ _ _ ___ _ _
 72
    65
 73
     6
 40
1.25
 49
0.625
 49
-0.125
 49
0.125
 49
-0.125
 49
0.125
 49
-0.125
  0
ENDTAB
  0
TABLE
  2
LAYER
 70
     4
  0
LAYER
  2
0
 70
     0
 62
     7
  6
CONTINUOUS
  0
LAYER
  2
1
 70
     0
 62
     1
  6
CENTER
  0
LAYER
  2
2
 70
     0
 62
     2
  6
HIDDEN
  0
LAYER
  2
3
 70
     0
 62
     3
  6
CONTINUOUS
  0
ENDTAB
  0
TABLE
  2
STYLE
 70
     2
  0
STYLE
  2
STANDARD
 70
     0
 40
0.0
 41
1.0
 50
0.0
 71
     0
 42
4.0
  3
TXT
  4
BIGFONT
  0
STYLE
  2
STANDARD1
 70
     0
 40
0.0
 41
1.0
 50
0.0
 71
     0
 42
3.0
  3
txt
  4

  0
ENDTAB
  0
TABLE
  2
VIEW
 70
     1
  0
VIEW
  2
ALL
 70
     0
 40
179.66152299999999
 10
141.903918
 20
89.830760999999995
 41
0.0
 11
0.0
 21
0.0
 31
1.0
 12
0.0
 22
0.0
 32
0.0
 42
0.0
 43
0.0
 44
0.0
 50
0.0
 71
     0
  0
ENDTAB
  0
TABLE
  2
UCS
 70
     0
  0
ENDTAB
  0
TABLE
  2
APPID
 70
     4
  0
APPID
  2
ACAD
 70
     0
  0
APPID
  2
DCO15
 70
     0
  0
APPID
  2
ACAD_MLEADERVER
 70
     0
  0
APPID
  2
ACAD_NAV_VCDISPLAY
 70
     0
  0
ENDTAB
  0
TABLE
  2
DIMSTYLE
 70
     1
  0
DIMSTYLE
  2
STANDARD
 70
     0
  3

  4

  5

  6

  7

 40
1.0
 41
0.18
 42
0.0625
 43
0.38
 44
0.18
 45
0.0
 46
0.0
 47
0.0
 48
0.0
140
0.18
141
0.09
142
0.0
143
25.399999999999999
144
1.0
145
0.0
146
1.0
147
0.09
 71
     0
 72
     0
 73
     1
 74
     1
 75
     0
 76
     0
 77
     0
 78
     0
170
     0
171
     2
172
     0
173
     0
174
     0
175
     0
176
     0
177
     0
178
     0
  0
ENDTAB
  0
ENDSEC
  0
SECTION
  2
BLOCKS
  0
BLOCK
  8
0
  2
$MODEL_SPACE
 70
     0
 10
0.0
 20
0.0
 30
0.0
  3
$MODEL_SPACE
  1

  0
ENDBLK
  5
1BD
  8
0
  0
BLOCK
 67
     1
  8
0
  2
$PAPER_SPACE
 70
     0
 10
0.0
 20
0.0
 30
0.0
  3
$PAPER_SPACE
  1

  0
ENDBLK
  5
1BB
 67
     1
  8
0
  0
ENDSEC
  0
SECTION
  2
ENTITIES
  0
LINE
  5
502
  8
0
 10
53.007478422092703
 20
76.070658012374849
 30
0.0
 11
53.007478422092703
 21
80.070658012374864
 31
0.0
  0
LINE
  5
503
  8
0
 10
43.007478422092703
 20
80.070658012374864
 30
0.0
 11
43.007478422092703
 21
76.070658012374849
 31
0.0
  0
LINE
  5
50B
  8
0
 10
43.007478422092703
 20
76.070658012374849
 30
0.0
 11
53.007478422092703
 21
76.070658012374849
 31
0.0
  0
LINE
  5
511
  8
1
 10
48.007478422092703
 20
111.9376994313909
 30
0.0
 11
48.007478422092703
 21
71.070658012374849
 31
0.0
  0
LINE
  5
512
  8
0
 10
51.352538528967237
 20
107.07065801237481
 30
0.0
 11
44.662418315218147
 21
107.07065801237481
 31
0.0
  0
LINE
  5
52F
  8
0
 10
54.507478422092703
 20
80.070658012374864
 30
0.0
 11
41.507478422092703
 21
80.070658012374864
 31
0.0
  0
LINE
  5
535
  8
0
 10
104.5720322538062
 20
76.070658012374849
 30
0.0
 11
104.5720322538062
 21
80.070658012374864
 31
0.0
  0
LINE
  5
536
  8
0
 10
94.572032253806242
 20
80.070658012374864
 30
0.0
 11
94.572032253806242
 21
76.070658012374849
 31
0.0
  0
LINE
  5
53E
  8
0
 10
94.572032253806242
 20
76.070658012374849
 30
0.0
 11
104.5720322538062
 21
76.070658012374849
 31
0.0
  0
LINE
  5
544
  8
0
 10
139.57203225380621
 20
103.69533534669441
 30
0.0
 11
139.57203225380621
 21
104.5675605456842
 31
0.0
  0
LINE
  5
545
  8
0
 10
93.062032253806237
 20
94.902314734550998
 30
0.0
 11
93.062032253806265
 21
80.070658012374864
 31
0.0
  0
LINE
  5
546
  8
0
 10
106.06203225380619
 20
80.070658012374864
 30
0.0
 11
106.06203225380619
 21
90.534981539594568
 31
0.0
  0
LINE
  5
549
  8
0
 10
134.87603960734879
 20
98.183782158580684
 30
0.0
 11
125.20967991508699
 21
95.448478077081987
 31
0.0
  0
LINE
  5
554
  8
0
 10
122.4868774446812
 20
95.070658012374864
 30
0.0
 11
117.5212535547237
 21
95.070658012374864
 31
0.0
  0
LINE
  5
555
  8
0
 10
106.06203225380619
 20
80.070658012374864
 30
0.0
 11
93.062032253806265
 21
80.070658012374864
 31
0.0
  0
LINE
  5
55A
  8
1
 10
99.572032253806242
 20
106.2506580123748
 30
0.0
 11
99.572032253806242
 21
71.070658012374849
 31
0.0
  0
LINE
  5
55E
  8
0
 10
185.6510883288897
 20
95.114172353111456
 30
0.0
 11
185.24099599152461
 21
98.248993957108311
 31
0.0
  0
LINE
  5
55F
  8
0
 10
185.78676681923531
 20
105.1612089345886
 30
0.0
 11
185.78676681923531
 21
95.070658012374864
 31
0.0
  0
LINE
  5
561
  8
0
 10
177.62374075698031
 20
105.1612089345886
 30
0.0
 11
177.62374075698031
 21
95.070658012374864
 31
0.0
  0
LINE
  5
563
  8
1
 10
181.7052537881078
 20
111.9376994313909
 30
0.0
 11
181.7052537881078
 21
71.070658012374849
 31
0.0
  0
LINE
  5
564
  8
0
 10
186.7052537881078
 20
76.070658012374849
 30
0.0
 11
186.7052537881078
 21
80.070658012374864
 31
0.0
  0
LINE
  5
565
  8
0
 10
176.7052537881078
 20
80.070658012374864
 30
0.0
 11
176.7052537881078
 21
76.070658012374849
 31
0.0
  0
LINE
  5
56A
  8
0
 10
176.7052537881078
 20
76.070658012374849
 30
0.0
 11
186.7052537881078
 21
76.070658012374849
 31
0.0
  0
LINE
  5
574
  8
0
 10
188.2052537881078
 20
80.070658012374864
 30
0.0
 11
175.2052537881078
 21
80.070658012374864
 31
0.0
  0
LINE
  5
575
  8
0
 10
177.79845713382161
 20
95.412585170934804
 30
0.0
 11
185.61205044239401
 21
95.412585170934804
 31
0.0
  0
LINE
  5
576
  8
0
 10
185.7901891100903
 20
95.070658012374864
 30
0.0
 11
177.62374075698031
 21
95.070658012373542
 31
0.0
  0
LINE
  5
583
  8
0
 10
185.05031389498231
 20
107.07065801237481
 30
0.0
 11
178.341201650269
 21
107.07065801237481
 31
0.0
  0
LINE
  5
586
  8
0
 10
178.16951158469101
 20
98.248993957108297
 30
0.0
 11
185.24099599152461
 21
98.248993957108297
 31
0.0
  0
LINE
  5
587
  8
0
 10
178.2052537881078
 20
106.88629175936229
 30
0.0
 11
178.2052537881078
 21
98.612281693047962
 31
0.0
  0
LINE
  5
591
  8
0
 10
185.2052537881078
 20
106.88629175936229
 30
0.0
 11
185.2052537881078
 21
98.612281693047962
 31
0.0
  0
LINE
  5
59A
  8
0
 10
93.072032253806228
 20
135.56165969507819
 30
0.0
 11
93.072032253806228
 21
140.70749296093521
 31
0.0
  0
CIRCLE
  5
5B6
  8
0
 10
99.572032253806242
 20
38.082721559807638
 30
0.0
 40
6.5000000000000027
  0
LINE
  5
5C6
  8
1
 10
99.582032253806247
 20
150.13457632800669
 30
0.0
 11
99.582032253806247
 21
126.1345763280067
 31
0.0
  0
LINE
  5
5C7
  8
1
 10
144.5820352705515
 20
138.13457632800669
 30
0.0
 11
88.072032253806228
 21
138.13457632800669
 31
0.0
  0
LINE
  5
5CB
  8
1
 10
99.582032253806247
 20
50.082220662569327
 30
0.0
 11
99.582032253806247
 21
26.083222457045959
 31
0.0
  0
CIRCLE
  5
5CD
  8
0
 10
99.582032253806247
 20
38.082721559807638
 30
0.0
 40
4.989999999999994
  0
LINE
  5
5E5
  8
1
 10
88.072032253806228
 20
38.082721559807638
 30
0.0
 11
144.5820352705515
 21
38.082721559807638
 31
0.0
  0
ARC
  5
62F
  8
0
 10
99.582032253806247
 20
138.13457632800669
 30
0.0
 40
7.0
 50
201.56518501524261
 51
308.53132429037919
  0
ARC
  5
630
  8
0
 10
99.582032253806247
 20
138.13457632800669
 30
0.0
 40
7.0
 50
51.468675709620783
 51
158.43481498475739
  0
ARC
  5
633
  8
0
 10
136.0820322538062
 20
138.13457632800669
 30
0.0
 40
3.5
 50
270.0
 51
90.0
  0
LINE
  5
636
  8
0
 10
120.3730530097794
 20
142.2160893591342
 30
0.0
 11
136.21097746427381
 21
141.63220025471711
 31
0.0
  0
LINE
  5
637
  8
0
 10
120.3730530097794
 20
134.0530632968792
 30
0.0
 11
136.0820322538062
 21
134.63457632800669
 31
0.0
  0
CIRCLE
  5
642
  8
0
 10
99.864410126241424
 20
138.13457632800669
 30
0.0
 40
4.6971000970094821
  0
ARC
  5
6CE
  8
0
 10
114.6177653815049
 20
171.646881287577
 30
0.0
 40
30.0
 50
249.1551953734386
 51
281.16030063920113
  0
ARC
  5
6D0
  8
0
 10
114.6177653815049
 20
104.6222713684363
 30
0.0
 40
30.0
 50
78.839699360798974
 51
110.8448046265614
  0
LINE
  5
6E7
  8
0
 10
120.3730530097794
 20
42.164234590935159
 30
0.0
 11
136.21097746427381
 21
41.580345486518077
 31
0.0
  0
ARC
  5
6E8
  8
0
 10
136.0820322538062
 20
38.082721559807631
 30
0.0
 40
3.5
 50
270.0
 51
90.0
  0
ARC
  5
6E9
  8
0
 10
114.6177653815049
 20
71.595026519377981
 30
0.0
 40
30.0
 50
249.1551953734386
 51
281.16030063920113
  0
LINE
  5
6EA
  8
0
 10
120.3730530097794
 20
34.001208528680117
 30
0.0
 11
136.0820322538062
 21
34.582721559807617
 31
0.0
  0
ARC
  5
6EB
  8
0
 10
114.6177653815049
 20
4.5704166002373077
 30
0.0
 40
30.0
 50
78.839699360798974
 51
110.8448046265614
  0
ARC
  5
6EC
  8
0
 10
99.582032253806233
 20
38.082721559807638
 30
0.0
 40
7.0
 50
201.56518501524261
 51
308.53132429037919
  0
ARC
  5
6ED
  8
0
 10
99.582032253806233
 20
38.082721559807638
 30
0.0
 40
7.0
 50
51.468675709620783
 51
158.43481498475739
  0
LINE
  5
6EE
  8
0
 10
93.072032253806228
 20
35.50980492687917
 30
0.0
 11
93.072032253806228
 21
40.65563819273612
 31
0.0
  0
ARC
  5
6F3
  8
0
 10
147.14502593662709
 20
-42.588087658065831
 30
0.0
 40
150.0
 50
93.915861512303536
 51
110.1986696099367
  0
ARC
  5
701
  8
0
 10
137.07203225380621
 20
104.5675605456842
 30
0.0
 40
2.5
 50
0.0
 51
93.915861512302882
  0
ARC
  5
702
  8
0
 10
96.562032253806251
 20
94.902314734550998
 30
0.0
 40
3.5
 50
110.198669609936
 51
180.0
  0
LINE
  5
703
  8
0
 10
53.491946656621522
 20
98.187068375330284
 30
0.0
 11
49.772010874304073
 21
98.187068375330284
 31
0.0
  0
LINE
  5
713
  8
0
 10
42.523010187563877
 20
98.187068375330284
 30
0.0
 11
46.242945969881333
 21
98.187068375330284
 31
0.0
  0
LINE
  5
716
  8
0
 10
52.092413744075181
 20
105.1284014703415
 30
0.0
 11
52.092413744075181
 21
102.65724813984301
 31
0.0
  0
ARC
  5
719
  8
0
 10
133.5831317264655
 20
104.0428255285814
 30
0.0
 40
6.0
 50
282.44396201272468
 51
356.51437909834618
  0
ARC
  5
71E
  8
0
 10
122.4868774446812
 20
105.07065801237481
 30
0.0
 40
10.0
 50
270.0
 51
285.80000000000001
  0
ARC
  5
726
  8
0
 10
136.40926530609559
 20
38.77548534739784
 30
0.0
 40
60.0
 50
112.1950152906777
 51
120.38362357021521
  0
ARC
  5
728
  8
0
 10
117.5212535547237
 20
85.070658012374864
 30
0.0
 40
10.0
 50
90.0
 51
112.1950152906778
  0
LINE
  5
72C
  8
0
 10
54.507478422092703
 20
80.070658012374864
 30
0.0
 11
55.007478422092703
 21
99.668055520547995
 31
0.0
  0
POLYLINE
  5
72D
  8
0
 10
53.491946656621515
 20
98.187068375330284
 30
0.0
 66
     1
 70
     8
  0
VERTEX
  8
0
  5
E56
 10
53.4919
 20
98.1871
 30
0.000000
  70
    32
  0
VERTEX
  8
0
  5
E57
 10
53.5362
 20
98.2063
 30
0.000000
  70
    32
  0
VERTEX
  8
0
  5
E58
 10
53.5798
 20
98.2256
 30
0.000000
  70
    32
  0
VERTEX
  8
0
  5
E59
 10
53.6229
 20
98.2451
 30
0.000000
  70
    32
  0
VERTEX
  8
0
  5
E5A
 10
53.6654
 20
98.2647
 30
0.000000
  70
    32
  0
VERTEX
  8
0
  5
E5B
 10
53.7073
 20
98.2845
 30
0.000000
  70
    32
  0
VERTEX
  8
0
  5
E5C
 10
53.7486
 20
98.3045
 30
0.000000
  70
    32
  0
VERTEX
  8
0
  5
E5D
 10
53.7892
 20
98.3245
 30
0.000000
  70
    32
  0
VERTEX
  8
0
  5
E5E
 10
53.8293
 20
98.3448
 30
0.000000
  70
    32
  0
VERTEX
  8
0
  5
E5F
 10
53.8688
 20
98.3651
 30
0.000000
  70
    32
  0
VERTEX
  8
0
  5
E60
 10
53.9077
 20
98.3856
 30
0.000000
  70
    32
  0
VERTEX
  8
0
  5
E61
 10
53.9459
 20
98.4062
 30
0.000000
  70
    32
  0
VERTEX
  8
0
  5
E62
 10
53.9835
 20
98.4270
 30
0.000000
  70
    32
  0
VERTEX
  8
0
  5
E63
 10
54.0205
 20
98.4479
 30
0.000000
  70
    32
  0
VERTEX
  8
0
  5
E64
 10
54.0569
 20
98.4689
 30
0.000000
  70
    32
  0
VERTEX
  8
0
  5
E65
 10
54.0926
 20
98.4900
 30
0.000000
  70
    32
  0
VERTEX
  8
0
  5
E66
 10
54.1277
 20
98.5113
 30
0.000000
  70
    32
  0
VERTEX
  8
0
  5
E67
 10
54.1622
 20
98.5327
 30
0.000000
  70
    32
  0
VERTEX
  8
0
  5
E68
 10
54.1960
 20
98.5542
 30
0.000000
  70
    32
  0
VERTEX
  8
0
  5
E69
 10
54.2291
 20
98.5758
 30
0.000000
  70
    32
  0
VERTEX
  8
0
  5
E6A
 10
54.2616
 20
98.5976
 30
0.000000
  70
    32
  0
VERTEX
  8
0
  5
E6B
 10
54.2935
 20
98.6194
 30
0.000000
  70
    32
  0
VERTEX
  8
0
  5
E6C
 10
54.3247
 20
98.6414
 30
0.000000
  70
    32
  0
VERTEX
  8
0
  5
E6D
 10
54.3552
 20
98.6634
 30
0.000000
  70
    32
  0
VERTEX
  8
0
  5
E6E
 10
54.3851
 20
98.6856
 30
0.000000
  70
    32
  0
VERTEX
  8
0
  5
E6F
 10
54.4143
 20
98.7079
 30
0.000000
  70
    32
  0
VERTEX
  8
0
  5
E70
 10
54.4428
 20
98.7303
 30
0.000000
  70
    32
  0
VERTEX
  8
0
  5
E71
 10
54.4706
 20
98.7527
 30
0.000000
  70
    32
  0
VERTEX
  8
0
  5
E72
 10
54.4978
 20
98.7753
 30
0.000000
  70
    32
  0
VERTEX
  8
0
  5
E73
 10
54.5243
 20
98.7980
 30
0.000000
  70
    32
  0
VERTEX
  8
0
  5
E74
 10
54.5501
 20
98.8207
 30
0.000000
  70
    32
  0
VERTEX
  8
0
  5
E75
 10
54.5753
 20
98.8436
 30
0.000000
  70
    32
  0
VERTEX
  8
0
  5
E76
 10
54.5997
 20
98.8665
 30
0.000000
  70
    32
  0
VERTEX
  8
0
  5
E77
 10
54.6234
 20
98.8895
 30
0.000000
  70
    32
  0
VERTEX
  8
0
  5
E78
 10
54.6465
 20
98.9126
 30
0.000000
  70
    32
  0
VERTEX
  8
0
  5
E79
 10
54.6689
 20
98.9358
 30
0.000000
  70
    32
  0
VERTEX
  8
0
  5
E7A
 10
54.6905
 20
98.9590
 30
0.000000
  70
    32
  0
VERTEX
  8
0
  5
E7B
 10
54.7115
 20
98.9823
 30
0.000000
  70
    32
  0
VERTEX
  8
0
  5
E7C
 10
54.7318
 20
99.0057
 30
0.000000
  70
    32
  0
VERTEX
  8
0
  5
E7D
 10
54.7513
 20
99.0292
 30
0.000000
  70
    32
  0
VERTEX
  8
0
  5
E7E
 10
54.7702
 20
99.0527
 30
0.000000
  70
    32
  0
VERTEX
  8
0
  5
E7F
 10
54.7883
 20
99.0763
 30
0.000000
  70
    32
  0
VERTEX
  8
0
  5
E80
 10
54.8057
 20
99.1000
 30
0.000000
  70
    32
  0
VERTEX
  8
0
  5
E81
 10
54.8225
 20
99.1237
 30
0.000000
  70
    32
  0
VERTEX
  8
0
  5
E82
 10
54.8385
 20
99.1475
 30
0.000000
  70
    32
  0
VERTEX
  8
0
  5
E83
 10
54.8538
 20
99.1713
 30
0.000000
  70
    32
  0
VERTEX
  8
0
  5
E84
 10
54.8683
 20
99.1952
 30
0.000000
  70
    32
  0
VERTEX
  8
0
  5
E85
 10
54.8822
 20
99.2191
 30
0.000000
  70
    32
  0
VERTEX
  8
0
  5
E86
 10
54.8953
 20
99.2431
 30
0.000000
  70
    32
  0
VERTEX
  8
0
  5
E87
 10
54.9077
 20
99.2671
 30
0.000000
  70
    32
  0
VERTEX
  8
0
  5
E88
 10
54.9194
 20
99.2912
 30
0.000000
  70
    32
  0
VERTEX
  8
0
  5
E89
 10
54.9304
 20
99.3153
 30
0.000000
  70
    32
  0
VERTEX
  8
0
  5
E8A
 10
54.9406
 20
99.3395
 30
0.000000
  70
    32
  0
VERTEX
  8
0
  5
E8B
 10
54.9501
 20
99.3636
 30
0.000000
  70
    32
  0
VERTEX
  8
0
  5
E8C
 10
54.9589
 20
99.3878
 30
0.000000
  70
    32
  0
VERTEX
  8
0
  5
E8D
 10
54.9670
 20
99.4121
 30
0.000000
  70
    32
  0
VERTEX
  8
0
  5
E8E
 10
54.9743
 20
99.4363
 30
0.000000
  70
    32
  0
VERTEX
  8
0
  5
E8F
 10
54.9809
 20
99.4606
 30
0.000000
  70
    32
  0
VERTEX
  8
0
  5
E90
 10
54.9868
 20
99.4849
 30
0.000000
  70
    32
  0
VERTEX
  8
0
  5
E91
 10
54.9919
 20
99.5093
 30
0.000000
  70
    32
  0
VERTEX
  8
0
  5
E92
 10
54.9963
 20
99.5336
 30
0.000000
  70
    32
  0
VERTEX
  8
0
  5
E93
 10
55.0000
 20
99.5580
 30
0.000000
  70
    32
  0
VERTEX
  8
0
  5
E94
 10
55.0030
 20
99.5823
 30
0.000000
  70
    32
  0
VERTEX
  8
0
  5
E95
 10
55.0052
 20
99.6067
 30
0.000000
  70
    32
  0
VERTEX
  8
0
  5
E96
 10
55.0066
 20
99.6311
 30
0.000000
  70
    32
  0
VERTEX
  8
0
  5
E97
 10
55.0074
 20
99.6555
 30
0.000000
  70
    32
  0
VERTEX
  8
0
  5
E98
 10
55.0074
 20
99.6799
 30
0.000000
  70
    32
  0
VERTEX
  8
0
  5
E99
 10
55.0067
 20
99.7043
 30
0.000000
  70
    32
  0
VERTEX
  8
0
  5
E9A
 10
55.0052
 20
99.7287
 30
0.000000
  70
    32
  0
VERTEX
  8
0
  5
E9B
 10
55.0030
 20
99.7531
 30
0.000000
  70
    32
  0
VERTEX
  8
0
  5
E9C
 10
55.0001
 20
99.7774
 30
0.000000
  70
    32
  0
VERTEX
  8
0
  5
E9D
 10
54.9964
 20
99.8018
 30
0.000000
  70
    32
  0
VERTEX
  8
0
  5
E9E
 10
54.9921
 20
99.8261
 30
0.000000
  70
    32
  0
VERTEX
  8
0
  5
E9F
 10
54.9869
 20
99.8505
 30
0.000000
  70
    32
  0
VERTEX
  8
0
  5
EA0
 10
54.9811
 20
99.8748
 30
0.000000
  70
    32
  0
VERTEX
  8
0
  5
EA1
 10
54.9745
 20
99.8991
 30
0.000000
  70
    32
  0
VERTEX
  8
0
  5
EA2
 10
54.9672
 20
99.9233
 30
0.000000
  70
    32
  0
VERTEX
  8
0
  5
EA3
 10
54.9592
 20
99.9476
 30
0.000000
  70
    32
  0
VERTEX
  8
0
  5
EA4
 10
54.9504
 20
99.9718
 30
0.000000
  70
    32
  0
VERTEX
  8
0
  5
EA5
 10
54.9409
 20
99.9960
 30
0.000000
  70
    32
  0
VERTEX
  8
0
  5
EA6
 10
54.9307
 20
100.020
 30
0.000000
  70
    32
  0
VERTEX
  8
0
  5
EA7
 10
54.9197
 20
100.044
 30
0.000000
  70
    32
  0
VERTEX
  8
0
  5
EA8
 10
54.9081
 20
100.068
 30
0.000000
  70
    32
  0
VERTEX
  8
0
  5
EA9
 10
54.8957
 20
100.092
 30
0.000000
  70
    32
  0
VERTEX
  8
0
  5
EAA
 10
54.8826
 20
100.116
 30
0.000000
  70
    32
  0
VERTEX
  8
0
  5
EAB
 10
54.8687
 20
100.140
 30
0.000000
  70
    32
  0
VERTEX
  8
0
  5
EAC
 10
54.8542
 20
100.164
 30
0.000000
  70
    32
  0
VERTEX
  8
0
  5
EAD
 10
54.8389
 20
100.188
 30
0.000000
  70
    32
  0
VERTEX
  8
0
  5
EAE
 10
54.8229
 20
100.212
 30
0.000000
  70
    32
  0
VERTEX
  8
0
  5
EAF
 10
54.8062
 20
100.235
 30
0.000000
  70
    32
  0
VERTEX
  8
0
  5
EB0
 10
54.7888
 20
100.259
 30
0.000000
  70
    32
  0
VERTEX
  8
0
  5
EB1
 10
54.7707
 20
100.283
 30
0.000000
  70
    32
  0
VERTEX
  8
0
  5
EB2
 10
54.7519
 20
100.306
 30
0.000000
  70
    32
  0
VERTEX
  8
0
  5
EB3
 10
54.7323
 20
100.330
 30
0.000000
  70
    32
  0
VERTEX
  8
0
  5
EB4
 10
54.7121
 20
100.353
 30
0.000000
  70
    32
  0
VERTEX
  8
0
  5
EB5
 10
54.6911
 20
100.376
 30
0.000000
  70
    32
  0
VERTEX
  8
0
  5
EB6
 10
54.6695
 20
100.400
 30
0.000000
  70
    32
  0
VERTEX
  8
0
  5
EB7
 10
54.6472
 20
100.423
 30
0.000000
  70
    32
  0
VERTEX
  8
0
  5
EB8
 10
54.6241
 20
100.446
 30
0.000000
  70
    32
  0
VERTEX
  8
0
  5
EB9
 10
54.6004
 20
100.469
 30
0.000000
  70
    32
  0
VERTEX
  8
0
  5
EBA
 10
54.5760
 20
100.492
 30
0.000000
  70
    32
  0
VERTEX
  8
0
  5
EBB
 10
54.5509
 20
100.515
 30
0.000000
  70
    32
  0
VERTEX
  8
0
  5
EBC
 10
54.5251
 20
100.537
 30
0.000000
  70
    32
  0
VERTEX
  8
0
  5
EBD
 10
54.4986
 20
100.560
 30
0.000000
  70
    32
  0
VERTEX
  8
0
  5
EBE
 10
54.4714
 20
100.583
 30
0.000000
  70
    32
  0
VERTEX
  8
0
  5
EBF
 10
54.4436
 20
100.605
 30
0.000000
  70
    32
  0
VERTEX
  8
0
  5
EC0
 10
54.4151
 20
100.628
 30
0.000000
  70
    32
  0
VERTEX
  8
0
  5
EC1
 10
54.3859
 20
100.650
 30
0.000000
  70
    32
  0
VERTEX
  8
0
  5
EC2
 10
54.3561
 20
100.672
 30
0.000000
  70
    32
  0
VERTEX
  8
0
  5
EC3
 10
54.3256
 20
100.694
 30
0.000000
  70
    32
  0
VERTEX
  8
0
  5
EC4
 10
54.2944
 20
100.716
 30
0.000000
  70
    32
  0
VERTEX
  8
0
  5
EC5
 10
54.2626
 20
100.738
 30
0.000000
  70
    32
  0
VERTEX
  8
0
  5
EC6
 10
54.2301
 20
100.760
 30
0.000000
  70
    32
  0
VERTEX
  8
0
  5
EC7
 10
54.1969
 20
100.781
 30
0.000000
  70
    32
  0
VERTEX
  8
0
  5
EC8
 10
54.1631
 20
100.803
 30
0.000000
  70
    32
  0
VERTEX
  8
0
  5
EC9
 10
54.1287
 20
100.824
 30
0.000000
  70
    32
  0
VERTEX
  8
0
  5
ECA
 10
54.0936
 20
100.845
 30
0.000000
  70
    32
  0
VERTEX
  8
0
  5
ECB
 10
54.0579
 20
100.867
 30
0.000000
  70
    32
  0
VERTEX
  8
0
  5
ECC
 10
54.0216
 20
100.888
 30
0.000000
  70
    32
  0
VERTEX
  8
0
  5
ECD
 10
53.9846
 20
100.909
 30
0.000000
  70
    32
  0
VERTEX
  8
0
  5
ECE
 10
53.9470
 20
100.929
 30
0.000000
  70
    32
  0
VERTEX
  8
0
  5
ECF
 10
53.9088
 20
100.950
 30
0.000000
  70
    32
  0
VERTEX
  8
0
  5
ED0
 10
53.8699
 20
100.970
 30
0.000000
  70
    32
  0
VERTEX
  8
0
  5
ED1
 10
53.8305
 20
100.991
 30
0.000000
  70
    32
  0
VERTEX
  8
0
  5
ED2
 10
53.7904
 20
101.011
 30
0.000000
  70
    32
  0
VERTEX
  8
0
  5
ED3
 10
53.7497
 20
101.031
 30
0.000000
  70
    32
  0
VERTEX
  8
0
  5
ED4
 10
53.7085
 20
101.051
 30
0.000000
  70
    32
  0
VERTEX
  8
0
  5
ED5
 10
53.6666
 20
101.071
 30
0.000000
  70
    32
  0
VERTEX
  8
0
  5
ED6
 10
53.6241
 20
101.090
 30
0.000000
  70
    32
  0
SEQEND
  8
0
  5
ED7
  0
LINE
  5
72F
  8
0
 10
41.507478422092703
 20
80.070658012374864
 30
0.0
 11
41.007478422092703
 21
99.668055520547995
 31
0.0
  0
ARC
  5
734
  8
0
 10
53.107163067645217
 20
103.93517525028059
 30
0.0
 40
1.5
 50
135.62248582632071
 51
194.54190412830249
  0
ARC
  5
76A
  8
0
 10
59.206516211033851
 20
108.1499877505741
 30
0.0
 40
9.0
 50
219.44968032693691
 51
231.6645676099084
  0
ARC
  5
76B
  8
0
 10
56.330839750564628
 20
105.3301382418524
 30
0.0
 40
5.0
 50
200.75171325611291
 51
215.43300582698109
  0
LINE
  5
771
  8
0
 10
51.537323871645768
 20
106.94717191392991
 30
0.0
 11
51.799217695238191
 21
106.3146837130363
 31
0.0
  0
LINE
  5
772
  8
0
 10
51.799217695238191
 20
106.3146837130363
 30
0.0
 11
52.08606558998418
 21
105.172855639492
 31
0.0
  0
ARC
  5
775
  8
0
 10
51.892092812897417
 20
105.12412616433321
 30
0.0
 40
0.2
 50
315.62248582632043
 51
14.10191193147306
  0
ARC
  5
776
  8
0
 10
51.352538528967237
 20
106.8706580123748
 30
0.0
 40
0.2
 50
22.492934975536091
 51
90.0
  0
LINE
  5
786
  8
0
 10
44.215739148947208
 20
106.3146837130363
 30
0.0
 11
43.928891254201211
 21
105.172855639492
 31
0.0
  0
ARC
  5
787
  8
0
 10
39.684117093620777
 20
105.3301382418524
 30
0.0
 40
5.0
 50
324.56699417301888
 51
339.24828674388721
  0
LINE
  5
788
  8
0
 10
43.922543100110218
 20
105.1284014703415
 30
0.0
 11
43.922543100110218
 21
102.65724813984301
 31
0.0
  0
ARC
  5
789
  8
0
 10
44.122864031287982
 20
105.12412616433321
 30
0.0
 40
0.2
 50
165.8980880685269
 51
224.37751417367971
  0
ARC
  5
78A
  8
0
 10
42.907793776540167
 20
103.93517525028059
 30
0.0
 40
1.5
 50
345.45809587169748
 51
44.377514173679231
  0
LINE
  5
78B
  8
0
 10
44.477632972539617
 20
106.94717191392991
 30
0.0
 11
44.215739148947208
 21
106.3146837130363
 31
0.0
  0
ARC
  5
78C
  8
0
 10
44.662418315218147
 20
106.8706580123748
 30
0.0
 40
0.2
 50
90.0
 51
157.50706502446391
  0
ARC
  5
78D
  8
0
 10
36.808440633151548
 20
108.1499877505741
 30
0.0
 40
9.0
 50
308.33543239009163
 51
320.55031967306309
  0
POLYLINE
  5
78E
  8
0
 10
42.523010187563891
 20
98.187068375330284
 30
0.0
 66
     1
 70
     8
  0
VERTEX
  8
0
  5
ED8
 10
42.5230
 20
98.1871
 30
0.000000
  70
    32
  0
VERTEX
  8
0
  5
ED9
 10
42.4788
 20
98.2063
 30
0.000000
  70
    32
  0
VERTEX
  8
0
  5
EDA
 10
42.4351
 20
98.2256
 30
0.000000
  70
    32
  0
VERTEX
  8
0
  5
EDB
 10
42.3921
 20
98.2451
 30
0.000000
  70
    32
  0
VERTEX
  8
0
  5
EDC
 10
42.3496
 20
98.2647
 30
0.000000
  70
    32
  0
VERTEX
  8
0
  5
EDD
 10
42.3077
 20
98.2845
 30
0.000000
  70
    32
  0
VERTEX
  8
0
  5
EDE
 10
42.2664
 20
98.3045
 30
0.000000
  70
    32
  0
VERTEX
  8
0
  5
EDF
 10
42.2257
 20
98.3245
 30
0.000000
  70
    32
  0
VERTEX
  8
0
  5
EE0
 10
42.1856
 20
98.3448
 30
0.000000
  70
    32
  0
VERTEX
  8
0
  5
EE1
 10
42.1462
 20
98.3651
 30
0.000000
  70
    32
  0
VERTEX
  8
0
  5
EE2
 10
42.1073
 20
98.3856
 30
0.000000
  70
    32
  0
VERTEX
  8
0
  5
EE3
 10
42.0691
 20
98.4062
 30
0.000000
  70
    32
  0
VERTEX
  8
0
  5
EE4
 10
42.0314
 20
98.4270
 30
0.000000
  70
    32
  0
VERTEX
  8
0
  5
EE5
 10
41.9944
 20
98.4479
 30
0.000000
  70
    32
  0
VERTEX
  8
0
  5
EE6
 10
41.9581
 20
98.4689
 30
0.000000
  70
    32
  0
VERTEX
  8
0
  5
EE7
 10
41.9224
 20
98.4900
 30
0.000000
  70
    32
  0
VERTEX
  8
0
  5
EE8
 10
41.8873
 20
98.5113
 30
0.000000
  70
    32
  0
VERTEX
  8
0
  5
EE9
 10
41.8528
 20
98.5327
 30
0.000000
  70
    32
  0
VERTEX
  8
0
  5
EEA
 10
41.8190
 20
98.5542
 30
0.000000
  70
    32
  0
VERTEX
  8
0
  5
EEB
 10
41.7858
 20
98.5758
 30
0.000000
  70
    32
  0
VERTEX
  8
0
  5
EEC
 10
41.7533
 20
98.5976
 30
0.000000
  70
    32
  0
VERTEX
  8
0
  5
EED
 10
41.7215
 20
98.6194
 30
0.000000
  70
    32
  0
VERTEX
  8
0
  5
EEE
 10
41.6903
 20
98.6414
 30
0.000000
  70
    32
  0
VERTEX
  8
0
  5
EEF
 10
41.6598
 20
98.6634
 30
0.000000
  70
    32
  0
VERTEX
  8
0
  5
EF0
 10
41.6299
 20
98.6856
 30
0.000000
  70
    32
  0
VERTEX
  8
0
  5
EF1
 10
41.6007
 20
98.7079
 30
0.000000
  70
    32
  0
VERTEX
  8
0
  5
EF2
 10
41.5722
 20
98.7303
 30
0.000000
  70
    32
  0
VERTEX
  8
0
  5
EF3
 10
41.5443
 20
98.7527
 30
0.000000
  70
    32
  0
VERTEX
  8
0
  5
EF4
 10
41.5171
 20
98.7753
 30
0.000000
  70
    32
  0
VERTEX
  8
0
  5
EF5
 10
41.4906
 20
98.7980
 30
0.000000
  70
    32
  0
VERTEX
  8
0
  5
EF6
 10
41.4648
 20
98.8207
 30
0.000000
  70
    32
  0
VERTEX
  8
0
  5
EF7
 10
41.4397
 20
98.8436
 30
0.000000
  70
    32
  0
VERTEX
  8
0
  5
EF8
 10
41.4153
 20
98.8665
 30
0.000000
  70
    32
  0
VERTEX
  8
0
  5
EF9
 10
41.3915
 20
98.8895
 30
0.000000
  70
    32
  0
VERTEX
  8
0
  5
EFA
 10
41.3685
 20
98.9126
 30
0.000000
  70
    32
  0
VERTEX
  8
0
  5
EFB
 10
41.3461
 20
98.9358
 30
0.000000
  70
    32
  0
VERTEX
  8
0
  5
EFC
 10
41.3244
 20
98.9590
 30
0.000000
  70
    32
  0
VERTEX
  8
0
  5
EFD
 10
41.3035
 20
98.9823
 30
0.000000
  70
    32
  0
VERTEX
  8
0
  5
EFE
 10
41.2832
 20
99.0057
 30
0.000000
  70
    32
  0
VERTEX
  8
0
  5
EFF
 10
41.2636
 20
99.0292
 30
0.000000
  70
    32
  0
VERTEX
  8
0
  5
F00
 10
41.2448
 20
99.0527
 30
0.000000
  70
    32
  0
VERTEX
  8
0
  5
F01
 10
41.2267
 20
99.0763
 30
0.000000
  70
    32
  0
VERTEX
  8
0
  5
F02
 10
41.2092
 20
99.1000
 30
0.000000
  70
    32
  0
VERTEX
  8
0
  5
F03
 10
41.1925
 20
99.1237
 30
0.000000
  70
    32
  0
VERTEX
  8
0
  5
F04
 10
41.1765
 20
99.1475
 30
0.000000
  70
    32
  0
VERTEX
  8
0
  5
F05
 10
41.1612
 20
99.1713
 30
0.000000
  70
    32
  0
VERTEX
  8
0
  5
F06
 10
41.1466
 20
99.1952
 30
0.000000
  70
    32
  0
VERTEX
  8
0
  5
F07
 10
41.1328
 20
99.2191
 30
0.000000
  70
    32
  0
VERTEX
  8
0
  5
F08
 10
41.1196
 20
99.2431
 30
0.000000
  70
    32
  0
VERTEX
  8
0
  5
F09
 10
41.1072
 20
99.2671
 30
0.000000
  70
    32
  0
VERTEX
  8
0
  5
F0A
 10
41.0955
 20
99.2912
 30
0.000000
  70
    32
  0
VERTEX
  8
0
  5
F0B
 10
41.0846
 20
99.3153
 30
0.000000
  70
    32
  0
VERTEX
  8
0
  5
F0C
 10
41.0743
 20
99.3395
 30
0.000000
  70
    32
  0
VERTEX
  8
0
  5
F0D
 10
41.0648
 20
99.3636
 30
0.000000
  70
    32
  0
VERTEX
  8
0
  5
F0E
 10
41.0560
 20
99.3878
 30
0.000000
  70
    32
  0
VERTEX
  8
0
  5
F0F
 10
41.0480
 20
99.4121
 30
0.000000
  70
    32
  0
VERTEX
  8
0
  5
F10
 10
41.0406
 20
99.4363
 30
0.000000
  70
    32
  0
VERTEX
  8
0
  5
F11
 10
41.0340
 20
99.4606
 30
0.000000
  70
    32
  0
VERTEX
  8
0
  5
F12
 10
41.0282
 20
99.4849
 30
0.000000
  70
    32
  0
VERTEX
  8
0
  5
F13
 10
41.0230
 20
99.5093
 30
0.000000
  70
    32
  0
VERTEX
  8
0
  5
F14
 10
41.0186
 20
99.5336
 30
0.000000
  70
    32
  0
VERTEX
  8
0
  5
F15
 10
41.0149
 20
99.5580
 30
0.000000
  70
    32
  0
VERTEX
  8
0
  5
F16
 10
41.0120
 20
99.5823
 30
0.000000
  70
    32
  0
VERTEX
  8
0
  5
F17
 10
41.0098
 20
99.6067
 30
0.000000
  70
    32
  0
VERTEX
  8
0
  5
F18
 10
41.0083
 20
99.6311
 30
0.000000
  70
    32
  0
VERTEX
  8
0
  5
F19
 10
41.0076
 20
99.6555
 30
0.000000
  70
    32
  0
VERTEX
  8
0
  5
F1A
 10
41.0076
 20
99.6799
 30
0.000000
  70
    32
  0
VERTEX
  8
0
  5
F1B
 10
41.0083
 20
99.7043
 30
0.000000
  70
    32
  0
VERTEX
  8
0
  5
F1C
 10
41.0097
 20
99.7287
 30
0.000000
  70
    32
  0
VERTEX
  8
0
  5
F1D
 10
41.0119
 20
99.7531
 30
0.000000
  70
    32
  0
VERTEX
  8
0
  5
F1E
 10
41.0149
 20
99.7774
 30
0.000000
  70
    32
  0
VERTEX
  8
0
  5
F1F
 10
41.0185
 20
99.8018
 30
0.000000
  70
    32
  0
VERTEX
  8
0
  5
F20
 10
41.0229
 20
99.8261
 30
0.000000
  70
    32
  0
VERTEX
  8
0
  5
F21
 10
41.0280
 20
99.8505
 30
0.000000
  70
    32
  0
VERTEX
  8
0
  5
F22
 10
41.0339
 20
99.8748
 30
0.000000
  70
    32
  0
VERTEX
  8
0
  5
F23
 10
41.0404
 20
99.8991
 30
0.000000
  70
    32
  0
VERTEX
  8
0
  5
F24
 10
41.0477
 20
99.9233
 30
0.000000
  70
    32
  0
VERTEX
  8
0
  5
F25
 10
41.0558
 20
99.9476
 30
0.000000
  70
    32
  0
VERTEX
  8
0
  5
F26
 10
41.0646
 20
99.9718
 30
0.000000
  70
    32
  0
VERTEX
  8
0
  5
F27
 10
41.0740
 20
99.9960
 30
0.000000
  70
    32
  0
VERTEX
  8
0
  5
F28
 10
41.0843
 20
100.020
 30
0.000000
  70
    32
  0
VERTEX
  8
0
  5
F29
 10
41.0952
 20
100.044
 30
0.000000
  70
    32
  0
VERTEX
  8
0
  5
F2A
 10
41.1069
 20
100.068
 30
0.000000
  70
    32
  0
VERTEX
  8
0
  5
F2B
 10
41.1193
 20
100.092
 30
0.000000
  70
    32
  0
VERTEX
  8
0
  5
F2C
 10
41.1324
 20
100.116
 30
0.000000
  70
    32
  0
VERTEX
  8
0
  5
F2D
 10
41.1462
 20
100.140
 30
0.000000
  70
    32
  0
VERTEX
  8
0
  5
F2E
 10
41.1608
 20
100.164
 30
0.000000
  70
    32
  0
VERTEX
  8
0
  5
F2F
 10
41.1760
 20
100.188
 30
0.000000
  70
    32
  0
VERTEX
  8
0
  5
F30
 10
41.1920
 20
100.212
 30
0.000000
  70
    32
  0
VERTEX
  8
0
  5
F31
 10
41.2087
 20
100.235
 30
0.000000
  70
    32
  0
VERTEX
  8
0
  5
F32
 10
41.2261
 20
100.259
 30
0.000000
  70
    32
  0
VERTEX
  8
0
  5
F33
 10
41.2443
 20
100.283
 30
0.000000
  70
    32
  0
VERTEX
  8
0
  5
F34
 10
41.2631
 20
100.306
 30
0.000000
  70
    32
  0
VERTEX
  8
0
  5
F35
 10
41.2826
 20
100.330
 30
0.000000
  70
    32
  0
VERTEX
  8
0
  5
F36
 10
41.3029
 20
100.353
 30
0.000000
  70
    32
  0
VERTEX
  8
0
  5
F37
 10
41.3238
 20
100.376
 30
0.000000
  70
    32
  0
VERTEX
  8
0
  5
F38
 10
41.3455
 20
100.400
 30
0.000000
  70
    32
  0
VERTEX
  8
0
  5
F39
 10
41.3678
 20
100.423
 30
0.000000
  70
    32
  0
VERTEX
  8
0
  5
F3A
 10
41.3908
 20
100.446
 30
0.000000
  70
    32
  0
VERTEX
  8
0
  5
F3B
 10
41.4146
 20
100.469
 30
0.000000
  70
    32
  0
VERTEX
  8
0
  5
F3C
 10
41.4390
 20
100.492
 30
0.000000
  70
    32
  0
VERTEX
  8
0
  5
F3D
 10
41.4641
 20
100.515
 30
0.000000
  70
    32
  0
VERTEX
  8
0
  5
F3E
 10
41.4899
 20
100.537
 30
0.000000
  70
    32
  0
VERTEX
  8
0
  5
F3F
 10
41.5164
 20
100.560
 30
0.000000
  70
    32
  0
VERTEX
  8
0
  5
F40
 10
41.5435
 20
100.583
 30
0.000000
  70
    32
  0
VERTEX
  8
0
  5
F41
 10
41.5713
 20
100.605
 30
0.000000
  70
    32
  0
VERTEX
  8
0
  5
F42
 10
41.5999
 20
100.628
 30
0.000000
  70
    32
  0
VERTEX
  8
0
  5
F43
 10
41.6290
 20
100.650
 30
0.000000
  70
    32
  0
VERTEX
  8
0
  5
F44
 10
41.6589
 20
100.672
 30
0.000000
  70
    32
  0
VERTEX
  8
0
  5
F45
 10
41.6894
 20
100.694
 30
0.000000
  70
    32
  0
VERTEX
  8
0
  5
F46
 10
41.7206
 20
100.716
 30
0.000000
  70
    32
  0
VERTEX
  8
0
  5
F47
 10
41.7524
 20
100.738
 30
0.000000
  70
    32
  0
VERTEX
  8
0
  5
F48
 10
41.7849
 20
100.760
 30
0.000000
  70
    32
  0
VERTEX
  8
0
  5
F49
 10
41.8180
 20
100.781
 30
0.000000
  70
    32
  0
VERTEX
  8
0
  5
F4A
 10
41.8518
 20
100.803
 30
0.000000
  70
    32
  0
VERTEX
  8
0
  5
F4B
 10
41.8862
 20
100.824
 30
0.000000
  70
    32
  0
VERTEX
  8
0
  5
F4C
 10
41.9213
 20
100.845
 30
0.000000
  70
    32
  0
VERTEX
  8
0
  5
F4D
 10
41.9570
 20
100.867
 30
0.000000
  70
    32
  0
VERTEX
  8
0
  5
F4E
 10
41.9934
 20
100.888
 30
0.000000
  70
    32
  0
VERTEX
  8
0
  5
F4F
 10
42.0304
 20
100.909
 30
0.000000
  70
    32
  0
VERTEX
  8
0
  5
F50
 10
42.0680
 20
100.929
 30
0.000000
  70
    32
  0
VERTEX
  8
0
  5
F51
 10
42.1062
 20
100.950
 30
0.000000
  70
    32
  0
VERTEX
  8
0
  5
F52
 10
42.1450
 20
100.970
 30
0.000000
  70
    32
  0
VERTEX
  8
0
  5
F53
 10
42.1845
 20
100.991
 30
0.000000
  70
    32
  0
VERTEX
  8
0
  5
F54
 10
42.2245
 20
101.011
 30
0.000000
  70
    32
  0
VERTEX
  8
0
  5
F55
 10
42.2652
 20
101.031
 30
0.000000
  70
    32
  0
VERTEX
  8
0
  5
F56
 10
42.3065
 20
101.051
 30
0.000000
  70
    32
  0
VERTEX
  8
0
  5
F57
 10
42.3484
 20
101.071
 30
0.000000
  70
    32
  0
VERTEX
  8
0
  5
F58
 10
42.3908
 20
101.090
 30
0.000000
  70
    32
  0
SEQEND
  8
0
  5
F59
  0
LINE
  5
9BE
  8
0
 10
185.21104586592639
 20
98.54053038488054
 30
0.0
 11
185.1907117089703
 21
98.792426579609042
 31
0.0
  0
ARC
  5
A0C
  8
0
 10
181.7052537881078
 20
106.0530657364792
 30
0.0
 40
1.0
 50
235.76817851301581
 51
304.2318214869839
  0
LINE
  5
A4C
  8
0
 10
177.91351451496229
 20
106.3146837130363
 30
0.0
 11
177.6266666202163
 21
105.172855639492
 31
0.0
  0
LINE
  5
A51
  8
0
 10
178.17540833855469
 20
106.94717191392991
 30
0.0
 11
177.91351451496229
 21
106.3146837130363
 31
0.0
  0
LINE
  5
A53
  8
0
 10
185.49699306125331
 20
106.3146837130363
 30
0.0
 11
185.7838409559993
 21
105.172855639492
 31
0.0
  0
ARC
  5
A58
  8
0
 10
185.05031389498231
 20
106.8706580123748
 30
0.0
 40
0.2
 50
22.492934975536091
 51
90.0
  0
LINE
  5
A59
  8
0
 10
185.2350992376609
 20
106.94717191392991
 30
0.0
 11
185.49699306125331
 21
106.3146837130363
 31
0.0
  0
ARC
  5
A63
  8
0
 10
185.087287747993
 20
106.67237051044491
 30
0.0
 40
0.4
 50
95.303685279422695
 51
111.7307513085735
  0
LINE
  5
A66
  8
0
 10
184.9391895959092
 20
107.0439441065862
 30
0.0
 11
182.27898999146419
 21
105.2339136921902
 31
0.0
  0
LINE
  5
A67
  8
0
 10
178.4713179803064
 20
107.0439441065862
 30
0.0
 11
181.13151758475141
 21
105.2339136921902
 31
0.0
  0
ARC
  5
A68
  8
0
 10
178.32321982822259
 20
106.67237051044491
 30
0.0
 40
0.4
 50
68.269248691426469
 51
84.696314720577305
  0
ARC
  5
A69
  8
0
 10
178.36019368123331
 20
106.8706580123748
 30
0.0
 40
0.2
 50
90.0
 51
157.50706502446391
  0
POLYLINE
  5
A84
  8
0
 10
182.29852966984257
 20
103.33406092927476
 30
0.0
 66
     1
 70
     8
  0
VERTEX
  8
0
  5
F5A
 10
182.299
 20
103.334
 30
0.000000
  70
    32
  0
VERTEX
  8
0
  5
F5B
 10
182.291
 20
103.345
 30
0.000000
  70
    32
  0
VERTEX
  8
0
  5
F5C
 10
182.283
 20
103.355
 30
0.000000
  70
    32
  0
VERTEX
  8
0
  5
F5D
 10
182.276
 20
103.366
 30
0.000000
  70
    32
  0
VERTEX
  8
0
  5
F5E
 10
182.268
 20
103.376
 30
0.000000
  70
    32
  0
VERTEX
  8
0
  5
F5F
 10
182.260
 20
103.386
 30
0.000000
  70
    32
  0
VERTEX
  8
0
  5
F60
 10
182.252
 20
103.396
 30
0.000000
  70
    32
  0
VERTEX
  8
0
  5
F61
 10
182.244
 20
103.406
 30
0.000000
  70
    32
  0
VERTEX
  8
0
  5
F62
 10
182.236
 20
103.416
 30
0.000000
  70
    32
  0
VERTEX
  8
0
  5
F63
 10
182.228
 20
103.425
 30
0.000000
  70
    32
  0
VERTEX
  8
0
  5
F64
 10
182.220
 20
103.435
 30
0.000000
  70
    32
  0
VERTEX
  8
0
  5
F65
 10
182.212
 20
103.444
 30
0.000000
  70
    32
  0
VERTEX
  8
0
  5
F66
 10
182.203
 20
103.453
 30
0.000000
  70
    32
  0
VERTEX
  8
0
  5
F67
 10
182.195
 20
103.462
 30
0.000000
  70
    32
  0
VERTEX
  8
0
  5
F68
 10
182.186
 20
103.471
 30
0.000000
  70
    32
  0
VERTEX
  8
0
  5
F69
 10
182.178
 20
103.479
 30
0.000000
  70
    32
  0
VERTEX
  8
0
  5
F6A
 10
182.169
 20
103.488
 30
0.000000
  70
    32
  0
VERTEX
  8
0
  5
F6B
 10
182.161
 20
103.496
 30
0.000000
  70
    32
  0
VERTEX
  8
0
  5
F6C
 10
182.152
 20
103.504
 30
0.000000
  70
    32
  0
VERTEX
  8
0
  5
F6D
 10
182.143
 20
103.512
 30
0.000000
  70
    32
  0
VERTEX
  8
0
  5
F6E
 10
182.134
 20
103.520
 30
0.000000
  70
    32
  0
VERTEX
  8
0
  5
F6F
 10
182.125
 20
103.528
 30
0.000000
  70
    32
  0
VERTEX
  8
0
  5
F70
 10
182.116
 20
103.536
 30
0.000000
  70
    32
  0
VERTEX
  8
0
  5
F71
 10
182.107
 20
103.543
 30
0.000000
  70
    32
  0
VERTEX
  8
0
  5
F72
 10
182.098
 20
103.550
 30
0.000000
  70
    32
  0
VERTEX
  8
0
  5
F73
 10
182.089
 20
103.557
 30
0.000000
  70
    32
  0
VERTEX
  8
0
  5
F74
 10
182.080
 20
103.564
 30
0.000000
  70
    32
  0
VERTEX
  8
0
  5
F75
 10
182.071
 20
103.571
 30
0.000000
  70
    32
  0
VERTEX
  8
0
  5
F76
 10
182.062
 20
103.577
 30
0.000000
  70
    32
  0
VERTEX
  8
0
  5
F77
 10
182.052
 20
103.584
 30
0.000000
  70
    32
  0
VERTEX
  8
0
  5
F78
 10
182.043
 20
103.590
 30
0.000000
  70
    32
  0
VERTEX
  8
0
  5
F79
 10
182.033
 20
103.596
 30
0.000000
  70
    32
  0
VERTEX
  8
0
  5
F7A
 10
182.024
 20
103.602
 30
0.000000
  70
    32
  0
VERTEX
  8
0
  5
F7B
 10
182.014
 20
103.607
 30
0.000000
  70
    32
  0
VERTEX
  8
0
  5
F7C
 10
182.005
 20
103.613
 30
0.000000
  70
    32
  0
VERTEX
  8
0
  5
F7D
 10
181.995
 20
103.618
 30
0.000000
  70
    32
  0
VERTEX
  8
0
  5
F7E
 10
181.986
 20
103.623
 30
0.000000
  70
    32
  0
VERTEX
  8
0
  5
F7F
 10
181.976
 20
103.628
 30
0.000000
  70
    32
  0
VERTEX
  8
0
  5
F80
 10
181.966
 20
103.633
 30
0.000000
  70
    32
  0
VERTEX
  8
0
  5
F81
 10
181.957
 20
103.638
 30
0.000000
  70
    32
  0
VERTEX
  8
0
  5
F82
 10
181.947
 20
103.642
 30
0.000000
  70
    32
  0
VERTEX
  8
0
  5
F83
 10
181.937
 20
103.647
 30
0.000000
  70
    32
  0
VERTEX
  8
0
  5
F84
 10
181.927
 20
103.651
 30
0.000000
  70
    32
  0
VERTEX
  8
0
  5
F85
 10
181.917
 20
103.655
 30
0.000000
  70
    32
  0
VERTEX
  8
0
  5
F86
 10
181.907
 20
103.658
 30
0.000000
  70
    32
  0
VERTEX
  8
0
  5
F87
 10
181.897
 20
103.662
 30
0.000000
  70
    32
  0
VERTEX
  8
0
  5
F88
 10
181.887
 20
103.665
 30
0.000000
  70
    32
  0
VERTEX
  8
0
  5
F89
 10
181.877
 20
103.669
 30
0.000000
  70
    32
  0
VERTEX
  8
0
  5
F8A
 10
181.867
 20
103.672
 30
0.000000
  70
    32
  0
VERTEX
  8
0
  5
F8B
 10
181.857
 20
103.675
 30
0.000000
  70
    32
  0
VERTEX
  8
0
  5
F8C
 10
181.847
 20
103.677
 30
0.000000
  70
    32
  0
VERTEX
  8
0
  5
F8D
 10
181.837
 20
103.680
 30
0.000000
  70
    32
  0
VERTEX
  8
0
  5
F8E
 10
181.827
 20
103.682
 30
0.000000
  70
    32
  0
VERTEX
  8
0
  5
F8F
 10
181.817
 20
103.684
 30
0.000000
  70
    32
  0
VERTEX
  8
0
  5
F90
 10
181.807
 20
103.686
 30
0.000000
  70
    32
  0
VERTEX
  8
0
  5
F91
 10
181.797
 20
103.688
 30
0.000000
  70
    32
  0
VERTEX
  8
0
  5
F92
 10
181.787
 20
103.689
 30
0.000000
  70
    32
  0
VERTEX
  8
0
  5
F93
 10
181.777
 20
103.691
 30
0.000000
  70
    32
  0
VERTEX
  8
0
  5
F94
 10
181.766
 20
103.692
 30
0.000000
  70
    32
  0
VERTEX
  8
0
  5
F95
 10
181.756
 20
103.693
 30
0.000000
  70
    32
  0
VERTEX
  8
0
  5
F96
 10
181.746
 20
103.694
 30
0.000000
  70
    32
  0
VERTEX
  8
0
  5
F97
 10
181.736
 20
103.694
 30
0.000000
  70
    32
  0
VERTEX
  8
0
  5
F98
 10
181.726
 20
103.695
 30
0.000000
  70
    32
  0
VERTEX
  8
0
  5
F99
 10
181.715
 20
103.695
 30
0.000000
  70
    32
  0
VERTEX
  8
0
  5
F9A
 10
181.705
 20
103.695
 30
0.000000
  70
    32
  0
VERTEX
  8
0
  5
F9B
 10
181.695
 20
103.695
 30
0.000000
  70
    32
  0
VERTEX
  8
0
  5
F9C
 10
181.685
 20
103.695
 30
0.000000
  70
    32
  0
VERTEX
  8
0
  5
F9D
 10
181.675
 20
103.694
 30
0.000000
  70
    32
  0
VERTEX
  8
0
  5
F9E
 10
181.664
 20
103.694
 30
0.000000
  70
    32
  0
VERTEX
  8
0
  5
F9F
 10
181.654
 20
103.693
 30
0.000000
  70
    32
  0
VERTEX
  8
0
  5
FA0
 10
181.644
 20
103.692
 30
0.000000
  70
    32
  0
VERTEX
  8
0
  5
FA1
 10
181.634
 20
103.691
 30
0.000000
  70
    32
  0
VERTEX
  8
0
  5
FA2
 10
181.624
 20
103.689
 30
0.000000
  70
    32
  0
VERTEX
  8
0
  5
FA3
 10
181.614
 20
103.688
 30
0.000000
  70
    32
  0
VERTEX
  8
0
  5
FA4
 10
181.604
 20
103.686
 30
0.000000
  70
    32
  0
VERTEX
  8
0
  5
FA5
 10
181.593
 20
103.684
 30
0.000000
  70
    32
  0
VERTEX
  8
0
  5
FA6
 10
181.583
 20
103.682
 30
0.000000
  70
    32
  0
VERTEX
  8
0
  5
FA7
 10
181.573
 20
103.680
 30
0.000000
  70
    32
  0
VERTEX
  8
0
  5
FA8
 10
181.563
 20
103.677
 30
0.000000
  70
    32
  0
VERTEX
  8
0
  5
FA9
 10
181.553
 20
103.675
 30
0.000000
  70
    32
  0
VERTEX
  8
0
  5
FAA
 10
181.543
 20
103.672
 30
0.000000
  70
    32
  0
VERTEX
  8
0
  5
FAB
 10
181.533
 20
103.669
 30
0.000000
  70
    32
  0
VERTEX
  8
0
  5
FAC
 10
181.523
 20
103.665
 30
0.000000
  70
    32
  0
VERTEX
  8
0
  5
FAD
 10
181.513
 20
103.662
 30
0.000000
  70
    32
  0
VERTEX
  8
0
  5
FAE
 10
181.503
 20
103.658
 30
0.000000
  70
    32
  0
VERTEX
  8
0
  5
FAF
 10
181.493
 20
103.655
 30
0.000000
  70
    32
  0
VERTEX
  8
0
  5
FB0
 10
181.483
 20
103.651
 30
0.000000
  70
    32
  0
VERTEX
  8
0
  5
FB1
 10
181.474
 20
103.647
 30
0.000000
  70
    32
  0
VERTEX
  8
0
  5
FB2
 10
181.464
 20
103.642
 30
0.000000
  70
    32
  0
VERTEX
  8
0
  5
FB3
 10
181.454
 20
103.638
 30
0.000000
  70
    32
  0
VERTEX
  8
0
  5
FB4
 10
181.444
 20
103.633
 30
0.000000
  70
    32
  0
VERTEX
  8
0
  5
FB5
 10
181.434
 20
103.628
 30
0.000000
  70
    32
  0
VERTEX
  8
0
  5
FB6
 10
181.425
 20
103.623
 30
0.000000
  70
    32
  0
VERTEX
  8
0
  5
FB7
 10
181.415
 20
103.618
 30
0.000000
  70
    32
  0
VERTEX
  8
0
  5
FB8
 10
181.406
 20
103.613
 30
0.000000
  70
    32
  0
VERTEX
  8
0
  5
FB9
 10
181.396
 20
103.607
 30
0.000000
  70
    32
  0
VERTEX
  8
0
  5
FBA
 10
181.387
 20
103.602
 30
0.000000
  70
    32
  0
VERTEX
  8
0
  5
FBB
 10
181.377
 20
103.596
 30
0.000000
  70
    32
  0
VERTEX
  8
0
  5
FBC
 10
181.368
 20
103.590
 30
0.000000
  70
    32
  0
VERTEX
  8
0
  5
FBD
 10
181.358
 20
103.584
 30
0.000000
  70
    32
  0
VERTEX
  8
0
  5
FBE
 10
181.349
 20
103.577
 30
0.000000
  70
    32
  0
VERTEX
  8
0
  5
FBF
 10
181.340
 20
103.571
 30
0.000000
  70
    32
  0
VERTEX
  8
0
  5
FC0
 10
181.330
 20
103.564
 30
0.000000
  70
    32
  0
VERTEX
  8
0
  5
FC1
 10
181.321
 20
103.557
 30
0.000000
  70
    32
  0
VERTEX
  8
0
  5
FC2
 10
181.312
 20
103.550
 30
0.000000
  70
    32
  0
VERTEX
  8
0
  5
FC3
 10
181.303
 20
103.543
 30
0.000000
  70
    32
  0
VERTEX
  8
0
  5
FC4
 10
181.294
 20
103.536
 30
0.000000
  70
    32
  0
VERTEX
  8
0
  5
FC5
 10
181.285
 20
103.528
 30
0.000000
  70
    32
  0
VERTEX
  8
0
  5
FC6
 10
181.276
 20
103.520
 30
0.000000
  70
    32
  0
VERTEX
  8
0
  5
FC7
 10
181.267
 20
103.512
 30
0.000000
  70
    32
  0
VERTEX
  8
0
  5
FC8
 10
181.259
 20
103.504
 30
0.000000
  70
    32
  0
VERTEX
  8
0
  5
FC9
 10
181.250
 20
103.496
 30
0.000000
  70
    32
  0
VERTEX
  8
0
  5
FCA
 10
181.241
 20
103.488
 30
0.000000
  70
    32
  0
VERTEX
  8
0
  5
FCB
 10
181.233
 20
103.479
 30
0.000000
  70
    32
  0
VERTEX
  8
0
  5
FCC
 10
181.224
 20
103.471
 30
0.000000
  70
    32
  0
VERTEX
  8
0
  5
FCD
 10
181.216
 20
103.462
 30
0.000000
  70
    32
  0
VERTEX
  8
0
  5
FCE
 10
181.207
 20
103.453
 30
0.000000
  70
    32
  0
VERTEX
  8
0
  5
FCF
 10
181.199
 20
103.444
 30
0.000000
  70
    32
  0
VERTEX
  8
0
  5
FD0
 10
181.191
 20
103.435
 30
0.000000
  70
    32
  0
VERTEX
  8
0
  5
FD1
 10
181.182
 20
103.425
 30
0.000000
  70
    32
  0
VERTEX
  8
0
  5
FD2
 10
181.174
 20
103.416
 30
0.000000
  70
    32
  0
VERTEX
  8
0
  5
FD3
 10
181.166
 20
103.406
 30
0.000000
  70
    32
  0
VERTEX
  8
0
  5
FD4
 10
181.158
 20
103.396
 30
0.000000
  70
    32
  0
VERTEX
  8
0
  5
FD5
 10
181.150
 20
103.386
 30
0.000000
  70
    32
  0
VERTEX
  8
0
  5
FD6
 10
181.142
 20
103.376
 30
0.000000
  70
    32
  0
VERTEX
  8
0
  5
FD7
 10
181.135
 20
103.366
 30
0.000000
  70
    32
  0
VERTEX
  8
0
  5
FD8
 10
181.127
 20
103.355
 30
0.000000
  70
    32
  0
VERTEX
  8
0
  5
FD9
 10
181.119
 20
103.345
 30
0.000000
  70
    32
  0
VERTEX
  8
0
  5
FDA
 10
181.112
 20
103.334
 30
0.000000
  70
    32
  0
SEQEND
  8
0
  5
FDB
  0
ARC
  5
A85
  8
0
 10
167.19612528095149
 20
90.22233405313807
 30
0.0
 40
20.0
 50
26.540009007947351
 51
40.96412461172509
  0
ARC
  5
A86
  8
0
 10
184.19395408150919
 20
98.711963966563829
 30
0.0
 40
1.0
 50
4.6151572348128216
 51
26.540009007947258
  0
LINE
  5
A87
  8
0
 10
185.21104586592639
 20
98.54053038488054
 30
0.0
 11
185.24099599152461
 21
98.248993957108311
 31
0.0
  0
ARC
  5
A88
  8
0
 10
196.2143822952641
 20
90.22233405313807
 30
0.0
 40
20.0
 50
139.0358753885001
 51
153.45999099205261
  0
LINE
  5
A89
  8
0
 10
178.1994617102892
 20
98.54053038488054
 30
0.0
 11
178.16951158469101
 21
98.248993957108311
 31
0.0
  0
LINE
  5
A8A
  8
0
 10
178.1994617102892
 20
98.54053038488054
 30
0.0
 11
178.2197958672453
 21
98.792426579609042
 31
0.0
  0
ARC
  5
A8B
  8
0
 10
179.2165534947064
 20
98.711963966563829
 30
0.0
 40
1.0
 50
153.4599909920527
 51
175.38484276518719
  0
ARC
  5
A8F
  8
0
 10
185.700665906724
 20
95.120658012374832
 30
0.0
 40
0.05
 50
187.4530187104076
 51
270.00000000001683
  0
ARC
  5
A90
  8
0
 10
177.7098416694916
 20
95.120658012374832
 30
0.0
 40
0.05
 50
269.99999999998317
 51
352.5469812895924
  0
LINE
  5
A91
  8
0
 10
177.75941924732589
 20
95.114172353111456
 30
0.0
 11
178.16951158469101
 21
98.248993957108311
 31
0.0
  0
LINE
  5
A92
  8
0
 10
185.78676681923531
 20
102.52897776916819
 30
0.0
 11
187.17938384081461
 21
101.07922731365051
 31
0.0
  0
LINE
  5
A93
  8
0
 10
187.17938384081461
 20
101.07922731365061
 30
0.0
 11
187.97082156394811
 21
100.7208962546941
 31
0.0
  0
ARC
  5
A97
  8
0
 10
187.4552537881078
 20
99.582173343483859
 30
0.0
 40
1.25
 50
0.0
 51
65.640901373421741
  0
LINE
  5
A98
  8
0
 10
177.62374075698031
 20
102.52897776916819
 30
0.0
 11
176.23112373540101
 21
101.07922731365051
 31
0.0
  0
ARC
  5
A99
  8
0
 10
175.9552537881078
 20
99.582173343483859
 30
0.0
 40
1.25
 50
114.3590986265782
 51
180.0
  0
LINE
  5
A9A
  8
0
 10
176.23112373540101
 20
101.07922731365061
 30
0.0
 11
175.43968601226749
 21
100.7208962546941
 31
0.0
  0
POLYLINE
  5
AAD
  8
0
 10
178.13225288417362
 20
94.56881653194695
 30
0.0
 66
     1
 70
     8
  0
VERTEX
  8
0
  5
FDC
 10
178.132
 20
94.5688
 30
0.000000
  70
    32
  0
VERTEX
  8
0
  5
FDD
 10
178.132
 20
94.5750
 30
0.000000
  70
    32
  0
VERTEX
  8
0
  5
FDE
 10
178.132
 20
94.5811
 30
0.000000
  70
    32
  0
VERTEX
  8
0
  5
FDF
 10
178.132
 20
94.5873
 30
0.000000
  70
    32
  0
VERTEX
  8
0
  5
FE0
 10
178.132
 20
94.5934
 30
0.000000
  70
    32
  0
VERTEX
  8
0
  5
FE1
 10
178.132
 20
94.5996
 30
0.000000
  70
    32
  0
VERTEX
  8
0
  5
FE2
 10
178.132
 20
94.6057
 30
0.000000
  70
    32
  0
VERTEX
  8
0
  5
FE3
 10
178.132
 20
94.6119
 30
0.000000
  70
    32
  0
VERTEX
  8
0
  5
FE4
 10
178.131
 20
94.6180
 30
0.000000
  70
    32
  0
VERTEX
  8
0
  5
FE5
 10
178.131
 20
94.6241
 30
0.000000
  70
    32
  0
VERTEX
  8
0
  5
FE6
 10
178.131
 20
94.6303
 30
0.000000
  70
    32
  0
VERTEX
  8
0
  5
FE7
 10
178.131
 20
94.6364
 30
0.000000
  70
    32
  0
VERTEX
  8
0
  5
FE8
 10
178.130
 20
94.6425
 30
0.000000
  70
    32
  0
VERTEX
  8
0
  5
FE9
 10
178.130
 20
94.6485
 30
0.000000
  70
    32
  0
VERTEX
  8
0
  5
FEA
 10
178.130
 20
94.6546
 30
0.000000
  70
    32
  0
VERTEX
  8
0
  5
FEB
 10
178.129
 20
94.6607
 30
0.000000
  70
    32
  0
VERTEX
  8
0
  5
FEC
 10
178.129
 20
94.6667
 30
0.000000
  70
    32
  0
VERTEX
  8
0
  5
FED
 10
178.129
 20
94.6728
 30
0.000000
  70
    32
  0
VERTEX
  8
0
  5
FEE
 10
178.128
 20
94.6788
 30
0.000000
  70
    32
  0
VERTEX
  8
0
  5
FEF
 10
178.128
 20
94.6848
 30
0.000000
  70
    32
  0
VERTEX
  8
0
  5
FF0
 10
178.127
 20
94.6908
 30
0.000000
  70
    32
  0
VERTEX
  8
0
  5
FF1
 10
178.127
 20
94.6967
 30
0.000000
  70
    32
  0
VERTEX
  8
0
  5
FF2
 10
178.126
 20
94.7027
 30
0.000000
  70
    32
  0
VERTEX
  8
0
  5
FF3
 10
178.125
 20
94.7086
 30
0.000000
  70
    32
  0
VERTEX
  8
0
  5
FF4
 10
178.125
 20
94.7145
 30
0.000000
  70
    32
  0
VERTEX
  8
0
  5
FF5
 10
178.124
 20
94.7204
 30
0.000000
  70
    32
  0
VERTEX
  8
0
  5
FF6
 10
178.124
 20
94.7262
 30
0.000000
  70
    32
  0
VERTEX
  8
0
  5
FF7
 10
178.123
 20
94.7321
 30
0.000000
  70
    32
  0
VERTEX
  8
0
  5
FF8
 10
178.122
 20
94.7379
 30
0.000000
  70
    32
  0
VERTEX
  8
0
  5
FF9
 10
178.121
 20
94.7437
 30
0.000000
  70
    32
  0
VERTEX
  8
0
  5
FFA
 10
178.121
 20
94.7494
 30
0.000000
  70
    32
  0
VERTEX
  8
0
  5
FFB
 10
178.120
 20
94.7552
 30
0.000000
  70
    32
  0
VERTEX
  8
0
  5
FFC
 10
178.119
 20
94.7609
 30
0.000000
  70
    32
  0
VERTEX
  8
0
  5
FFD
 10
178.118
 20
94.7666
 30
0.000000
  70
    32
  0
VERTEX
  8
0
  5
FFE
 10
178.117
 20
94.7722
 30
0.000000
  70
    32
  0
VERTEX
  8
0
  5
FFF
 10
178.117
 20
94.7778
 30
0.000000
  70
    32
  0
VERTEX
  8
0
  5
1000
 10
178.116
 20
94.7834
 30
0.000000
  70
    32
  0
VERTEX
  8
0
  5
1001
 10
178.115
 20
94.7889
 30
0.000000
  70
    32
  0
VERTEX
  8
0
  5
1002
 10
178.114
 20
94.7945
 30
0.000000
  70
    32
  0
VERTEX
  8
0
  5
1003
 10
178.113
 20
94.8000
 30
0.000000
  70
    32
  0
VERTEX
  8
0
  5
1004
 10
178.112
 20
94.8054
 30
0.000000
  70
    32
  0
VERTEX
  8
0
  5
1005
 10
178.111
 20
94.8108
 30
0.000000
  70
    32
  0
VERTEX
  8
0
  5
1006
 10
178.110
 20
94.8162
 30
0.000000
  70
    32
  0
VERTEX
  8
0
  5
1007
 10
178.109
 20
94.8215
 30
0.000000
  70
    32
  0
VERTEX
  8
0
  5
1008
 10
178.108
 20
94.8268
 30
0.000000
  70
    32
  0
VERTEX
  8
0
  5
1009
 10
178.107
 20
94.8321
 30
0.000000
  70
    32
  0
VERTEX
  8
0
  5
100A
 10
178.105
 20
94.8373
 30
0.000000
  70
    32
  0
VERTEX
  8
0
  5
100B
 10
178.104
 20
94.8425
 30
0.000000
  70
    32
  0
VERTEX
  8
0
  5
100C
 10
178.103
 20
94.8476
 30
0.000000
  70
    32
  0
VERTEX
  8
0
  5
100D
 10
178.102
 20
94.8527
 30
0.000000
  70
    32
  0
VERTEX
  8
0
  5
100E
 10
178.101
 20
94.8578
 30
0.000000
  70
    32
  0
VERTEX
  8
0
  5
100F
 10
178.100
 20
94.8628
 30
0.000000
  70
    32
  0
VERTEX
  8
0
  5
1010
 10
178.098
 20
94.8678
 30
0.000000
  70
    32
  0
VERTEX
  8
0
  5
1011
 10
178.097
 20
94.8727
 30
0.000000
  70
    32
  0
VERTEX
  8
0
  5
1012
 10
178.096
 20
94.8776
 30
0.000000
  70
    32
  0
VERTEX
  8
0
  5
1013
 10
178.094
 20
94.8824
 30
0.000000
  70
    32
  0
VERTEX
  8
0
  5
1014
 10
178.093
 20
94.8872
 30
0.000000
  70
    32
  0
VERTEX
  8
0
  5
1015
 10
178.092
 20
94.8919
 30
0.000000
  70
    32
  0
VERTEX
  8
0
  5
1016
 10
178.090
 20
94.8966
 30
0.000000
  70
    32
  0
VERTEX
  8
0
  5
1017
 10
178.089
 20
94.9013
 30
0.000000
  70
    32
  0
VERTEX
  8
0
  5
1018
 10
178.088
 20
94.9058
 30
0.000000
  70
    32
  0
VERTEX
  8
0
  5
1019
 10
178.086
 20
94.9104
 30
0.000000
  70
    32
  0
VERTEX
  8
0
  5
101A
 10
178.085
 20
94.9149
 30
0.000000
  70
    32
  0
VERTEX
  8
0
  5
101B
 10
178.083
 20
94.9193
 30
0.000000
  70
    32
  0
VERTEX
  8
0
  5
101C
 10
178.082
 20
94.9237
 30
0.000000
  70
    32
  0
VERTEX
  8
0
  5
101D
 10
178.080
 20
94.9280
 30
0.000000
  70
    32
  0
VERTEX
  8
0
  5
101E
 10
178.079
 20
94.9323
 30
0.000000
  70
    32
  0
VERTEX
  8
0
  5
101F
 10
178.077
 20
94.9365
 30
0.000000
  70
    32
  0
VERTEX
  8
0
  5
1020
 10
178.076
 20
94.9407
 30
0.000000
  70
    32
  0
VERTEX
  8
0
  5
1021
 10
178.074
 20
94.9448
 30
0.000000
  70
    32
  0
VERTEX
  8
0
  5
1022
 10
178.072
 20
94.9488
 30
0.000000
  70
    32
  0
VERTEX
  8
0
  5
1023
 10
178.071
 20
94.9528
 30
0.000000
  70
    32
  0
VERTEX
  8
0
  5
1024
 10
178.069
 20
94.9568
 30
0.000000
  70
    32
  0
VERTEX
  8
0
  5
1025
 10
178.068
 20
94.9606
 30
0.000000
  70
    32
  0
VERTEX
  8
0
  5
1026
 10
178.066
 20
94.9645
 30
0.000000
  70
    32
  0
VERTEX
  8
0
  5
1027
 10
178.064
 20
94.9682
 30
0.000000
  70
    32
  0
VERTEX
  8
0
  5
1028
 10
178.063
 20
94.9719
 30
0.000000
  70
    32
  0
VERTEX
  8
0
  5
1029
 10
178.061
 20
94.9755
 30
0.000000
  70
    32
  0
VERTEX
  8
0
  5
102A
 10
178.059
 20
94.9791
 30
0.000000
  70
    32
  0
VERTEX
  8
0
  5
102B
 10
178.057
 20
94.9826
 30
0.000000
  70
    32
  0
VERTEX
  8
0
  5
102C
 10
178.056
 20
94.9861
 30
0.000000
  70
    32
  0
VERTEX
  8
0
  5
102D
 10
178.054
 20
94.9895
 30
0.000000
  70
    32
  0
VERTEX
  8
0
  5
102E
 10
178.052
 20
94.9928
 30
0.000000
  70
    32
  0
VERTEX
  8
0
  5
102F
 10
178.050
 20
94.9961
 30
0.000000
  70
    32
  0
VERTEX
  8
0
  5
1030
 10
178.048
 20
94.9993
 30
0.000000
  70
    32
  0
VERTEX
  8
0
  5
1031
 10
178.047
 20
95.0024
 30
0.000000
  70
    32
  0
VERTEX
  8
0
  5
1032
 10
178.045
 20
95.0055
 30
0.000000
  70
    32
  0
VERTEX
  8
0
  5
1033
 10
178.043
 20
95.0085
 30
0.000000
  70
    32
  0
VERTEX
  8
0
  5
1034
 10
178.041
 20
95.0114
 30
0.000000
  70
    32
  0
VERTEX
  8
0
  5
1035
 10
178.039
 20
95.0143
 30
0.000000
  70
    32
  0
VERTEX
  8
0
  5
1036
 10
178.037
 20
95.0171
 30
0.000000
  70
    32
  0
VERTEX
  8
0
  5
1037
 10
178.035
 20
95.0198
 30
0.000000
  70
    32
  0
VERTEX
  8
0
  5
1038
 10
178.034
 20
95.0225
 30
0.000000
  70
    32
  0
VERTEX
  8
0
  5
1039
 10
178.032
 20
95.0251
 30
0.000000
  70
    32
  0
VERTEX
  8
0
  5
103A
 10
178.030
 20
95.0276
 30
0.000000
  70
    32
  0
VERTEX
  8
0
  5
103B
 10
178.028
 20
95.0301
 30
0.000000
  70
    32
  0
VERTEX
  8
0
  5
103C
 10
178.026
 20
95.0325
 30
0.000000
  70
    32
  0
VERTEX
  8
0
  5
103D
 10
178.024
 20
95.0348
 30
0.000000
  70
    32
  0
VERTEX
  8
0
  5
103E
 10
178.022
 20
95.0370
 30
0.000000
  70
    32
  0
VERTEX
  8
0
  5
103F
 10
178.020
 20
95.0392
 30
0.000000
  70
    32
  0
VERTEX
  8
0
  5
1040
 10
178.018
 20
95.0413
 30
0.000000
  70
    32
  0
VERTEX
  8
0
  5
1041
 10
178.016
 20
95.0434
 30
0.000000
  70
    32
  0
VERTEX
  8
0
  5
1042
 10
178.014
 20
95.0453
 30
0.000000
  70
    32
  0
VERTEX
  8
0
  5
1043
 10
178.012
 20
95.0472
 30
0.000000
  70
    32
  0
VERTEX
  8
0
  5
1044
 10
178.010
 20
95.0491
 30
0.000000
  70
    32
  0
VERTEX
  8
0
  5
1045
 10
178.008
 20
95.0508
 30
0.000000
  70
    32
  0
VERTEX
  8
0
  5
1046
 10
178.006
 20
95.0525
 30
0.000000
  70
    32
  0
VERTEX
  8
0
  5
1047
 10
178.004
 20
95.0541
 30
0.000000
  70
    32
  0
VERTEX
  8
0
  5
1048
 10
178.002
 20
95.0556
 30
0.000000
  70
    32
  0
VERTEX
  8
0
  5
1049
 10
178.000
 20
95.0571
 30
0.000000
  70
    32
  0
VERTEX
  8
0
  5
104A
 10
177.998
 20
95.0585
 30
0.000000
  70
    32
  0
VERTEX
  8
0
  5
104B
 10
177.996
 20
95.0598
 30
0.000000
  70
    32
  0
VERTEX
  8
0
  5
104C
 10
177.993
 20
95.0610
 30
0.000000
  70
    32
  0
VERTEX
  8
0
  5
104D
 10
177.991
 20
95.0622
 30
0.000000
  70
    32
  0
VERTEX
  8
0
  5
104E
 10
177.989
 20
95.0633
 30
0.000000
  70
    32
  0
VERTEX
  8
0
  5
104F
 10
177.987
 20
95.0643
 30
0.000000
  70
    32
  0
VERTEX
  8
0
  5
1050
 10
177.985
 20
95.0652
 30
0.000000
  70
    32
  0
VERTEX
  8
0
  5
1051
 10
177.983
 20
95.0661
 30
0.000000
  70
    32
  0
VERTEX
  8
0
  5
1052
 10
177.981
 20
95.0669
 30
0.000000
  70
    32
  0
VERTEX
  8
0
  5
1053
 10
177.979
 20
95.0676
 30
0.000000
  70
    32
  0
VERTEX
  8
0
  5
1054
 10
177.977
 20
95.0682
 30
0.000000
  70
    32
  0
VERTEX
  8
0
  5
1055
 10
177.975
 20
95.0688
 30
0.000000
  70
    32
  0
VERTEX
  8
0
  5
1056
 10
177.972
 20
95.0693
 30
0.000000
  70
    32
  0
VERTEX
  8
0
  5
1057
 10
177.970
 20
95.0697
 30
0.000000
  70
    32
  0
VERTEX
  8
0
  5
1058
 10
177.968
 20
95.0701
 30
0.000000
  70
    32
  0
VERTEX
  8
0
  5
1059
 10
177.966
 20
95.0703
 30
0.000000
  70
    32
  0
VERTEX
  8
0
  5
105A
 10
177.964
 20
95.0705
 30
0.000000
  70
    32
  0
VERTEX
  8
0
  5
105B
 10
177.962
 20
95.0706
 30
0.000000
  70
    32
  0
VERTEX
  8
0
  5
105C
 10
177.960
 20
95.0707
 30
0.000000
  70
    32
  0
SEQEND
  8
0
  5
105D
  0
ARC
  5
AAE
  8
0
 10
168.16545660062221
 20
95.383047173675209
 30
0.0
 40
10.0
 50
331.23365111884709
 51
355.32963180574501
  0
ARC
  5
AAF
  8
0
 10
195.2450509755935
 20
95.383047173675209
 30
0.0
 40
10.0
 50
184.6703681942551
 51
208.76634888115291
  0
POLYLINE
  5
AB0
  8
0
 10
185.27825469204197
 20
94.56881653194695
 30
0.0
 66
     1
 70
     8
  0
VERTEX
  8
0
  5
105E
 10
185.278
 20
94.5688
 30
0.000000
  70
    32
  0
VERTEX
  8
0
  5
105F
 10
185.278
 20
94.5750
 30
0.000000
  70
    32
  0
VERTEX
  8
0
  5
1060
 10
185.278
 20
94.5811
 30
0.000000
  70
    32
  0
VERTEX
  8
0
  5
1061
 10
185.278
 20
94.5873
 30
0.000000
  70
    32
  0
VERTEX
  8
0
  5
1062
 10
185.278
 20
94.5934
 30
0.000000
  70
    32
  0
VERTEX
  8
0
  5
1063
 10
185.279
 20
94.5996
 30
0.000000
  70
    32
  0
VERTEX
  8
0
  5
1064
 10
185.279
 20
94.6057
 30
0.000000
  70
    32
  0
VERTEX
  8
0
  5
1065
 10
185.279
 20
94.6119
 30
0.000000
  70
    32
  0
VERTEX
  8
0
  5
1066
 10
185.279
 20
94.6180
 30
0.000000
  70
    32
  0
VERTEX
  8
0
  5
1067
 10
185.279
 20
94.6241
 30
0.000000
  70
    32
  0
VERTEX
  8
0
  5
1068
 10
185.280
 20
94.6303
 30
0.000000
  70
    32
  0
VERTEX
  8
0
  5
1069
 10
185.280
 20
94.6364
 30
0.000000
  70
    32
  0
VERTEX
  8
0
  5
106A
 10
185.280
 20
94.6425
 30
0.000000
  70
    32
  0
VERTEX
  8
0
  5
106B
 10
185.280
 20
94.6485
 30
0.000000
  70
    32
  0
VERTEX
  8
0
  5
106C
 10
185.281
 20
94.6546
 30
0.000000
  70
    32
  0
VERTEX
  8
0
  5
106D
 10
185.281
 20
94.6607
 30
0.000000
  70
    32
  0
VERTEX
  8
0
  5
106E
 10
185.282
 20
94.6667
 30
0.000000
  70
    32
  0
VERTEX
  8
0
  5
106F
 10
185.282
 20
94.6728
 30
0.000000
  70
    32
  0
VERTEX
  8
0
  5
1070
 10
185.282
 20
94.6788
 30
0.000000
  70
    32
  0
VERTEX
  8
0
  5
1071
 10
185.283
 20
94.6848
 30
0.000000
  70
    32
  0
VERTEX
  8
0
  5
1072
 10
185.283
 20
94.6908
 30
0.000000
  70
    32
  0
VERTEX
  8
0
  5
1073
 10
185.284
 20
94.6967
 30
0.000000
  70
    32
  0
VERTEX
  8
0
  5
1074
 10
185.285
 20
94.7027
 30
0.000000
  70
    32
  0
VERTEX
  8
0
  5
1075
 10
185.285
 20
94.7086
 30
0.000000
  70
    32
  0
VERTEX
  8
0
  5
1076
 10
185.286
 20
94.7145
 30
0.000000
  70
    32
  0
VERTEX
  8
0
  5
1077
 10
185.286
 20
94.7204
 30
0.000000
  70
    32
  0
VERTEX
  8
0
  5
1078
 10
185.287
 20
94.7262
 30
0.000000
  70
    32
  0
VERTEX
  8
0
  5
1079
 10
185.288
 20
94.7321
 30
0.000000
  70
    32
  0
VERTEX
  8
0
  5
107A
 10
185.288
 20
94.7379
 30
0.000000
  70
    32
  0
VERTEX
  8
0
  5
107B
 10
185.289
 20
94.7437
 30
0.000000
  70
    32
  0
VERTEX
  8
0
  5
107C
 10
185.290
 20
94.7494
 30
0.000000
  70
    32
  0
VERTEX
  8
0
  5
107D
 10
185.291
 20
94.7552
 30
0.000000
  70
    32
  0
VERTEX
  8
0
  5
107E
 10
185.291
 20
94.7609
 30
0.000000
  70
    32
  0
VERTEX
  8
0
  5
107F
 10
185.292
 20
94.7666
 30
0.000000
  70
    32
  0
VERTEX
  8
0
  5
1080
 10
185.293
 20
94.7722
 30
0.000000
  70
    32
  0
VERTEX
  8
0
  5
1081
 10
185.294
 20
94.7778
 30
0.000000
  70
    32
  0
VERTEX
  8
0
  5
1082
 10
185.295
 20
94.7834
 30
0.000000
  70
    32
  0
VERTEX
  8
0
  5
1083
 10
185.296
 20
94.7889
 30
0.000000
  70
    32
  0
VERTEX
  8
0
  5
1084
 10
185.297
 20
94.7945
 30
0.000000
  70
    32
  0
VERTEX
  8
0
  5
1085
 10
185.298
 20
94.8000
 30
0.000000
  70
    32
  0
VERTEX
  8
0
  5
1086
 10
185.299
 20
94.8054
 30
0.000000
  70
    32
  0
VERTEX
  8
0
  5
1087
 10
185.300
 20
94.8108
 30
0.000000
  70
    32
  0
VERTEX
  8
0
  5
1088
 10
185.301
 20
94.8162
 30
0.000000
  70
    32
  0
VERTEX
  8
0
  5
1089
 10
185.302
 20
94.8215
 30
0.000000
  70
    32
  0
VERTEX
  8
0
  5
108A
 10
185.303
 20
94.8268
 30
0.000000
  70
    32
  0
VERTEX
  8
0
  5
108B
 10
185.304
 20
94.8321
 30
0.000000
  70
    32
  0
VERTEX
  8
0
  5
108C
 10
185.305
 20
94.8373
 30
0.000000
  70
    32
  0
VERTEX
  8
0
  5
108D
 10
185.306
 20
94.8425
 30
0.000000
  70
    32
  0
VERTEX
  8
0
  5
108E
 10
185.307
 20
94.8476
 30
0.000000
  70
    32
  0
VERTEX
  8
0
  5
108F
 10
185.309
 20
94.8527
 30
0.000000
  70
    32
  0
VERTEX
  8
0
  5
1090
 10
185.310
 20
94.8578
 30
0.000000
  70
    32
  0
VERTEX
  8
0
  5
1091
 10
185.311
 20
94.8628
 30
0.000000
  70
    32
  0
VERTEX
  8
0
  5
1092
 10
185.312
 20
94.8678
 30
0.000000
  70
    32
  0
VERTEX
  8
0
  5
1093
 10
185.313
 20
94.8727
 30
0.000000
  70
    32
  0
VERTEX
  8
0
  5
1094
 10
185.315
 20
94.8776
 30
0.000000
  70
    32
  0
VERTEX
  8
0
  5
1095
 10
185.316
 20
94.8824
 30
0.000000
  70
    32
  0
VERTEX
  8
0
  5
1096
 10
185.317
 20
94.8872
 30
0.000000
  70
    32
  0
VERTEX
  8
0
  5
1097
 10
185.319
 20
94.8919
 30
0.000000
  70
    32
  0
VERTEX
  8
0
  5
1098
 10
185.320
 20
94.8966
 30
0.000000
  70
    32
  0
VERTEX
  8
0
  5
1099
 10
185.322
 20
94.9013
 30
0.000000
  70
    32
  0
VERTEX
  8
0
  5
109A
 10
185.323
 20
94.9058
 30
0.000000
  70
    32
  0
VERTEX
  8
0
  5
109B
 10
185.324
 20
94.9104
 30
0.000000
  70
    32
  0
VERTEX
  8
0
  5
109C
 10
185.326
 20
94.9149
 30
0.000000
  70
    32
  0
VERTEX
  8
0
  5
109D
 10
185.327
 20
94.9193
 30
0.000000
  70
    32
  0
VERTEX
  8
0
  5
109E
 10
185.329
 20
94.9237
 30
0.000000
  70
    32
  0
VERTEX
  8
0
  5
109F
 10
185.330
 20
94.9280
 30
0.000000
  70
    32
  0
VERTEX
  8
0
  5
10A0
 10
185.332
 20
94.9323
 30
0.000000
  70
    32
  0
VERTEX
  8
0
  5
10A1
 10
185.333
 20
94.9365
 30
0.000000
  70
    32
  0
VERTEX
  8
0
  5
10A2
 10
185.335
 20
94.9407
 30
0.000000
  70
    32
  0
VERTEX
  8
0
  5
10A3
 10
185.336
 20
94.9448
 30
0.000000
  70
    32
  0
VERTEX
  8
0
  5
10A4
 10
185.338
 20
94.9488
 30
0.000000
  70
    32
  0
VERTEX
  8
0
  5
10A5
 10
185.340
 20
94.9528
 30
0.000000
  70
    32
  0
VERTEX
  8
0
  5
10A6
 10
185.341
 20
94.9568
 30
0.000000
  70
    32
  0
VERTEX
  8
0
  5
10A7
 10
185.343
 20
94.9606
 30
0.000000
  70
    32
  0
VERTEX
  8
0
  5
10A8
 10
185.345
 20
94.9645
 30
0.000000
  70
    32
  0
VERTEX
  8
0
  5
10A9
 10
185.346
 20
94.9682
 30
0.000000
  70
    32
  0
VERTEX
  8
0
  5
10AA
 10
185.348
 20
94.9719
 30
0.000000
  70
    32
  0
VERTEX
  8
0
  5
10AB
 10
185.350
 20
94.9755
 30
0.000000
  70
    32
  0
VERTEX
  8
0
  5
10AC
 10
185.351
 20
94.9791
 30
0.000000
  70
    32
  0
VERTEX
  8
0
  5
10AD
 10
185.353
 20
94.9826
 30
0.000000
  70
    32
  0
VERTEX
  8
0
  5
10AE
 10
185.355
 20
94.9861
 30
0.000000
  70
    32
  0
VERTEX
  8
0
  5
10AF
 10
185.357
 20
94.9895
 30
0.000000
  70
    32
  0
VERTEX
  8
0
  5
10B0
 10
185.358
 20
94.9928
 30
0.000000
  70
    32
  0
VERTEX
  8
0
  5
10B1
 10
185.360
 20
94.9961
 30
0.000000
  70
    32
  0
VERTEX
  8
0
  5
10B2
 10
185.362
 20
94.9993
 30
0.000000
  70
    32
  0
VERTEX
  8
0
  5
10B3
 10
185.364
 20
95.0024
 30
0.000000
  70
    32
  0
VERTEX
  8
0
  5
10B4
 10
185.366
 20
95.0055
 30
0.000000
  70
    32
  0
VERTEX
  8
0
  5
10B5
 10
185.368
 20
95.0085
 30
0.000000
  70
    32
  0
VERTEX
  8
0
  5
10B6
 10
185.369
 20
95.0114
 30
0.000000
  70
    32
  0
VERTEX
  8
0
  5
10B7
 10
185.371
 20
95.0143
 30
0.000000
  70
    32
  0
VERTEX
  8
0
  5
10B8
 10
185.373
 20
95.0171
 30
0.000000
  70
    32
  0
VERTEX
  8
0
  5
10B9
 10
185.375
 20
95.0198
 30
0.000000
  70
    32
  0
VERTEX
  8
0
  5
10BA
 10
185.377
 20
95.0225
 30
0.000000
  70
    32
  0
VERTEX
  8
0
  5
10BB
 10
185.379
 20
95.0251
 30
0.000000
  70
    32
  0
VERTEX
  8
0
  5
10BC
 10
185.381
 20
95.0276
 30
0.000000
  70
    32
  0
VERTEX
  8
0
  5
10BD
 10
185.383
 20
95.0301
 30
0.000000
  70
    32
  0
VERTEX
  8
0
  5
10BE
 10
185.385
 20
95.0325
 30
0.000000
  70
    32
  0
VERTEX
  8
0
  5
10BF
 10
185.387
 20
95.0348
 30
0.000000
  70
    32
  0
VERTEX
  8
0
  5
10C0
 10
185.389
 20
95.0370
 30
0.000000
  70
    32
  0
VERTEX
  8
0
  5
10C1
 10
185.391
 20
95.0392
 30
0.000000
  70
    32
  0
VERTEX
  8
0
  5
10C2
 10
185.393
 20
95.0413
 30
0.000000
  70
    32
  0
VERTEX
  8
0
  5
10C3
 10
185.395
 20
95.0434
 30
0.000000
  70
    32
  0
VERTEX
  8
0
  5
10C4
 10
185.397
 20
95.0453
 30
0.000000
  70
    32
  0
VERTEX
  8
0
  5
10C5
 10
185.399
 20
95.0472
 30
0.000000
  70
    32
  0
VERTEX
  8
0
  5
10C6
 10
185.401
 20
95.0491
 30
0.000000
  70
    32
  0
VERTEX
  8
0
  5
10C7
 10
185.403
 20
95.0508
 30
0.000000
  70
    32
  0
VERTEX
  8
0
  5
10C8
 10
185.405
 20
95.0525
 30
0.000000
  70
    32
  0
VERTEX
  8
0
  5
10C9
 10
185.407
 20
95.0541
 30
0.000000
  70
    32
  0
VERTEX
  8
0
  5
10CA
 10
185.409
 20
95.0556
 30
0.000000
  70
    32
  0
VERTEX
  8
0
  5
10CB
 10
185.411
 20
95.0571
 30
0.000000
  70
    32
  0
VERTEX
  8
0
  5
10CC
 10
185.413
 20
95.0585
 30
0.000000
  70
    32
  0
VERTEX
  8
0
  5
10CD
 10
185.415
 20
95.0598
 30
0.000000
  70
    32
  0
VERTEX
  8
0
  5
10CE
 10
185.417
 20
95.0610
 30
0.000000
  70
    32
  0
VERTEX
  8
0
  5
10CF
 10
185.419
 20
95.0622
 30
0.000000
  70
    32
  0
VERTEX
  8
0
  5
10D0
 10
185.421
 20
95.0633
 30
0.000000
  70
    32
  0
VERTEX
  8
0
  5
10D1
 10
185.423
 20
95.0643
 30
0.000000
  70
    32
  0
VERTEX
  8
0
  5
10D2
 10
185.425
 20
95.0652
 30
0.000000
  70
    32
  0
VERTEX
  8
0
  5
10D3
 10
185.427
 20
95.0661
 30
0.000000
  70
    32
  0
VERTEX
  8
0
  5
10D4
 10
185.430
 20
95.0669
 30
0.000000
  70
    32
  0
VERTEX
  8
0
  5
10D5
 10
185.432
 20
95.0676
 30
0.000000
  70
    32
  0
VERTEX
  8
0
  5
10D6
 10
185.434
 20
95.0682
 30
0.000000
  70
    32
  0
VERTEX
  8
0
  5
10D7
 10
185.436
 20
95.0688
 30
0.000000
  70
    32
  0
VERTEX
  8
0
  5
10D8
 10
185.438
 20
95.0693
 30
0.000000
  70
    32
  0
VERTEX
  8
0
  5
10D9
 10
185.440
 20
95.0697
 30
0.000000
  70
    32
  0
VERTEX
  8
0
  5
10DA
 10
185.442
 20
95.0701
 30
0.000000
  70
    32
  0
VERTEX
  8
0
  5
10DB
 10
185.444
 20
95.0703
 30
0.000000
  70
    32
  0
VERTEX
  8
0
  5
10DC
 10
185.446
 20
95.0705
 30
0.000000
  70
    32
  0
VERTEX
  8
0
  5
10DD
 10
185.449
 20
95.0706
 30
0.000000
  70
    32
  0
VERTEX
  8
0
  5
10DE
 10
185.451
 20
95.0707
 30
0.000000
  70
    32
  0
SEQEND
  8
0
  5
10DF
  0
LINE
  5
AB4
  8
0
 10
188.7052537881078
 20
99.582173343483859
 30
0.0
 11
188.2052537881078
 21
80.070658012374864
 31
0.0
  0
LINE
  5
AB5
  8
0
 10
174.7052537881078
 20
99.582173343483859
 30
0.0
 11
175.2052537881078
 21
80.070658012374864
 31
0.0
  0
CIRCLE
  5
AC8
  8
0
 10
99.582032253806247
 20
38.082721559807638
 30
0.0
 40
2.5
  0
CIRCLE
  5
AC9
  8
3
 10
99.582032253806247
 20
38.082721559807638
 30
0.0
 40
3.0
  0
LINE
  5
ADF
  8
2
 10
99.572032253806242
 20
88.490158012374906
 30
0.0
 11
102.0720322538064
 21
87.046782339400735
 31
0.0
  0
LINE
  5
AE0
  8
2
 10
102.0720322538064
 20
77.070658012375745
 30
0.0
 11
102.0720322538064
 21
87.046782339400735
 31
0.0
  0
LINE
  5
AE1
  8
2
 10
102.5720322538064
 20
76.570658012375318
 30
0.0
 11
102.5720322538064
 21
85.070658012374935
 31
0.0
  0
LINE
  5
AE2
  8
2
 10
102.0720322538064
 20
77.070658012375745
 30
0.0
 11
103.0720322538064
 21
76.070658012374849
 31
0.0
  0
LINE
  5
AE3
  8
2
 10
102.0720322538064
 20
85.936683416159326
 30
0.0
 11
102.5720322538064
 21
85.070658012374935
 31
0.0
  0
LINE
  5
AE4
  8
2
 10
97.072032253806057
 20
77.070658012375745
 30
0.0
 11
102.0720322538064
 21
77.070658012375745
 31
0.0
  0
LINE
  5
AE5
  8
2
 10
97.072032253806057
 20
85.936683416159326
 30
0.0
 11
96.572032253806086
 21
85.070658012374935
 31
0.0
  0
LINE
  5
AE6
  8
2
 10
96.572032253806086
 20
85.070658012374935
 30
0.0
 11
102.5720322538064
 21
85.070658012374935
 31
0.0
  0
LINE
  5
AE7
  8
2
 10
99.572032253806213
 20
88.490158012374906
 30
0.0
 11
97.072032253806015
 21
87.046782339400735
 31
0.0
  0
LINE
  5
AE8
  8
2
 10
97.072032253806015
 20
87.046782339400735
 30
0.0
 11
102.0720322538064
 21
87.046782339400735
 31
0.0
  0
LINE
  5
AE9
  8
2
 10
97.072032253806057
 20
77.070658012375745
 30
0.0
 11
96.072032253806057
 21
76.070658012374849
 31
0.0
  0
LINE
  5
AEA
  8
2
 10
96.572032253806086
 20
76.570658012375318
 30
0.0
 11
96.572032253806086
 21
85.070658012374935
 31
0.0
  0
LINE
  5
AEB
  8
2
 10
97.072032253806057
 20
77.070658012375745
 30
0.0
 11
97.072032253806057
 21
87.046782339400735
 31
0.0
  0
LINE
  5
C30
  8
2
 10
50.507478422092909
 20
77.070658012375745
 30
0.0
 11
50.507478422092937
 21
87.046782339400735
 31
0.0
  0
LINE
  5
C31
  8
2
 10
45.507478422092511
 20
77.070658012375745
 30
0.0
 11
45.507478422092511
 21
87.046782339400735
 31
0.0
  0
LINE
  5
C32
  8
2
 10
51.007478422092888
 20
76.570658012375318
 30
0.0
 11
51.007478422092888
 21
85.070658012374935
 31
0.0
  0
LINE
  5
C33
  8
2
 10
45.007478422092539
 20
76.570658012375318
 30
0.0
 11
45.007478422092539
 21
85.070658012374935
 31
0.0
  0
LINE
  5
C34
  8
2
 10
45.507478422092511
 20
77.070658012375745
 30
0.0
 11
50.507478422092909
 21
77.070658012375745
 31
0.0
  0
LINE
  5
C35
  8
2
 10
45.507478422092511
 20
77.070658012375745
 30
0.0
 11
44.507478422092518
 21
76.070658012374849
 31
0.0
  0
LINE
  5
C36
  8
2
 10
50.507478422092909
 20
77.070658012375745
 30
0.0
 11
51.507478422092909
 21
76.070658012374849
 31
0.0
  0
LINE
  5
C37
  8
2
 10
48.007478422092667
 20
88.490158012374906
 30
0.0
 11
45.50747842209249
 21
87.046782339400735
 31
0.0
  0
LINE
  5
C38
  8
2
 10
45.50747842209249
 20
87.046782339400735
 30
0.0
 11
50.507478422092888
 21
87.046782339400735
 31
0.0
  0
LINE
  5
C39
  8
2
 10
45.007478422092539
 20
85.070658012374935
 30
0.0
 11
51.007478422092909
 21
85.070658012374935
 31
0.0
  0
LINE
  5
C3A
  8
2
 10
45.507478422092511
 20
85.936683416159326
 30
0.0
 11
45.007478422092539
 21
85.070658012374935
 31
0.0
  0
LINE
  5
C3B
  8
2
 10
48.007478422092703
 20
88.490158012374906
 30
0.0
 11
50.507478422092888
 21
87.046782339400735
 31
0.0
  0
LINE
  5
C3C
  8
2
 10
50.507478422092909
 20
85.936683416159326
 30
0.0
 11
51.007478422092888
 21
85.070658012374935
 31
0.0
  0
LINE
  5
C3D
  8
2
 10
184.205253788108
 20
77.070658012375745
 30
0.0
 11
184.205253788108
 21
87.046782339400735
 31
0.0
  0
LINE
  5
C3E
  8
2
 10
179.2052537881076
 20
77.070658012375745
 30
0.0
 11
179.2052537881076
 21
87.046782339400735
 31
0.0
  0
LINE
  5
C3F
  8
2
 10
184.705253788108
 20
76.570658012375318
 30
0.0
 11
184.705253788108
 21
85.070658012374935
 31
0.0
  0
LINE
  5
C40
  8
2
 10
178.7052537881076
 20
76.570658012375318
 30
0.0
 11
178.7052537881076
 21
85.070658012374935
 31
0.0
  0
LINE
  5
C41
  8
2
 10
179.2052537881076
 20
77.070658012375745
 30
0.0
 11
184.205253788108
 21
77.070658012375745
 31
0.0
  0
LINE
  5
C42
  8
2
 10
179.2052537881076
 20
77.070658012375745
 30
0.0
 11
178.2052537881076
 21
76.070658012374849
 31
0.0
  0
LINE
  5
C43
  8
2
 10
184.205253788108
 20
77.070658012375745
 30
0.0
 11
185.205253788108
 21
76.070658012374849
 31
0.0
  0
LINE
  5
C44
  8
2
 10
181.7052537881078
 20
88.490158012374906
 30
0.0
 11
179.2052537881076
 21
87.046782339400735
 31
0.0
  0
LINE
  5
C45
  8
2
 10
179.2052537881076
 20
87.046782339400735
 30
0.0
 11
184.205253788108
 21
87.046782339400735
 31
0.0
  0
LINE
  5
C46
  8
2
 10
178.7052537881076
 20
85.070658012374935
 30
0.0
 11
184.705253788108
 21
85.070658012374935
 31
0.0
  0
LINE
  5
C47
  8
2
 10
179.2052537881076
 20
85.936683416159326
 30
0.0
 11
178.7052537881076
 21
85.070658012374935
 31
0.0
  0
LINE
  5
C48
  8
2
 10
181.7052537881078
 20
88.490158012374906
 30
0.0
 11
184.205253788108
 21
87.046782339400735
 31
0.0
  0
LINE
  5
C49
  8
2
 10
184.205253788108
 20
85.936683416159326
 30
0.0
 11
184.705253788108
 21
85.070658012374935
 31
0.0
  0
LINE
  5
C92
  8
0
 10
52.007478422092689
 20
99.988861242650358
 30
0.0
 11
52.007478422092689
 21
98.864757312671088
 31
0.0
  0
LINE
  5
C93
  8
0
 10
44.007478422092767
 20
99.988861242650415
 30
0.0
 11
44.007478422092717
 21
98.864757312671074
 31
0.0
  0
LINE
  5
C96
  8
0
 10
50.76427003554484
 20
100.57065801237481
 30
0.0
 11
45.250686808640559
 21
100.57065801237481
 31
0.0
  0
CIRCLE
  5
CA2
  8
0
 10
99.582032253806247
 20
138.13457632800669
 30
0.0
 40
4.0
  0
ARC
  5
CA5
  8
0
 10
97.751370347794335
 20
139.1915094722379
 30
0.0
 40
0.6912500000000005
 50
309.68887794065949
 51
16.658241772777039
  0
ARC
  5
CA6
  8
0
 10
98.792032253806283
 20
139.50289646598611
 30
0.0
 40
0.3949999999999998
 50
43.341758227222279
 51
196.65824177277699
  0
ARC
  5
CA7
  8
0
 10
99.582032253806275
 20
140.24844261646911
 30
0.0
 40
0.6912499999999989
 50
223.3417582272223
 51
316.65824177277773
  0
ARC
  5
CA8
  8
0
 10
100.3720322538062
 20
139.50289646598611
 30
0.0
 40
0.3950000000000002
 50
343.3417582272229
 51
136.6582417727777
  0
ARC
  5
CA9
  8
0
 10
97.751370347794335
 20
137.07764318377551
 30
0.0
 40
0.691250000000001
 50
343.3417582272229
 51
50.311122059331304
  0
ARC
  5
CAA
  8
0
 10
98.792032253806283
 20
136.76625619002729
 30
0.0
 40
0.3950000000000001
 50
163.3417582272229
 51
316.65824177277773
  0
ARC
  5
CAB
  8
0
 10
99.582032253806275
 20
136.0207100395443
 30
0.0
 40
0.6912500000000003
 50
43.341758227222279
 51
136.65824177277651
  0
ARC
  5
CAC
  8
0
 10
100.3720322538062
 20
136.76625619002729
 30
0.0
 40
0.3949999999999998
 50
223.3417582272223
 51
16.658241772777039
  0
ARC
  5
CAD
  8
0
 10
101.4126941598182
 20
137.07764318377551
 30
0.0
 40
0.6912500000000003
 50
129.6888779406687
 51
196.65824177277699
  0
ARC
  5
CAE
  8
0
 10
101.4126941598182
 20
139.1915094722379
 30
0.0
 40
0.6912500000000011
 50
163.3417582272229
 51
230.31112205934281
  0
ARC
  5
CAF
  8
0
 10
48.007478422092682
 20
93.060658012374844
 30
0.0
 40
8.0
 50
60.000000000000277
 51
69.842683784424523
  0
LINE
  5
CB0
  8
0
 10
44.007478422092767
 20
99.988861242650415
 30
0.0
 11
52.007478422092689
 21
99.988861242650358
 31
0.0
  0
ARC
  5
CB1
  8
0
 10
48.007478422092682
 20
93.060658012374844
 30
0.0
 40
8.0
 50
110.15731621557541
 51
119.9999999999997
  0
LINE
  5
CB2
  8
0
 10
96.832032253806247
 20
137.60957632800671
 30
0.0
 11
98.192815352940315
 21
137.60957632800671
 31
0.0
  0
LINE
  5
CB3
  8
0
 10
96.832032253806247
 20
138.65957632800669
 30
0.0
 11
98.192815352940244
 21
138.65957632800669
 31
0.0
  0
LINE
  5
CB4
  8
0
 10
100.97124915467229
 20
138.65957632800669
 30
0.0
 11
102.3320322538062
 21
138.65957632800669
 31
0.0
  0
LINE
  5
CB5
  8
0
 10
100.97124915467219
 20
137.60957632800671
 30
0.0
 11
102.3320322538062
 21
137.60957632800671
 31
0.0
  0
ARC
  5
CB6
  8
0
 10
99.582032253806247
 20
138.13457632800669
 30
0.0
 40
2.7567916134521511
 50
355.97735839170269
 51
4.0226416083006269
  0
LINE
  5
CB7
  8
0
 10
102.3320322538062
 20
138.65957632800669
 30
0.0
 11
102.3320322538062
 21
137.60957632800671
 31
0.0
  0
LINE
  5
CB8
  8
0
 10
96.832032253806275
 20
138.65957632800669
 30
0.0
 11
96.832032253806275
 21
137.60957632800671
 31
0.0
  0
ARC
  5
CB9
  8
0
 10
99.582032253806247
 20
138.13457632800669
 30
0.0
 40
2.7567916134521511
 50
10.9783913299381
 51
169.02160867006191
  0
ARC
  5
CBA
  8
0
 10
99.582032253806247
 20
138.13457632800669
 30
0.0
 40
2.7567916134521511
 50
190.97839132993809
 51
349.02160867006188
  0
ARC
  5
CBB
  8
0
 10
99.582032253806247
 20
138.13457632800669
 30
0.0
 40
2.7567916134521511
 50
175.9773583916961
 51
184.02264160830379
  0
ARC
  5
CBD
  8
0
 10
99.572032253806242
 20
93.060658012374844
 30
0.0
 40
8.0
 50
110.15731621557541
 51
119.9999999999997
  0
LINE
  5
CBE
  8
0
 10
95.572032253806299
 20
99.988861242650415
 30
0.0
 11
100.5423045336602
 21
99.988861242650387
 31
0.0
  0
ARC
  5
CBF
  8
0
 10
99.572032253806242
 20
93.060658012374844
 30
0.0
 40
8.0
 50
69.728484327266628
 51
69.842683784424523
  0
LINE
  5
CC0
  8
0
 10
102.32882386725839
 20
100.57065801237481
 30
0.0
 11
96.815240640354105
 21
100.57065801237481
 31
0.0
  0
LINE
  5
CC2
  8
0
 10
95.572032253806299
 20
99.988861242650415
 30
0.0
 11
95.572032253806228
 21
98.267250624129616
 31
0.0
  0
POLYLINE
  5
CC7
  8
0
 66
     1
 10
0.0
 20
0.0
 30
0.0
 70
     1
  0
VERTEX
  5
CC8
  8
0
 10
52.712978626524617
 20
99.756261873849851
 30
0.0
 42
0.2172434185878571
  0
VERTEX
  5
CD7
  8
0
 10
52.470865989425093
 20
100.2872013255903
 30
0.0
 42
0.0927145054771177
  0
VERTEX
  5
CC9
  8
0
 10
51.334769525521203
 20
100.9531923670566
 30
0.0
 42
0.0493901968537925
 70
     2
 50
160.21475784141541
  0
VERTEX
  5
CD8
  8
0
 10
49.931696450483507
 20
101.306404654725
 30
0.0
 42
0.0369961751365321
 50
160.21475784141541
  0
VERTEX
  5
CCA
  8
0
 10
48.007478422092703
 20
101.4489772105608
 30
0.0
 42
0.0369961751365343
  0
VERTEX
  5
CD1
  8
0
 10
46.083260393701998
 20
101.306404654725
 30
0.0
 42
0.049390196853802
  0
VERTEX
  5
CCB
  8
0
 10
44.680187318664203
 20
100.9531923670566
 30
0.0
 42
0.0927145054771286
 70
     2
 50
199.78524215858459
  0
VERTEX
  5
CD2
  8
0
 10
43.54409085476032
 20
100.2872013255902
 30
0.0
 42
0.2172434185878735
 50
199.78524215858459
  0
VERTEX
  5
CCC
  8
0
 10
43.301978217660782
 20
99.756261873849851
 30
0.0
 42
0.2172434185878687
  0
VERTEX
  5
CD3
  8
0
 10
43.54409085476032
 20
99.225322422109429
 30
0.0
 42
0.0927145054771203
  0
VERTEX
  5
CCD
  8
0
 10
44.680187318664203
 20
98.559331380643059
 30
0.0
 42
0.0493901968538118
 70
     2
 50
340.21475784141541
  0
VERTEX
  5
CD4
  8
0
 10
46.083260393702062
 20
98.206119092974646
 30
0.0
 42
0.0369961751365391
 50
340.21475784141541
  0
VERTEX
  5
CCE
  8
0
 10
48.007478422092703
 20
98.06354653713889
 30
0.0
 42
0.0369961751365416
  0
VERTEX
  5
CD5
  8
0
 10
49.9316964504834
 20
98.206119092974674
 30
0.0
 42
0.0493901968538115
  0
VERTEX
  5
CCF
  8
0
 10
51.334769525521203
 20
98.559331380643059
 30
0.0
 42
0.092714505477122
 70
     2
 50
19.78524215858458
  0
VERTEX
  5
CD6
  8
0
 10
52.470865989425072
 20
99.225322422109429
 30
0.0
 42
0.2172434185878745
 50
19.78524215858458
  0
SEQEND
  5
CD0
  8
0
  0
TEXT
  5
DC5
  8
0
 62
     3
 10
0.0
 20
0.0
 30
0.0
 40
10.0
  1
FKF6L-OG
  7
STANDARD1
  0
ENDSEC
  0
EOF
