  0
SECTION
  2
HEADER
  9
$ACADVER
  1
AC1009
  9
$INSBASE
 10
0.0
 20
0.0
 30
0.0
  9
$EXTMIN
 10
0.0
 20
-2.960436562073669
 30
0.0
  9
$EXTMAX
 10
162.4890870880705052
 20
118.9622291550039961
 30
0.0
  9
$LIMMIN
 10
0.0
 20
0.0
  9
$LIMMAX
 10
187.5
 20
135.0
  9
$ORTHOMODE
 70
     1
  9
$REGENMODE
 70
     1
  9
$FILLMODE
 70
     1
  9
$QTEXTMODE
 70
     0
  9
$MIRRTEXT
 70
     0
  9
$DRAGMODE
 70
     2
  9
$LTSCALE
 40
5.0
  9
$OSMODE
 70
    37
  9
$ATTMODE
 70
     1
  9
$TEXTSIZE
 40
0.2
  9
$TRACEWID
 40
0.05
  9
$TEXTSTYLE
  7
STANDARD
  9
$CLAYER
  8
0
  9
$CELTYPE
  6
BYLAYER
  9
$CECOLOR
 62
   256
  9
$DIMSCALE
 40
1.0
  9
$DIMASZ
 40
3.0
  9
$DIMEXO
 40
2.0
  9
$DIMDLI
 40
0.3799999999999999
  9
$DIMRND
 40
0.0
  9
$DIMDLE
 40
0.0
  9
$DIMEXE
 40
2.0
  9
$DIMTP
 40
0.0
  9
$DIMTM
 40
0.0
  9
$DIMTXT
 40
3.0
  9
$DIMCEN
 40
0.0
  9
$DIMTSZ
 40
0.0
  9
$DIMTOL
 70
     0
  9
$DIMLIM
 70
     0
  9
$DIMTIH
 70
     0
  9
$DIMTOH
 70
     0
  9
$DIMSE1
 70
     0
  9
$DIMSE2
 70
     0
  9
$DIMTAD
 70
     1
  9
$DIMZIN
 70
     8
  9
$DIMBLK
  1

  9
$DIMASO
 70
     0
  9
$DIMSHO
 70
     0
  9
$DIMPOST
  1

  9
$DIMAPOST
  1

  9
$DIMALT
 70
     0
  9
$DIMALTD
 70
     2
  9
$DIMALTF
 40
25.3999999999999986
  9
$DIMLFAC
 40
1.0
  9
$DIMTOFL
 70
     1
  9
$DIMTVP
 40
1.6000000000000001
  9
$DIMTIX
 70
     1
  9
$DIMSOXD
 70
     0
  9
$DIMSAH
 70
     0
  9
$DIMBLK1
  1

  9
$DIMBLK2
  1

  9
$DIMSTYLE
  2
STANDARD
  9
$DIMCLRD
 70
   256
  9
$DIMCLRE
 70
   256
  9
$DIMCLRT
 70
   256
  9
$DIMTFAC
 40
1.0
  9
$DIMGAP
 40
1.1999999999999991
  9
$LUNITS
 70
     2
  9
$LUPREC
 70
     1
  9
$SKETCHINC
 40
0.1
  9
$FILLETRAD
 40
0.4
  9
$AUNITS
 70
     0
  9
$AUPREC
 70
     1
  9
$MENU
  1
E:\r13\win\SUPPORT\ACAD
  9
$ELEVATION
 40
0.0
  9
$PELEVATION
 40
0.0
  9
$THICKNESS
 40
0.0
  9
$LIMCHECK
 70
     0
  9
$BLIPMODE
 70
     0
  9
$CHAMFERA
 40
0.5
  9
$CHAMFERB
 40
0.5
  9
$SKPOLY
 70
     0
  9
$TDCREATE
 40
2451824.6906134258024395
  9
$TDUPDATE
 40
2460091.3957754629664123
  9
$TDINDWG
 40
2.8005847105999999
  9
$TDUSRTIMER
 40
2.8005845255000001
  9
$USRTIMER
 70
     1
  9
$ANGBASE
 50
0.0
  9
$ANGDIR
 70
     0
  9
$PDMODE
 70
     0
  9
$PDSIZE
 40
0.0
  9
$PLINEWID
 40
0.0
  9
$COORDS
 70
     1
  9
$SPLFRAME
 70
     0
  9
$SPLINETYPE
 70
     6
  9
$SPLINESEGS
 70
     8
  9
$ATTDIA
 70
     1
  9
$ATTREQ
 70
     1
  9
$HANDLING
 70
     1
  9
$HANDSEED
  5
1DDBF
  9
$SURFTAB1
 70
     6
  9
$SURFTAB2
 70
     6
  9
$SURFTYPE
 70
     6
  9
$SURFU
 70
     6
  9
$SURFV
 70
     6
  9
$UCSNAME
  2

  9
$UCSORG
 10
0.0
 20
0.0
 30
0.0
  9
$UCSXDIR
 10
1.0
 20
0.0
 30
0.0
  9
$UCSYDIR
 10
0.0
 20
1.0
 30
0.0
  9
$PUCSNAME
  2

  9
$PUCSORG
 10
0.0
 20
0.0
 30
0.0
  9
$PUCSXDIR
 10
1.0
 20
0.0
 30
0.0
  9
$PUCSYDIR
 10
0.0
 20
1.0
 30
0.0
  9
$USERI1
 70
     0
  9
$USERI2
 70
     1
  9
$USERI3
 70
     0
  9
$USERI4
 70
     0
  9
$USERI5
 70
     0
  9
$USERR1
 40
0.0
  9
$USERR2
 40
0.0
  9
$USERR3
 40
0.0
  9
$USERR4
 40
0.0
  9
$USERR5
 40
0.0
  9
$WORLDVIEW
 70
     1
  9
$SHADEDGE
 70
     3
  9
$SHADEDIF
 70
    70
  9
$TILEMODE
 70
     1
  9
$MAXACTVP
 70
    16
  9
$PLIMCHECK
 70
     0
  9
$PEXTMIN
 10
1.0000000000000000E+20
 20
1.0000000000000000E+20
 30
1.0000000000000000E+20
  9
$PEXTMAX
 10
-1.0000000000000000E+20
 20
-1.0000000000000000E+20
 30
-1.0000000000000000E+20
  9
$PLIMMIN
 10
0.0
 20
0.0
  9
$PLIMMAX
 10
12.0
 20
9.0
  9
$UNITMODE
 70
     0
  9
$VISRETAIN
 70
     0
  9
$PLINEGEN
 70
     0
  9
$PSLTSCALE
 70
     0
  0
ENDSEC
  0
SECTION
  2
TABLES
  0
TABLE
  2
VPORT
 70
     1
  0
VPORT
  2
*ACTIVE
 70
     0
 10
0.0
 20
0.0
 11
1.0
 21
1.0
 12
293.5652709359605979
 22
125.0
 13
0.0
 23
0.0
 14
5.0
 24
5.0
 15
5.0
 25
5.0
 16
0.0
 26
0.0
 36
1.0
 17
0.0
 27
0.0
 37
0.0
 40
250.0
 41
2.3485221674876842
 42
50.0
 43
0.0
 44
0.0
 50
0.0
 51
0.0
 71
     0
 72
   500
 73
     1
 74
     0
 75
     0
 76
     0
 77
     0
 78
     0
  0
ENDTAB
  0
TABLE
  2
LTYPE
 70
     4
  0
LTYPE
  2
CONTINUOUS
 70
     0
  3
Solid Line
 72
    65
 73
     0
 40
0.0
  0
LTYPE
  2
CENTER
 70
     0
  3
____ _ ____ _ ____ _ ____ _ ____ _ ____ _ ____
 72
    65
 73
     4
 40
2.0
 49
1.25
 49
-0.25
 49
0.25
 49
-0.25
  0
LTYPE
  2
PHANTOM2
 70
     0
  3
___ _ _ ___ _ _ ___ _ _ ___ _ _
 72
    65
 73
     6
 40
1.25
 49
0.625
 49
-0.125
 49
0.125
 49
-0.125
 49
0.125
 49
-0.125
  0
LTYPE
  2
HIDDEN
 70
     0
  3
__ __ __ __ __ __ __ __ __ __ __ __ __ __ __ __
 72
    65
 73
     2
 40
0.375
 49
0.25
 49
-0.125
  0
ENDTAB
  0
TABLE
  2
LAYER
 70
     5
  0
LAYER
  2
0
 70
     0
 62
     7
  6
CONTINUOUS
  0
LAYER
  2
1
 70
     0
 62
     1
  6
CENTER
  0
LAYER
  2
2
 70
     0
 62
     2
  6
HIDDEN
  0
LAYER
  2
3
 70
     0
 62
     3
  6
CONTINUOUS
  0
LAYER
  2
DEFPOINTS
 70
     0
 62
     7
  6
CONTINUOUS
  0
ENDTAB
  0
TABLE
  2
STYLE
 70
     2
  0
STYLE
  2
STANDARD
 70
     0
 40
0.0
 41
1.0
 50
0.0
 71
     0
 42
0.2
  3
TXT
  4
BIGFONT
  0
STYLE
  2
STANDARD1
 70
     0
 40
0.0
 41
1.0
 50
0.0
 71
     0
 42
3.0
  3
txt
  4

  0
ENDTAB
  0
TABLE
  2
VIEW
 70
     2
  0
VIEW
  2
OLE1
 70
     0
 40
230.5720678175948137
 10
150.6983848979481877
 20
404.399422263265194
 41
272.2524031538524127
 11
0.0
 21
0.0
 31
1.0
 12
0.0
 22
0.0
 32
0.0
 42
50.0
 43
0.0
 44
0.0
 50
0.0
 71
     0
  0
VIEW
  2
OLE2
 70
     0
 40
202.3282431621931039
 10
347.2956790480777158
 20
-206.6388772558275946
 41
238.9029640415126039
 11
0.0
 21
0.0
 31
1.0
 12
0.0
 22
0.0
 32
0.0
 42
50.0
 43
0.0
 44
0.0
 50
0.0
 71
     0
  0
ENDTAB
  0
TABLE
  2
UCS
 70
     0
  0
ENDTAB
  0
TABLE
  2
APPID
 70
    14
  0
APPID
  2
ACAD
 70
     0
  0
APPID
  2
ACAD_MLEADERVER
 70
     0
  0
APPID
  2
ACAD_EXEMPT_FROM_CAD_STANDARDS
 70
     0
  0
APPID
  2
ACAD_DSTYLE_DIMJAG
 70
     0
  0
APPID
  2
ACAD_DSTYLE_DIMTALN
 70
     0
  0
APPID
  2
ACAD_NAV_VCDISPLAY
 70
     0
  0
APPID
  2
ACAD_PSEXT
 70
     0
  0
APPID
  2
ACAECLAYERSTANDARD
 70
     0
  0
APPID
  2
ACCMTRANSPARENCY
 70
     0
  0
APPID
  2
ACAD_DSTYLE_DIMRADIAL_EXTENSION
 70
     0
  0
APPID
  2
ACADANNOTATIVE
 70
     0
  0
APPID
  2
ACAD_DSTYLE_DIMBREAK
 70
     0
  0
APPID
  2
GRADIENTCOLOR1ACI
 70
     0
  0
APPID
  2
GRADIENTCOLOR2ACI
 70
     0
  0
ENDTAB
  0
TABLE
  2
DIMSTYLE
 70
     1
  0
DIMSTYLE
  2
STANDARD
 70
     0
  3

  4

  5

  6

  7

 40
1.0
 41
0.18
 42
0.0625
 43
0.38
 44
0.18
 45
0.0
 46
0.0
 47
0.0
 48
0.0
140
0.18
141
0.09
142
0.0
143
25.3999999999999986
144
1.0
145
0.0
146
1.0
147
0.09
 71
     0
 72
     0
 73
     1
 74
     1
 75
     0
 76
     0
 77
     0
 78
     0
170
     0
171
     2
172
     0
173
     0
174
     0
175
     0
176
     0
177
     0
178
     0
  0
ENDTAB
  0
ENDSEC
  0
SECTION
  2
BLOCKS
  0
BLOCK
  8
0
  2
$MODEL_SPACE
 70
     2
 10
0.0
 20
0.0
 30
0.0
  3
$MODEL_SPACE
  1

  0
ENDBLK
  5
9
  8
0
  0
BLOCK
 67
     1
  8
0
  2
$PAPER_SPACE
 70
     0
 10
0.0
 20
0.0
 30
0.0
  3
$PAPER_SPACE
  1

  0
ENDBLK
  5
E
 67
     1
  8
0
  0
ENDSEC
  0
SECTION
  2
ENTITIES
  0
TEXT
  5
87B9
  8
0
 62
     3
 10
0.0
 20
0.0
 30
0.0
 40
10.0
  1
FKCS25-M6X45-15-SUS
  7
STANDARD1
  0
ARC
  5
1DA6A
  8
0
 10
38.9650081967258828
 20
58.0173908412691901
 30
0.0
 40
1.1999999999998641
 50
268.3890556536142071
 51
19.6109443463820909
  0
ARC
  5
1DA6B
  8
0
 10
41.9826091587307175
 20
61.0349918032741101
 30
0.0
 40
1.199999999999888
 50
250.3890556536200904
 51
1.6109443463825479
  0
ARC
  5
1DA6C
  8
0
 10
45.7850081967256912
 20
62.9724108822656703
 30
0.0
 40
1.1999999999998541
 50
232.3890556536194936
 51
343.6109443463828939
  0
ARC
  5
1DA6D
  8
0
 10
49.9999999999998934
 20
63.6399999999997519
 30
0.0
 40
1.199999999999843
 50
214.3890556536204031
 51
325.6109443463865887
  0
ARC
  5
1DA6E
  8
0
 10
54.214991803274188
 20
62.9724108822655992
 30
0.0
 40
1.199999999999823
 50
196.3890556536163103
 51
307.6109443463881234
  0
ARC
  5
1DA6F
  8
0
 10
58.0173908412691617
 20
61.0349918032740817
 30
0.0
 40
1.1999999999998581
 50
178.3890556536165946
 51
289.6109443463868729
  0
ARC
  5
1DA70
  8
0
 10
61.0349918032740106
 20
58.0173908412691617
 30
0.0
 40
1.1999999999998321
 50
160.3890556536157135
 51
271.6109443463857929
  0
ARC
  5
1DA71
  8
0
 10
62.9724108822655282
 20
54.2149918032742022
 30
0.0
 40
1.199999999999843
 50
142.3890556536148893
 51
253.6109443463840876
  0
ARC
  5
1DA72
  8
0
 10
63.6399999999997519
 20
50.0000000000000071
 30
0.0
 40
1.1999999999998869
 50
124.3890556536218952
 51
235.6109443463853097
  0
ARC
  5
1DA73
  8
0
 10
62.972410882265649
 20
45.785008196725812
 30
0.0
 40
1.1999999999998709
 50
106.3890556536157987
 51
217.6109443463851107
  0
ARC
  5
1DA74
  8
0
 10
61.0349918032740106
 20
41.9826091587308525
 30
0.0
 40
1.1999999999998809
 50
88.3890556536141929
 51
199.6109443463836044
  0
ARC
  5
1DA75
  8
0
 10
58.0173908412691617
 20
38.9650081967259609
 30
0.0
 40
1.1999999999998541
 50
70.3890556536130987
 51
181.6109443463865887
  0
ARC
  5
1DA76
  8
0
 10
54.214991803274188
 20
37.0275891177343581
 30
0.0
 40
1.1999999999998681
 50
52.3890556536123597
 51
163.6109443463828086
  0
ARC
  5
1DA77
  8
0
 10
50.0
 20
36.3600000000002268
 30
0.0
 40
1.1999999999998989
 50
34.3890556536204528
 51
145.6109443463788011
  0
ARC
  5
1DA78
  8
0
 10
45.785008196725812
 20
37.0275891177343794
 30
0.0
 40
1.199999999999851
 50
16.389055653616289
 51
127.6109443463875976
  0
ARC
  5
1DA79
  8
0
 10
41.9826091587308383
 20
38.9650081967259467
 30
0.0
 40
1.199999999999865
 50
358.3890556536159124
 51
109.6109443463869013
  0
ARC
  5
1DA7A
  8
0
 10
38.9650081967258828
 20
41.982609158730817
 30
0.0
 40
1.1999999999998641
 50
340.3890556536180725
 51
91.6109443463857644
  0
ARC
  5
1DA7B
  8
0
 10
37.027589117734351
 20
45.785008196725812
 30
0.0
 40
1.199999999999865
 50
322.3890556536155145
 51
73.6109443463841728
  0
ARC
  5
1DA7C
  8
0
 10
36.360000000000241
 20
50.0000000000000071
 30
0.0
 40
1.1999999999998749
 50
304.389055653621881
 51
55.6109443463853097
  0
ARC
  5
1DA7D
  8
0
 10
37.027589117734351
 20
54.2149918032742235
 30
0.0
 40
1.199999999999847
 50
286.3890556536157987
 51
37.6109443463850965
  0
CIRCLE
  5
1DA7E
  8
0
 10
50.0
 20
50.0
 30
0.0
 40
12.25
  0
CIRCLE
  5
1DA7F
  8
0
 10
50.0
 20
50.0
 30
0.0
 40
10.21875
  0
CIRCLE
  5
1DA80
  8
0
 10
50.0
 20
50.0
 30
0.0
 40
7.5
  0
LINE
  5
1DA81
  8
1
 10
50.0
 20
35.0
 30
0.0
 11
50.0
 21
65.0
 31
0.0
  0
LINE
  5
1DA82
  8
1
 10
65.0
 20
50.0
 30
0.0
 11
35.0
 21
50.0
 31
0.0
  0
CIRCLE
  5
1DA83
  8
0
 10
50.0
 20
50.0
 30
0.0
 40
13.0
  0
LINE
  5
1DA85
  8
0
 10
92.9890876841169955
 20
37.7500003203749515
 30
0.0
 11
93.1826537680249629
 21
37.5567425042392173
 31
0.0
  0
LINE
  5
1DA86
  8
0
 10
103.2390861045938948
 20
36.9999997317790772
 30
0.0
 11
103.9890876245122939
 21
37.7500003203749515
 31
0.0
  0
LINE
  5
1DA87
  8
0
 10
103.9890876245122939
 20
62.2499996796250201
 30
0.0
 11
103.2390861045938948
 21
63.0000002682208873
 31
0.0
  0
LINE
  5
1DA88
  8
0
 10
102.1390861105544019
 20
36.9999997317790772
 30
0.0
 11
103.2390861045938948
 21
36.9999997317790772
 31
0.0
  0
LINE
  5
1DA89
  8
0
 10
103.2390861045938948
 20
63.0000002682208873
 30
0.0
 11
102.1390861105544019
 21
63.0000002682208873
 31
0.0
  0
LINE
  5
1DA8A
  8
0
 10
102.0890852641684035
 20
37.7000004053115703
 30
0.0
 11
102.1390861105544019
 21
37.7000004053115703
 31
0.0
  0
LINE
  5
1DA8B
  8
0
 10
102.1390861105544019
 20
62.2999995946884013
 30
0.0
 11
102.0890852641684035
 21
62.2999995946884013
 31
0.0
  0
LINE
  5
1DA8C
  8
0
 10
110.9390879255158069
 20
41.9999996200203825
 30
0.0
 11
111.6890875827890994
 21
42.7500002086162425
 31
0.0
  0
LINE
  5
1DA8D
  8
0
 10
111.6890875827890994
 20
57.2499997913837291
 30
0.0
 11
110.9390879255158069
 21
58.0000003799796033
 31
0.0
  0
LINE
  5
1DA8E
  8
0
 10
103.9890876245122939
 20
41.9999996200203825
 30
0.0
 11
110.9390879255158069
 21
41.9999996200203825
 31
0.0
  0
LINE
  5
1DA8F
  8
0
 10
110.9390879255158069
 20
58.0000003799796033
 30
0.0
 11
103.9890876245122939
 21
58.0000003799796033
 31
0.0
  0
LINE
  5
1DA90
  8
0
 10
111.6890875827890994
 20
46.470588259398923
 30
0.0
 11
111.9890870731694008
 21
46.470588259398923
 31
0.0
  0
LINE
  5
1DA91
  8
0
 10
111.9890870731694008
 20
53.5294117406010486
 30
0.0
 11
111.6890875827890994
 21
53.5294117406010486
 31
0.0
  0
LINE
  5
1DA92
  8
0
 10
151.3755871933323078
 20
46.9999999739229466
 30
0.0
 11
151.9890866261345082
 21
47.6135001052170921
 31
0.0
  0
LINE
  5
1DA93
  8
0
 10
151.9890866261345082
 20
52.3864998947828866
 30
0.0
 11
151.3755871933323078
 21
53.0000000260770179
 31
0.0
  0
LINE
  5
1DA94
  8
0
 10
111.9890870731694008
 20
46.9999999739229466
 30
0.0
 11
151.3755871933323078
 21
46.9999999739229466
 31
0.0
  0
LINE
  5
1DA95
  8
0
 10
151.3755871933323078
 20
53.0000000260770321
 30
0.0
 11
111.9890870731694008
 21
53.0000000260770179
 31
0.0
  0
LINE
  5
1DA96
  8
0
 10
151.9890866261345082
 20
48.1499999994411922
 30
0.0
 11
152.989087255708597
 21
48.1499999994411922
 31
0.0
  0
LINE
  5
1DA97
  8
0
 10
152.989087255708597
 20
51.8500000005587793
 30
0.0
 11
151.9890866261345082
 21
51.8500000005587793
 31
0.0
  0
LINE
  5
1DA98
  8
0
 10
159.9890870643218079
 20
42.5000001676380492
 30
0.0
 11
160.4890870880705052
 21
42.9999997839331485
 31
0.0
  0
LINE
  5
1DA99
  8
0
 10
160.4890870880705052
 20
57.0000002160668231
 30
0.0
 11
159.9890870643218079
 21
57.4999998323619224
 31
0.0
  0
LINE
  5
1DA9A
  8
0
 10
157.4890870619935015
 20
42.5000001676380492
 30
0.0
 11
159.9890870643218079
 21
42.5000001676380492
 31
0.0
  0
LINE
  5
1DA9B
  8
0
 10
159.9890870643218079
 20
57.4999998323619224
 30
0.0
 11
157.4890870619935015
 21
57.4999998323619224
 31
0.0
  0
LINE
  5
1DA9C
  8
0
 10
157.4890870619935015
 20
57.4999998323619224
 30
0.0
 11
156.4890868980806999
 21
54.2857141233980514
 31
0.0
  0
LINE
  5
1DA9D
  8
0
 10
156.4890868980806999
 20
45.7142858766019202
 30
0.0
 11
157.4890870619935015
 21
42.5000001676380492
 31
0.0
  0
LINE
  5
1DA9E
  8
0
 10
152.989087255708597
 20
45.7142858766019202
 30
0.0
 11
156.4890868980806999
 21
45.7142858766019202
 31
0.0
  0
LINE
  5
1DA9F
  8
0
 10
156.4890868980806999
 20
54.2857141233980514
 30
0.0
 11
152.989087255708597
 21
54.2857141233980514
 31
0.0
  0
LINE
  5
1DAA0
  8
0
 10
102.0890852641684035
 20
49.0097343688830591
 30
0.0
 11
93.7390854787451246
 21
49.0097343688830591
 31
0.0
  0
ARC
  5
1DAA1
  8
0
 10
94.345685833886165
 20
49.9999999999999929
 30
0.0
 40
1.161288082703257
 50
121.4901055127263021
 51
238.5098944872736979
  0
LINE
  5
1DAA2
  8
0
 10
102.0890852641684035
 20
50.9902656311169125
 30
0.0
 11
93.7390854787451246
 21
50.9902656311169125
 31
0.0
  0
LINE
  5
1DAA3
  8
0
 10
93.7390854787451246
 20
62.9622286185622073
 30
0.0
 11
93.7390854787451246
 21
62.6338209956884171
 31
0.0
  0
POLYLINE
  5
1DAA4
  8
0
 66
     1
 10
0.0
 20
0.0
 30
0.0
 70
   128
  0
VERTEX
  5
1DCEB
  8
0
 10
93.7390854787451246
 20
62.0218032971024371
 30
0.0
  0
VERTEX
  5
1DCEC
  8
0
 10
93.6426116358858707
 20
61.9561143219470765
 30
0.0
  0
VERTEX
  5
1DCED
  8
0
 10
93.5497438740355136
 20
61.8978423997759677
 30
0.0
  0
VERTEX
  5
1DCEE
  8
0
 10
93.4602773022276523
 20
61.8475491181015826
 30
0.0
  0
VERTEX
  5
1DCEF
  8
0
 10
93.377650363407767
 20
61.8081457912921834
 30
0.0
  0
VERTEX
  5
1DCF0
  8
0
 10
93.3013415169340732
 20
61.7812445387244082
 30
0.0
  0
VERTEX
  5
1DCF1
  8
0
 10
93.2390770148855808
 20
61.7724789306521274
 30
0.0
  0
VERTEX
  5
1DCF2
  8
0
 10
93.1977896225077131
 20
61.7850545793771602
 30
0.0
  0
VERTEX
  5
1DCF3
  8
0
 10
93.1853657793623569
 20
61.8004065006971217
 30
0.0
  0
VERTEX
  5
1DCF4
  8
0
 10
93.1795058977228763
 20
61.8221566081046916
 30
0.0
  0
VERTEX
  5
1DCF5
  8
0
 10
93.1848591398817661
 20
61.8708508089184619
 30
0.0
  0
VERTEX
  5
1DCF6
  8
0
 10
93.2092933189493635
 20
61.9364233687519885
 30
0.0
  0
VERTEX
  5
1DCF7
  8
0
 10
93.247756941280997
 20
62.0092630386352397
 30
0.0
  0
VERTEX
  5
1DCF8
  8
0
 10
93.3002909850699069
 20
62.0926005765795566
 30
0.0
  0
VERTEX
  5
1DCF9
  8
0
 10
93.3460971545797946
 20
62.1583519503474093
 30
0.0
  0
VERTEX
  5
1DCFA
  8
0
 10
93.3973347973448256
 20
62.2274542227387286
 30
0.0
  0
VERTEX
  5
1DCFB
  8
0
 10
93.5148490798098209
 20
62.3751666396856166
 30
0.0
  0
VERTEX
  5
1DCFC
  8
0
 10
93.6231320929152133
 20
62.502896599471562
 30
0.0
  0
VERTEX
  5
1DCFD
  8
0
 10
93.7390854787451246
 20
62.6338209956884171
 30
0.0
  0
SEQEND
  5
1DCFE
  8
0
  0
LINE
  5
1DAA5
  8
0
 10
93.7390854787451246
 20
62.0218032971024371
 30
0.0
 11
93.7390854787451246
 21
61.0687268897890903
 31
0.0
  0
POLYLINE
  5
1DAA6
  8
0
 66
     1
 10
0.0
 20
0.0
 30
0.0
 70
   128
  0
VERTEX
  5
1DCFF
  8
0
 10
93.7390854787451246
 20
59.9045997485518313
 30
0.0
  0
VERTEX
  5
1DD00
  8
0
 10
93.6426041853052737
 20
59.8712574690580226
 30
0.0
  0
VERTEX
  5
1DD01
  8
0
 10
93.5497289728743056
 20
59.8479557782411433
 30
0.0
  0
VERTEX
  5
1DD02
  8
0
 10
93.4602549504858615
 20
59.8360283300280429
 30
0.0
  0
VERTEX
  5
1DD03
  8
0
 10
93.3776242863756636
 20
59.8378919064998485
 30
0.0
  0
VERTEX
  5
1DD04
  8
0
 10
93.3013191651922824
 20
59.8572215065359927
 30
0.0
  0
VERTEX
  5
1DD05
  8
0
 10
93.2390621137243869
 20
59.8977563902735568
 30
0.0
  0
VERTEX
  5
1DD06
  8
0
 10
93.1977821719271304
 20
59.959454648196683
 30
0.0
  0
VERTEX
  5
1DD07
  8
0
 10
93.1795058977228763
 20
60.0467139855027128
 30
0.0
  0
VERTEX
  5
1DD08
  8
0
 10
93.1848628651720645
 20
60.1344538852572299
 30
0.0
  0
VERTEX
  5
1DD09
  8
0
 10
93.2093007695299747
 20
60.2368630468845225
 30
0.0
  0
VERTEX
  5
1DD0A
  8
0
 10
93.2477681171518924
 20
60.3401932865381099
 30
0.0
  0
VERTEX
  5
1DD0B
  8
0
 10
93.3003021609408023
 20
60.4504376649856425
 30
0.0
  0
VERTEX
  5
1DD0C
  8
0
 10
93.3973496985060336
 20
60.6172366067767001
 30
0.0
  0
VERTEX
  5
1DD0D
  8
0
 10
93.5148751568419101
 20
60.7886400073766566
 30
0.0
  0
VERTEX
  5
1DD0E
  8
0
 10
93.6231432687860945
 20
60.9297316521406032
 30
0.0
  0
VERTEX
  5
1DD0F
  8
0
 10
93.7390854787451246
 20
61.0687268897890903
 30
0.0
  0
SEQEND
  5
1DD10
  8
0
  0
LINE
  5
1DAA7
  8
0
 10
93.7390854787451246
 20
59.9045997485518313
 30
0.0
 11
93.7390854787451246
 21
58.4201488643884517
 31
0.0
  0
POLYLINE
  5
1DAA8
  8
0
 66
     1
 10
0.0
 20
0.0
 30
0.0
 70
   128
  0
VERTEX
  5
1DD11
  8
0
 10
93.7390854787451246
 20
56.8178651854395724
 30
0.0
  0
VERTEX
  5
1DD12
  8
0
 10
93.6426004600149753
 20
56.8201385438442088
 30
0.0
  0
VERTEX
  5
1DD13
  8
0
 10
93.5497215222937228
 20
56.8340930156409598
 30
0.0
  0
VERTEX
  5
1DD14
  8
0
 10
93.4602474999052646
 20
56.8617020733654428
 30
0.0
  0
VERTEX
  5
1DD15
  8
0
 10
93.3776131105047824
 20
56.9046542048454072
 30
0.0
  0
VERTEX
  5
1DD16
  8
0
 10
93.301315439901984
 20
56.9683166220783974
 30
0.0
  0
VERTEX
  5
1DD17
  8
0
 10
93.2390583884340742
 20
57.0541785098612166
 30
0.0
  0
VERTEX
  5
1DD18
  8
0
 10
93.197778446636832
 20
57.1589560247957635
 30
0.0
  0
VERTEX
  5
1DD19
  8
0
 10
93.1795058977228763
 20
57.2878282517194606
 30
0.0
  0
VERTEX
  5
1DD1A
  8
0
 10
93.1848628651720645
 20
57.4060214683413434
 30
0.0
  0
VERTEX
  5
1DD1B
  8
0
 10
93.2093007695299747
 20
57.5352420099079467
 30
0.0
  0
VERTEX
  5
1DD1C
  8
0
 10
93.2477681171518924
 20
57.6589463278651095
 30
0.0
  0
VERTEX
  5
1DD1D
  8
0
 10
93.3003058862311008
 20
57.7853035181760575
 30
0.0
  0
VERTEX
  5
1DD1E
  8
0
 10
93.3973571490866306
 20
57.9677151516079832
 30
0.0
  0
VERTEX
  5
1DD1F
  8
0
 10
93.514882607422507
 20
58.1460280343890119
 30
0.0
  0
VERTEX
  5
1DD20
  8
0
 10
93.623146994076393
 20
58.2866782322525765
 30
0.0
  0
VERTEX
  5
1DD21
  8
0
 10
93.7390854787451246
 20
58.4201488643884517
 30
0.0
  0
SEQEND
  5
1DD22
  8
0
  0
LINE
  5
1DAA9
  8
0
 10
93.7390854787451246
 20
56.8178651854395724
 30
0.0
 11
93.7390854787451246
 21
54.9473475664853908
 31
0.0
  0
POLYLINE
  5
1DAAA
  8
0
 66
     1
 10
0.0
 20
0.0
 30
0.0
 70
   128
  0
VERTEX
  5
1DD23
  8
0
 10
93.7390854787451246
 20
53.0637504532933093
 30
0.0
  0
VERTEX
  5
1DD24
  8
0
 10
93.5497252475840213
 20
53.1512603163719035
 30
0.0
  0
VERTEX
  5
1DD25
  8
0
 10
93.3776205610853651
 20
53.2955328933894492
 30
0.0
  0
VERTEX
  5
1DD26
  8
0
 10
93.2390621137243869
 20
53.520078258588903
 30
0.0
  0
VERTEX
  5
1DD27
  8
0
 10
93.1795058977228763
 20
53.8155473303049732
 30
0.0
  0
VERTEX
  5
1DD28
  8
0
 10
93.2093007695299747
 20
54.096007905900457
 30
0.0
  0
VERTEX
  5
1DD29
  8
0
 10
93.3003021609408023
 20
54.3580769561230994
 30
0.0
  0
VERTEX
  5
1DD2A
  8
0
 10
93.5148751568419101
 20
54.7060106880962707
 30
0.0
  0
VERTEX
  5
1DD2B
  8
0
 10
93.7390854787451246
 20
54.9473475664853908
 30
0.0
  0
SEQEND
  5
1DD2C
  8
0
  0
LINE
  5
1DAAB
  8
0
 10
93.7390854787451246
 20
53.0637504532933093
 30
0.0
 11
93.7390854787451246
 21
50.9902656311169125
 31
0.0
  0
LINE
  5
1DAAC
  8
0
 10
93.7390854787451246
 20
49.0097343688830591
 30
0.0
 11
93.7390854787451246
 21
46.9362495467066623
 31
0.0
  0
POLYLINE
  5
1DAAD
  8
0
 66
     1
 10
0.0
 20
0.0
 30
0.0
 70
   128
  0
VERTEX
  5
1DD2D
  8
0
 10
93.7390854787451246
 20
45.0526524335145808
 30
0.0
  0
VERTEX
  5
1DD2E
  8
0
 10
93.5497438740355136
 20
45.2508704736828733
 30
0.0
  0
VERTEX
  5
1DD2F
  8
0
 10
93.377650363407767
 20
45.4943414777517177
 30
0.0
  0
VERTEX
  5
1DD30
  8
0
 10
93.2390770148855808
 20
45.7978036254644323
 30
0.0
  0
VERTEX
  5
1DD31
  8
0
 10
93.1795058977228763
 20
46.1269358173012591
 30
0.0
  0
VERTEX
  5
1DD32
  8
0
 10
93.2092933189493635
 20
46.3905902113765265
 30
0.0
  0
VERTEX
  5
1DD33
  8
0
 10
93.3002909850699069
 20
46.6010560747235871
 30
0.0
  0
VERTEX
  5
1DD34
  8
0
 10
93.5148490798098209
 20
46.8258247245102979
 30
0.0
  0
VERTEX
  5
1DD35
  8
0
 10
93.7390854787451246
 20
46.9362495467066623
 30
0.0
  0
SEQEND
  5
1DD36
  8
0
  0
LINE
  5
1DAAE
  8
0
 10
93.7390854787451246
 20
45.0526524335145808
 30
0.0
 11
93.7390854787451246
 21
43.1821348145603991
 31
0.0
  0
POLYLINE
  5
1DAAF
  8
0
 66
     1
 10
0.0
 20
0.0
 30
0.0
 70
   128
  0
VERTEX
  5
1DD37
  8
0
 10
93.7390854787451246
 20
41.5798511356115199
 30
0.0
  0
VERTEX
  5
1DD38
  8
0
 10
93.5497289728743056
 20
41.8066943064331866
 30
0.0
  0
VERTEX
  5
1DD39
  8
0
 10
93.3776242863756636
 20
42.0659931376576282
 30
0.0
  0
VERTEX
  5
1DD3A
  8
0
 10
93.2390621137243869
 20
42.365616839379058
 30
0.0
  0
VERTEX
  5
1DD3B
  8
0
 10
93.1795058977228763
 20
42.6632759161293365
 30
0.0
  0
VERTEX
  5
1DD3C
  8
0
 10
93.2093007695299747
 20
42.8787066601216722
 30
0.0
  0
VERTEX
  5
1DD3D
  8
0
 10
93.3003021609408023
 20
43.0306058377027369
 30
0.0
  0
VERTEX
  5
1DD3E
  8
0
 10
93.5148751568419101
 20
43.1570496410131312
 30
0.0
  0
VERTEX
  5
1DD3F
  8
0
 10
93.7390854787451246
 20
43.1821348145603991
 30
0.0
  0
SEQEND
  5
1DD40
  8
0
  0
LINE
  5
1DAB0
  8
0
 10
93.7390854787451246
 20
41.5798511356115199
 30
0.0
 11
93.7390854787451246
 21
40.0954002514481402
 31
0.0
  0
POLYLINE
  5
1DAB1
  8
0
 66
     1
 10
0.0
 20
0.0
 30
0.0
 70
   128
  0
VERTEX
  5
1DD41
  8
0
 10
93.7390854787451246
 20
38.9312731102108813
 30
0.0
  0
VERTEX
  5
1DD42
  8
0
 10
93.5463166069609144
 20
39.169015549123273
 30
0.0
  0
VERTEX
  5
1DD43
  8
0
 10
93.3776131105047824
 20
39.4142486155032969
 30
0.0
  0
VERTEX
  5
1DD44
  8
0
 10
93.2390583884340742
 20
39.680705592036233
 30
0.0
  0
VERTEX
  5
1DD45
  8
0
 10
93.1795058977228763
 20
39.9177616462111331
 30
0.0
  0
VERTEX
  5
1DD46
  8
0
 10
93.2093007695299747
 20
40.0638861581683017
 30
0.0
  0
VERTEX
  5
1DD47
  8
0
 10
93.3003058862311008
 20
40.1423510164022304
 30
0.0
  0
VERTEX
  5
1DD48
  8
0
 10
93.514882607422507
 20
40.1580931618809629
 30
0.0
  0
VERTEX
  5
1DD49
  8
0
 10
93.7390854787451246
 20
40.0954002514481402
 30
0.0
  0
SEQEND
  5
1DD4A
  8
0
  0
LINE
  5
1DAB2
  8
0
 10
93.7390854787451246
 20
38.9312731102108813
 30
0.0
 11
93.7390854787451246
 21
37.9781967028975274
 31
0.0
  0
POLYLINE
  5
1DAB3
  8
0
 66
     1
 10
0.0
 20
0.0
 30
0.0
 70
   128
  0
VERTEX
  5
1DD4B
  8
0
 10
93.7390854787451246
 20
37.3661790043115474
 30
0.0
  0
VERTEX
  5
1DD4C
  8
0
 10
93.5463203322512129
 20
37.5870225951075412
 30
0.0
  0
VERTEX
  5
1DD4D
  8
0
 10
93.3776205610853651
 20
37.798688933253267
 30
0.0
  0
VERTEX
  5
1DD4E
  8
0
 10
93.2390621137243869
 20
38.0059016868472028
 30
0.0
  0
VERTEX
  5
1DD4F
  8
0
 10
93.1795058977228763
 20
38.1591564044356204
 30
0.0
  0
VERTEX
  5
1DD50
  8
0
 10
93.2093007695299747
 20
38.2216760888695575
 30
0.0
  0
VERTEX
  5
1DD51
  8
0
 10
93.3003021609408023
 20
38.2190283387899328
 30
0.0
  0
VERTEX
  5
1DD52
  8
0
 10
93.5148751568419101
 20
38.1225321441888667
 30
0.0
  0
VERTEX
  5
1DD53
  8
0
 10
93.7390854787451246
 20
37.9781967028975274
 30
0.0
  0
SEQEND
  5
1DD54
  8
0
  0
LINE
  5
1DAB4
  8
0
 10
93.7390854787451246
 20
37.3661790043115474
 30
0.0
 11
93.7390854787451246
 21
37.0377713814377572
 31
0.0
  0
ARC
  5
1DAB5
  8
0
 10
69.8087566586288375
 20
11.9378773918448999
 30
0.0
 40
34.6794653322061919
 50
46.3664723212463983
 51
47.6235973054633135
  0
LINE
  5
1DAB6
  8
0
 10
92.9890876841169955
 20
37.7500003203749515
 30
0.0
 11
92.9890876841169955
 21
62.2499996796250201
 31
0.0
  0
LINE
  5
1DAB7
  8
0
 10
103.9890876245122939
 20
37.7500003203749515
 30
0.0
 11
103.9890876245122939
 21
62.2499996796250201
 31
0.0
  0
LINE
  5
1DAB8
  8
0
 10
103.2390861045938948
 20
36.9999997317790772
 30
0.0
 11
103.2390861045938948
 21
63.0000002682208873
 31
0.0
  0
LINE
  5
1DAB9
  8
0
 10
102.1390861105544019
 20
36.9999997317790772
 30
0.0
 11
102.1390861105544019
 21
63.0000002682208873
 31
0.0
  0
LINE
  5
1DABA
  8
0
 10
102.0890852641684035
 20
53.0637504532933093
 30
0.0
 11
93.7390854787451246
 21
53.0637504532933093
 31
0.0
  0
LINE
  5
1DABB
  8
0
 10
102.0890852641684035
 20
46.9362495467066623
 30
0.0
 11
93.7390854787451246
 21
46.9362495467066623
 31
0.0
  0
LINE
  5
1DABC
  8
0
 10
102.0890852641684035
 20
54.9473475664853908
 30
0.0
 11
93.7390854787451246
 21
54.9473475664853908
 31
0.0
  0
LINE
  5
1DABD
  8
0
 10
102.0890852641684035
 20
45.0526524335145808
 30
0.0
 11
93.7390854787451246
 21
45.0526524335145808
 31
0.0
  0
LINE
  5
1DABE
  8
0
 10
102.0890852641684035
 20
43.1821348145603991
 30
0.0
 11
93.7390854787451246
 21
43.1821348145603991
 31
0.0
  0
LINE
  5
1DABF
  8
0
 10
102.0890852641684035
 20
56.8178651854395724
 30
0.0
 11
93.7390854787451246
 21
56.8178651854395724
 31
0.0
  0
LINE
  5
1DAC0
  8
0
 10
102.0890852641684035
 20
58.4201488643884517
 30
0.0
 11
93.7390854787451246
 21
58.4201488643884517
 31
0.0
  0
LINE
  5
1DAC1
  8
0
 10
102.0890852641684035
 20
41.5798511356115199
 30
0.0
 11
93.7390854787451246
 21
41.5798511356115199
 31
0.0
  0
LINE
  5
1DAC2
  8
0
 10
102.0890852641684035
 20
40.0954002514481402
 30
0.0
 11
93.7390854787451246
 21
40.0954002514481402
 31
0.0
  0
LINE
  5
1DAC3
  8
0
 10
102.0890852641684035
 20
59.9045997485518313
 30
0.0
 11
93.7390854787451246
 21
59.9045997485518313
 31
0.0
  0
LINE
  5
1DAC4
  8
0
 10
102.0890852641684035
 20
38.9312731102108813
 30
0.0
 11
93.7390854787451246
 21
38.9312731102108813
 31
0.0
  0
LINE
  5
1DAC5
  8
0
 10
102.0890852641684035
 20
61.0687268897890903
 30
0.0
 11
93.7390854787451246
 21
61.0687268897890903
 31
0.0
  0
LINE
  5
1DAC6
  8
0
 10
111.6890875827890994
 20
42.7500002086162425
 30
0.0
 11
111.6890875827890994
 21
57.2499997913837291
 31
0.0
  0
LINE
  5
1DAC7
  8
0
 10
110.9390879255158069
 20
41.9999996200203825
 30
0.0
 11
110.9390879255158069
 21
58.0000003799796033
 31
0.0
  0
LINE
  5
1DAC8
  8
0
 10
102.0890852641684035
 20
62.0218032971024371
 30
0.0
 11
93.7390854787451246
 21
62.0218032971024371
 31
0.0
  0
LINE
  5
1DAC9
  8
0
 10
102.0890852641684035
 20
37.9781967028975274
 30
0.0
 11
93.7390854787451246
 21
37.9781967028975274
 31
0.0
  0
LINE
  5
1DACA
  8
0
 10
102.0890852641684035
 20
37.3661790043115474
 30
0.0
 11
93.7390854787451246
 21
37.3661790043115474
 31
0.0
  0
LINE
  5
1DACB
  8
0
 10
102.0890852641684035
 20
62.6338209956884171
 30
0.0
 11
93.7390854787451246
 21
62.6338209956884171
 31
0.0
  0
LINE
  5
1DACC
  8
0
 10
111.9890870731694008
 20
46.470588259398923
 30
0.0
 11
111.9890870731694008
 21
53.5294117406010486
 31
0.0
  0
LINE
  5
1DACD
  8
0
 10
102.0890852641684035
 20
62.9622286185622073
 30
0.0
 11
93.7390854787451246
 21
62.9622286185622073
 31
0.0
  0
LINE
  5
1DACE
  8
0
 10
102.0890852641684035
 20
37.0377713814377572
 30
0.0
 11
93.7390854787451246
 21
37.0377713814377572
 31
0.0
  0
LINE
  5
1DACF
  8
0
 10
102.0890852641684035
 20
37.0377713814377572
 30
0.0
 11
102.0890852641684035
 21
62.9622286185622073
 31
0.0
  0
LINE
  5
1DAD0
  8
0
 10
151.9890866261345082
 20
47.6135001052170921
 30
0.0
 11
151.9890866261345082
 21
52.3864998947828866
 31
0.0
  0
LINE
  5
1DAD1
  8
0
 10
151.3755871933323078
 20
46.9999999739229466
 30
0.0
 11
151.3755871933323078
 21
53.0000000260770179
 31
0.0
  0
LINE
  5
1DAD2
  8
0
 10
160.4890870880705052
 20
42.9999997839331485
 30
0.0
 11
160.4890870880705052
 21
57.0000002160668231
 31
0.0
  0
LINE
  5
1DAD3
  8
0
 10
159.9890870643218079
 20
42.5000001676380492
 30
0.0
 11
159.9890870643218079
 21
57.4999998323619224
 31
0.0
  0
LINE
  5
1DAD4
  8
0
 10
157.4890870619935015
 20
42.5000001676380492
 30
0.0
 11
157.4890870619935015
 21
57.4999998323619224
 31
0.0
  0
LINE
  5
1DAD5
  8
0
 10
156.4890868980806999
 20
45.7142858766019202
 30
0.0
 11
156.4890868980806999
 21
54.2857141233980514
 31
0.0
  0
LINE
  5
1DAD6
  8
0
 10
152.989087255708597
 20
45.7142858766019202
 30
0.0
 11
152.989087255708597
 21
54.2857141233980514
 31
0.0
  0
LINE
  5
1DAD7
  8
2
 10
95.9121646071939011
 20
42.4999999999999432
 30
0.0
 11
95.9121646071939011
 21
57.5
 31
0.0
  0
LINE
  5
1DAD8
  8
2
 10
96.4121646071939153
 20
42.4999999999999716
 30
0.0
 11
96.4121646071939153
 21
57.4999999999999716
 31
0.0
  0
LINE
  5
1DAD9
  8
2
 10
92.9890876841169955
 20
39.7812499999999716
 30
0.0
 11
95.9121646071939011
 21
42.4999999999999432
 31
0.0
  0
LINE
  5
1DADA
  8
2
 10
95.9121646071939011
 20
57.5
 30
0.0
 11
92.9890876841169955
 21
60.2187499999999787
 31
0.0
  0
LINE
  5
1DADB
  8
2
 10
95.9121646071939011
 20
42.4999999999999716
 30
0.0
 11
96.4121646071939153
 21
42.4999999999999716
 31
0.0
  0
LINE
  5
1DADC
  8
2
 10
96.4121646071939153
 20
57.4999999999999716
 30
0.0
 11
95.9121646071939011
 21
57.4999999999999716
 31
0.0
  0
LINE
  5
1DADD
  8
1
 10
162.4890870880705052
 20
50.0000000000000213
 30
0.0
 11
90.9890876841169955
 21
49.9999999999999929
 31
0.0
  0
LINE
  5
1DADE
  8
2
 10
153.4584624082220898
 20
48.1499999999999702
 30
0.0
 11
153.4584624082220898
 21
51.8499999999999872
 31
0.0
  0
LINE
  5
1DADF
  8
2
 10
153.489087255708597
 20
47.75
 30
0.0
 11
153.489087255708597
 21
52.2499999999999716
 31
0.0
  0
LINE
  5
1DAE0
  8
2
 10
156.989087255708597
 20
47.75
 30
0.0
 11
156.989087255708597
 21
52.2499999999999716
 31
0.0
  0
ARC
  5
1DAE1
  8
2
 10
154.739087255708597
 20
49.9999999999999716
 30
0.0
 40
2.25
 50
235.3078694146595922
 51
124.6920998048716029
  0
LINE
  5
1DAE2
  8
2
 10
152.989087255708597
 20
48.1499999999999702
 30
0.0
 11
153.4584624082220898
 21
48.1499999999999702
 31
0.0
  0
LINE
  5
1DAE3
  8
2
 10
153.4584624082220898
 20
51.8499999999999872
 30
0.0
 11
152.989087255708597
 21
51.8499999999999872
 31
0.0
  0
LINE
  5
1DAE4
  8
2
 10
152.989087255708597
 20
47.25
 30
0.0
 11
153.489087255708597
 21
47.75
 31
0.0
  0
LINE
  5
1DAE5
  8
2
 10
153.489087255708597
 20
52.2499999999999716
 30
0.0
 11
152.989087255708597
 21
52.7499999999999716
 31
0.0
  0
LINE
  5
1DAE6
  8
2
 10
153.489087255708597
 20
47.75
 30
0.0
 11
156.989087255708597
 21
47.75
 31
0.0
  0
LINE
  5
1DAE7
  8
2
 10
156.989087255708597
 20
52.2499999999999716
 30
0.0
 11
153.489087255708597
 21
52.2499999999999716
 31
0.0
  0
LINE
  5
1DAE8
  8
0
 10
92.9890876841169955
 20
62.2499996796249988
 30
0.0
 11
93.1826537680249629
 21
62.44325749576074
 31
0.0
  0
ARC
  5
1DAE9
  8
0
 10
69.8087566586288375
 20
88.0621226081550361
 30
0.0
 40
34.6794653322061919
 50
312.3764026945365231
 51
313.6335276787535804
  0
LINE
  5
1DBA7
  8
3
 10
113.9890870731694008
 20
47.5414999999999992
 30
0.0
 11
113.0511815608709014
 21
47.0000000000000071
 31
0.0
  0
LINE
  5
1DBA8
  8
3
 10
113.9890870731694008
 20
52.458500000000079
 30
0.0
 11
113.0511815608710009
 21
53.0000000000000071
 31
0.0
  0
LINE
  5
1DBA9
  8
3
 10
113.9890870731694008
 20
52.458500000000079
 30
0.0
 11
151.9170866028919988
 21
52.4585000000000932
 31
0.0
  0
LINE
  5
1DBAA
  8
3
 10
113.9890870731694008
 20
47.5415000000000489
 30
0.0
 11
151.9170866028919136
 21
47.5414999999997292
 31
0.0
  0
LINE
  5
1DBAB
  8
0
 10
113.9890870731694008
 20
47.0
 30
0.0
 11
113.9890870731694008
 21
52.9999999999999787
 31
0.0
  0
LINE
  5
1DBDE
  8
0
 10
92.9890876841169955
 20
93.7122292071580745
 30
0.0
 11
93.1826537680249629
 21
93.5189713910223333
 31
0.0
  0
LINE
  5
1DBDF
  8
0
 10
103.2390861045938948
 20
92.9622286185621931
 30
0.0
 11
103.9890876245122939
 21
93.7122292071580745
 31
0.0
  0
LINE
  5
1DBE0
  8
0
 10
103.9890876245122939
 20
118.2122285664081005
 30
0.0
 11
103.2390861045938948
 21
118.9622291550039961
 31
0.0
  0
LINE
  5
1DBE1
  8
0
 10
102.1390861105544019
 20
92.9622286185621931
 30
0.0
 11
103.2390861045938948
 21
92.9622286185621931
 31
0.0
  0
LINE
  5
1DBE2
  8
0
 10
103.2390861045938948
 20
118.9622291550039961
 30
0.0
 11
102.1390861105544019
 21
118.9622291550039961
 31
0.0
  0
LINE
  5
1DBE3
  8
0
 10
102.0890852641684035
 20
93.6622292920946791
 30
0.0
 11
102.1390861105544019
 21
93.6622292920946791
 31
0.0
  0
LINE
  5
1DBE4
  8
0
 10
102.1390861105544019
 20
118.2622284814714959
 30
0.0
 11
102.0890852641684035
 21
118.2622284814714959
 31
0.0
  0
LINE
  5
1DBE5
  8
0
 10
110.9390879255158069
 20
97.9622285068035126
 30
0.0
 11
111.6890875827890994
 21
98.7122290953993655
 31
0.0
  0
LINE
  5
1DBE6
  8
0
 10
111.6890875827890994
 20
113.2122286781667952
 30
0.0
 11
110.9390879255158069
 21
113.962229266762705
 31
0.0
  0
LINE
  5
1DBE7
  8
0
 10
103.9890876245122939
 20
97.9622285068035126
 30
0.0
 11
110.9390879255158069
 21
97.9622285068035126
 31
0.0
  0
LINE
  5
1DBE8
  8
0
 10
110.9390879255158069
 20
113.962229266762705
 30
0.0
 11
103.9890876245122939
 21
113.962229266762705
 31
0.0
  0
LINE
  5
1DBE9
  8
0
 10
111.6890875827890994
 20
102.4328171461820034
 30
0.0
 11
111.9890870731694008
 21
102.4328171461820034
 31
0.0
  0
LINE
  5
1DBEA
  8
0
 10
111.9890870731694008
 20
109.4916406273841005
 30
0.0
 11
111.6890875827890994
 21
109.4916406273841005
 31
0.0
  0
LINE
  5
1DBEB
  8
0
 10
151.3755871933323078
 20
102.9622288607060057
 30
0.0
 11
151.9890866261345082
 21
103.5757289920001938
 31
0.0
  0
LINE
  5
1DBEC
  8
0
 10
151.9890866261345082
 20
108.3487287815659954
 30
0.0
 11
151.3755871933323078
 21
108.9622289128600983
 31
0.0
  0
LINE
  5
1DBED
  8
0
 10
111.9890870731694008
 20
102.9622288607060057
 30
0.0
 11
151.3755871933323078
 21
102.9622288607061051
 31
0.0
  0
LINE
  5
1DBEE
  8
0
 10
151.3755871933323078
 20
108.9622289128600983
 30
0.0
 11
111.9890870731694008
 21
108.9622289128600983
 31
0.0
  0
LINE
  5
1DBEF
  8
0
 10
151.9890866261345082
 20
104.112228886224301
 30
0.0
 11
152.989087255708597
 21
104.112228886224301
 31
0.0
  0
LINE
  5
1DBF0
  8
0
 10
152.989087255708597
 20
107.8122288873419024
 30
0.0
 11
151.9890866261345082
 21
107.8122288873419024
 31
0.0
  0
LINE
  5
1DBF1
  8
0
 10
159.9890870643218079
 20
98.4622290544211864
 30
0.0
 11
160.4890870880705052
 21
98.9622286707162857
 31
0.0
  0
LINE
  5
1DBF2
  8
0
 10
160.4890870880705052
 20
112.9622291028499035
 30
0.0
 11
159.9890870643218079
 21
113.4622287191450027
 31
0.0
  0
LINE
  5
1DBF3
  8
0
 10
157.4890870619935015
 20
98.4622290544211864
 30
0.0
 11
159.9890870643218079
 21
98.4622290544211864
 31
0.0
  0
LINE
  5
1DBF4
  8
0
 10
159.9890870643218079
 20
113.4622287191450027
 30
0.0
 11
157.4890870619935015
 21
113.4622287191450027
 31
0.0
  0
LINE
  5
1DBF5
  8
0
 10
157.4890870619935015
 20
113.4622287191450027
 30
0.0
 11
156.4890868980806999
 21
110.2479430101811033
 31
0.0
  0
LINE
  5
1DBF6
  8
0
 10
156.4890868980806999
 20
101.6765147633850006
 30
0.0
 11
157.4890870619935015
 21
98.4622290544211864
 31
0.0
  0
LINE
  5
1DBF7
  8
0
 10
152.989087255708597
 20
101.6765147633850006
 30
0.0
 11
156.4890868980806999
 21
101.6765147633850006
 31
0.0
  0
LINE
  5
1DBF8
  8
0
 10
156.4890868980806999
 20
110.2479430101811033
 30
0.0
 11
152.989087255708597
 21
110.2479430101811033
 31
0.0
  0
LINE
  5
1DBF9
  8
0
 10
102.0890852641684035
 20
104.9719632556661963
 30
0.0
 11
93.7390854787451246
 21
104.9719632556661963
 31
0.0
  0
ARC
  5
1DBFA
  8
0
 10
94.345685833886165
 20
105.9622288867830946
 30
0.0
 40
1.161288082703257
 50
121.4901055127264016
 51
238.509894487273499
  0
LINE
  5
1DBFB
  8
0
 10
102.0890852641684035
 20
106.9524945179000071
 30
0.0
 11
93.7390854787451246
 21
106.9524945179000071
 31
0.0
  0
LINE
  5
1DBFC
  8
0
 10
93.7390854787451246
 20
118.9244575053453019
 30
0.0
 11
93.7390854787451246
 21
118.5960498824715046
 31
0.0
  0
POLYLINE
  5
1DBFD
  8
0
 66
     1
 10
0.0
 20
0.0
 30
0.0
 70
   128
  0
VERTEX
  5
1DD55
  8
0
 10
93.7390854787451246
 20
117.9840321838855033
 30
0.0
  0
VERTEX
  5
1DD56
  8
0
 10
93.6426116358858707
 20
117.9183432087302066
 30
0.0
  0
VERTEX
  5
1DD57
  8
0
 10
93.5497438740355136
 20
117.8600712865591049
 30
0.0
  0
VERTEX
  5
1DD58
  8
0
 10
93.4602773022276523
 20
117.8097780048847056
 30
0.0
  0
VERTEX
  5
1DD59
  8
0
 10
93.377650363407767
 20
117.7703746780752994
 30
0.0
  0
VERTEX
  5
1DD5A
  8
0
 10
93.3013415169340732
 20
117.7434734255075028
 30
0.0
  0
VERTEX
  5
1DD5B
  8
0
 10
93.2390770148855808
 20
117.7347078174351935
 30
0.0
  0
VERTEX
  5
1DD5C
  8
0
 10
93.1977896225077131
 20
117.7472834661602974
 30
0.0
  0
VERTEX
  5
1DD5D
  8
0
 10
93.1853657793623569
 20
117.7626353874802021
 30
0.0
  0
VERTEX
  5
1DD5E
  8
0
 10
93.1795058977228763
 20
117.7843854948878004
 30
0.0
  0
VERTEX
  5
1DD5F
  8
0
 10
93.1848591398817661
 20
117.8330796957015991
 30
0.0
  0
VERTEX
  5
1DD60
  8
0
 10
93.2092933189493635
 20
117.8986522555350973
 30
0.0
  0
VERTEX
  5
1DD61
  8
0
 10
93.247756941280997
 20
117.9714919254183059
 30
0.0
  0
VERTEX
  5
1DD62
  8
0
 10
93.3002909850699069
 20
118.0548294633625943
 30
0.0
  0
VERTEX
  5
1DD63
  8
0
 10
93.3460971545797946
 20
118.1205808371305039
 30
0.0
  0
VERTEX
  5
1DD64
  8
0
 10
93.3973347973448256
 20
118.1896831095217948
 30
0.0
  0
VERTEX
  5
1DD65
  8
0
 10
93.5148490798098209
 20
118.337395526468697
 30
0.0
  0
VERTEX
  5
1DD66
  8
0
 10
93.6231320929152133
 20
118.4651254862546068
 30
0.0
  0
VERTEX
  5
1DD67
  8
0
 10
93.7390854787451246
 20
118.5960498824715046
 30
0.0
  0
SEQEND
  5
1DD68
  8
0
  0
LINE
  5
1DBFE
  8
0
 10
93.7390854787451246
 20
117.9840321838855033
 30
0.0
 11
93.7390854787451246
 21
117.0309557765721991
 31
0.0
  0
POLYLINE
  5
1DBFF
  8
0
 66
     1
 10
0.0
 20
0.0
 30
0.0
 70
   128
  0
VERTEX
  5
1DD69
  8
0
 10
93.7390854787451246
 20
115.8668286353348975
 30
0.0
  0
VERTEX
  5
1DD6A
  8
0
 10
93.6426041853052737
 20
115.833486355841103
 30
0.0
  0
VERTEX
  5
1DD6B
  8
0
 10
93.5497289728743056
 20
115.8101846650241953
 30
0.0
  0
VERTEX
  5
1DD6C
  8
0
 10
93.4602549504858615
 20
115.7982572168110948
 30
0.0
  0
VERTEX
  5
1DD6D
  8
0
 10
93.3776242863756636
 20
115.8001207932829004
 30
0.0
  0
VERTEX
  5
1DD6E
  8
0
 10
93.3013191651922824
 20
115.8194503933191015
 30
0.0
  0
VERTEX
  5
1DD6F
  8
0
 10
93.2390621137243869
 20
115.8599852770565946
 30
0.0
  0
VERTEX
  5
1DD70
  8
0
 10
93.1977821719271304
 20
115.921683534979806
 30
0.0
  0
VERTEX
  5
1DD71
  8
0
 10
93.1795058977228763
 20
116.0089428722858003
 30
0.0
  0
VERTEX
  5
1DD72
  8
0
 10
93.1848628651720645
 20
116.0966827720402961
 30
0.0
  0
VERTEX
  5
1DD73
  8
0
 10
93.2093007695299747
 20
116.1990919336676029
 30
0.0
  0
VERTEX
  5
1DD74
  8
0
 10
93.2477681171518924
 20
116.3024221733212045
 30
0.0
  0
VERTEX
  5
1DD75
  8
0
 10
93.3003021609408023
 20
116.4126665517686945
 30
0.0
  0
VERTEX
  5
1DD76
  8
0
 10
93.3973496985060336
 20
116.5794654935597947
 30
0.0
  0
VERTEX
  5
1DD77
  8
0
 10
93.5148751568419101
 20
116.7508688941596944
 30
0.0
  0
VERTEX
  5
1DD78
  8
0
 10
93.6231432687860945
 20
116.8919605389236978
 30
0.0
  0
VERTEX
  5
1DD79
  8
0
 10
93.7390854787451246
 20
117.0309557765721991
 30
0.0
  0
SEQEND
  5
1DD7A
  8
0
  0
LINE
  5
1DC00
  8
0
 10
93.7390854787451246
 20
115.8668286353348975
 30
0.0
 11
93.7390854787451246
 21
114.3823777511715036
 31
0.0
  0
POLYLINE
  5
1DC01
  8
0
 66
     1
 10
0.0
 20
0.0
 30
0.0
 70
   128
  0
VERTEX
  5
1DD7B
  8
0
 10
93.7390854787451246
 20
112.7800940722226954
 30
0.0
  0
VERTEX
  5
1DD7C
  8
0
 10
93.6426004600149753
 20
112.7823674306273034
 30
0.0
  0
VERTEX
  5
1DD7D
  8
0
 10
93.5497215222937228
 20
112.7963219024240971
 30
0.0
  0
VERTEX
  5
1DD7E
  8
0
 10
93.4602474999052646
 20
112.8239309601485019
 30
0.0
  0
VERTEX
  5
1DD7F
  8
0
 10
93.3776131105047824
 20
112.8668830916284946
 30
0.0
  0
VERTEX
  5
1DD80
  8
0
 10
93.301315439901984
 20
112.9305455088614991
 30
0.0
  0
VERTEX
  5
1DD81
  8
0
 10
93.2390583884340742
 20
113.016407396644297
 30
0.0
  0
VERTEX
  5
1DD82
  8
0
 10
93.197778446636832
 20
113.1211849115787942
 30
0.0
  0
VERTEX
  5
1DD83
  8
0
 10
93.1795058977228763
 20
113.2500571385025978
 30
0.0
  0
VERTEX
  5
1DD84
  8
0
 10
93.1848628651720645
 20
113.3682503551244025
 30
0.0
  0
VERTEX
  5
1DD85
  8
0
 10
93.2093007695299747
 20
113.4974708966909986
 30
0.0
  0
VERTEX
  5
1DD86
  8
0
 10
93.2477681171518924
 20
113.6211752146482041
 30
0.0
  0
VERTEX
  5
1DD87
  8
0
 10
93.3003058862311008
 20
113.7475324049592018
 30
0.0
  0
VERTEX
  5
1DD88
  8
0
 10
93.3973571490866306
 20
113.9299440383910991
 30
0.0
  0
VERTEX
  5
1DD89
  8
0
 10
93.514882607422507
 20
114.1082569211720994
 30
0.0
  0
VERTEX
  5
1DD8A
  8
0
 10
93.623146994076393
 20
114.2489071190357066
 30
0.0
  0
VERTEX
  5
1DD8B
  8
0
 10
93.7390854787451246
 20
114.3823777511715036
 30
0.0
  0
SEQEND
  5
1DD8C
  8
0
  0
LINE
  5
1DC02
  8
0
 10
93.7390854787451246
 20
112.7800940722226954
 30
0.0
 11
93.7390854787451246
 21
110.9095764532684996
 31
0.0
  0
POLYLINE
  5
1DC03
  8
0
 66
     1
 10
0.0
 20
0.0
 30
0.0
 70
   128
  0
VERTEX
  5
1DD8D
  8
0
 10
93.7390854787451246
 20
109.0259793400764039
 30
0.0
  0
VERTEX
  5
1DD8E
  8
0
 10
93.5497252475840213
 20
109.1134892031549981
 30
0.0
  0
VERTEX
  5
1DD8F
  8
0
 10
93.3776205610853651
 20
109.2577617801725012
 30
0.0
  0
VERTEX
  5
1DD90
  8
0
 10
93.2390621137243869
 20
109.4823071453720047
 30
0.0
  0
VERTEX
  5
1DD91
  8
0
 10
93.1795058977228763
 20
109.7777762170881033
 30
0.0
  0
VERTEX
  5
1DD92
  8
0
 10
93.2093007695299747
 20
110.0582367926836014
 30
0.0
  0
VERTEX
  5
1DD93
  8
0
 10
93.3003021609408023
 20
110.320305842906194
 30
0.0
  0
VERTEX
  5
1DD94
  8
0
 10
93.5148751568419101
 20
110.6682395748793937
 30
0.0
  0
VERTEX
  5
1DD95
  8
0
 10
93.7390854787451246
 20
110.9095764532684996
 30
0.0
  0
SEQEND
  5
1DD96
  8
0
  0
LINE
  5
1DC04
  8
0
 10
93.7390854787451246
 20
109.0259793400764039
 30
0.0
 11
93.7390854787451246
 21
106.9524945179000071
 31
0.0
  0
LINE
  5
1DC05
  8
0
 10
93.7390854787451246
 20
104.9719632556661963
 30
0.0
 11
93.7390854787451246
 21
102.8984784334897995
 31
0.0
  0
POLYLINE
  5
1DC06
  8
0
 66
     1
 10
0.0
 20
0.0
 30
0.0
 70
   128
  0
VERTEX
  5
1DD97
  8
0
 10
93.7390854787451246
 20
101.0148813202977038
 30
0.0
  0
VERTEX
  5
1DD98
  8
0
 10
93.5497438740355136
 20
101.2130993604660034
 30
0.0
  0
VERTEX
  5
1DD99
  8
0
 10
93.377650363407767
 20
101.456570364534798
 30
0.0
  0
VERTEX
  5
1DD9A
  8
0
 10
93.2390770148855808
 20
101.7600325122475056
 30
0.0
  0
VERTEX
  5
1DD9B
  8
0
 10
93.1795058977228763
 20
102.0891647040843964
 30
0.0
  0
VERTEX
  5
1DD9C
  8
0
 10
93.2092933189493635
 20
102.3528190981595998
 30
0.0
  0
VERTEX
  5
1DD9D
  8
0
 10
93.3002909850699069
 20
102.5632849615066959
 30
0.0
  0
VERTEX
  5
1DD9E
  8
0
 10
93.5148490798098209
 20
102.7880536112934067
 30
0.0
  0
VERTEX
  5
1DD9F
  8
0
 10
93.7390854787451246
 20
102.8984784334897995
 30
0.0
  0
SEQEND
  5
1DDA0
  8
0
  0
LINE
  5
1DC07
  8
0
 10
93.7390854787451246
 20
101.0148813202977038
 30
0.0
 11
93.7390854787451246
 21
99.1443637013435364
 31
0.0
  0
POLYLINE
  5
1DC08
  8
0
 66
     1
 10
0.0
 20
0.0
 30
0.0
 70
   128
  0
VERTEX
  5
1DDA1
  8
0
 10
93.7390854787451246
 20
97.5420800223946429
 30
0.0
  0
VERTEX
  5
1DDA2
  8
0
 10
93.5497289728743056
 20
97.7689231932163239
 30
0.0
  0
VERTEX
  5
1DDA3
  8
0
 10
93.3776242863756636
 20
98.0282220244407654
 30
0.0
  0
VERTEX
  5
1DDA4
  8
0
 10
93.2390621137243869
 20
98.3278457261621952
 30
0.0
  0
VERTEX
  5
1DDA5
  8
0
 10
93.1795058977228763
 20
98.6255048029124737
 30
0.0
  0
VERTEX
  5
1DDA6
  8
0
 10
93.2093007695299747
 20
98.8409355469048023
 30
0.0
  0
VERTEX
  5
1DDA7
  8
0
 10
93.3003021609408023
 20
98.9928347244858742
 30
0.0
  0
VERTEX
  5
1DDA8
  8
0
 10
93.5148751568419101
 20
99.1192785277962543
 30
0.0
  0
VERTEX
  5
1DDA9
  8
0
 10
93.7390854787451246
 20
99.1443637013435364
 30
0.0
  0
SEQEND
  5
1DDAA
  8
0
  0
LINE
  5
1DC09
  8
0
 10
93.7390854787451246
 20
97.5420800223946429
 30
0.0
 11
93.7390854787451246
 21
96.0576291382312633
 31
0.0
  0
POLYLINE
  5
1DC0A
  8
0
 66
     1
 10
0.0
 20
0.0
 30
0.0
 70
   128
  0
VERTEX
  5
1DDAB
  8
0
 10
93.7390854787451246
 20
94.8935019969940043
 30
0.0
  0
VERTEX
  5
1DDAC
  8
0
 10
93.5463166069609144
 20
95.131244435906396
 30
0.0
  0
VERTEX
  5
1DDAD
  8
0
 10
93.3776131105047824
 20
95.3764775022864058
 30
0.0
  0
VERTEX
  5
1DDAE
  8
0
 10
93.2390583884340742
 20
95.6429344788193561
 30
0.0
  0
VERTEX
  5
1DDAF
  8
0
 10
93.1795058977228763
 20
95.8799905329942561
 30
0.0
  0
VERTEX
  5
1DDB0
  8
0
 10
93.2093007695299747
 20
96.0261150449514247
 30
0.0
  0
VERTEX
  5
1DDB1
  8
0
 10
93.3003058862311008
 20
96.1045799031853534
 30
0.0
  0
VERTEX
  5
1DDB2
  8
0
 10
93.514882607422507
 20
96.120322048664093
 30
0.0
  0
VERTEX
  5
1DDB3
  8
0
 10
93.7390854787451246
 20
96.0576291382312633
 30
0.0
  0
SEQEND
  5
1DDB4
  8
0
  0
LINE
  5
1DC0B
  8
0
 10
93.7390854787451246
 20
94.8935019969940043
 30
0.0
 11
93.7390854787451246
 21
93.9404255896806433
 31
0.0
  0
POLYLINE
  5
1DC0C
  8
0
 66
     1
 10
0.0
 20
0.0
 30
0.0
 70
   128
  0
VERTEX
  5
1DDB5
  8
0
 10
93.7390854787451246
 20
93.3284078910946562
 30
0.0
  0
VERTEX
  5
1DDB6
  8
0
 10
93.5463203322512129
 20
93.5492514818906642
 30
0.0
  0
VERTEX
  5
1DDB7
  8
0
 10
93.3776205610853651
 20
93.7609178200363971
 30
0.0
  0
VERTEX
  5
1DDB8
  8
0
 10
93.2390621137243869
 20
93.9681305736303045
 30
0.0
  0
VERTEX
  5
1DDB9
  8
0
 10
93.1795058977228763
 20
94.1213852912187292
 30
0.0
  0
VERTEX
  5
1DDBA
  8
0
 10
93.2093007695299747
 20
94.1839049756526663
 30
0.0
  0
VERTEX
  5
1DDBB
  8
0
 10
93.3003021609408023
 20
94.1812572255730345
 30
0.0
  0
VERTEX
  5
1DDBC
  8
0
 10
93.5148751568419101
 20
94.0847610309719755
 30
0.0
  0
VERTEX
  5
1DDBD
  8
0
 10
93.7390854787451246
 20
93.9404255896806433
 30
0.0
  0
SEQEND
  5
1DDBE
  8
0
  0
LINE
  5
1DC0D
  8
0
 10
93.7390854787451246
 20
93.3284078910946562
 30
0.0
 11
93.7390854787451246
 21
93.0000002682208731
 31
0.0
  0
ARC
  5
1DC0E
  8
0
 10
69.8087566586288375
 20
67.9001062786280301
 30
0.0
 40
34.6794653322061919
 50
46.3664723212465404
 51
47.6235973054633916
  0
LINE
  5
1DC0F
  8
0
 10
92.9890876841169955
 20
93.7122292071580745
 30
0.0
 11
92.9890876841169955
 21
118.2122285664081005
 31
0.0
  0
LINE
  5
1DC10
  8
0
 10
103.9890876245122939
 20
93.7122292071580745
 30
0.0
 11
103.9890876245122939
 21
118.2122285664081005
 31
0.0
  0
LINE
  5
1DC11
  8
0
 10
103.2390861045938948
 20
92.9622286185621931
 30
0.0
 11
103.2390861045938948
 21
118.9622291550039961
 31
0.0
  0
LINE
  5
1DC12
  8
0
 10
102.1390861105544019
 20
92.9622286185621931
 30
0.0
 11
102.1390861105544019
 21
118.9622291550039961
 31
0.0
  0
LINE
  5
1DC13
  8
0
 10
102.0890852641684035
 20
109.0259793400764039
 30
0.0
 11
93.7390854787451246
 21
109.0259793400764039
 31
0.0
  0
LINE
  5
1DC14
  8
0
 10
102.0890852641684035
 20
102.8984784334897995
 30
0.0
 11
93.7390854787451246
 21
102.8984784334897995
 31
0.0
  0
LINE
  5
1DC15
  8
0
 10
102.0890852641684035
 20
110.9095764532684996
 30
0.0
 11
93.7390854787451246
 21
110.9095764532684996
 31
0.0
  0
LINE
  5
1DC16
  8
0
 10
102.0890852641684035
 20
101.0148813202977038
 30
0.0
 11
93.7390854787451246
 21
101.0148813202977038
 31
0.0
  0
LINE
  5
1DC17
  8
0
 10
102.0890852641684035
 20
99.1443637013435364
 30
0.0
 11
93.7390854787451246
 21
99.1443637013435364
 31
0.0
  0
LINE
  5
1DC18
  8
0
 10
102.0890852641684035
 20
112.7800940722226954
 30
0.0
 11
93.7390854787451246
 21
112.7800940722226954
 31
0.0
  0
LINE
  5
1DC19
  8
0
 10
102.0890852641684035
 20
114.3823777511715036
 30
0.0
 11
93.7390854787451246
 21
114.3823777511715036
 31
0.0
  0
LINE
  5
1DC1A
  8
0
 10
102.0890852641684035
 20
97.5420800223946429
 30
0.0
 11
93.7390854787451246
 21
97.5420800223946429
 31
0.0
  0
LINE
  5
1DC1B
  8
0
 10
102.0890852641684035
 20
96.0576291382312633
 30
0.0
 11
93.7390854787451246
 21
96.0576291382312633
 31
0.0
  0
LINE
  5
1DC1C
  8
0
 10
102.0890852641684035
 20
115.8668286353348975
 30
0.0
 11
93.7390854787451246
 21
115.8668286353348975
 31
0.0
  0
LINE
  5
1DC1D
  8
0
 10
102.0890852641684035
 20
94.8935019969940043
 30
0.0
 11
93.7390854787451246
 21
94.8935019969940043
 31
0.0
  0
LINE
  5
1DC1E
  8
0
 10
102.0890852641684035
 20
117.0309557765721991
 30
0.0
 11
93.7390854787451246
 21
117.0309557765721991
 31
0.0
  0
LINE
  5
1DC1F
  8
0
 10
111.6890875827890994
 20
98.7122290953993655
 30
0.0
 11
111.6890875827890994
 21
113.2122286781667952
 31
0.0
  0
LINE
  5
1DC20
  8
0
 10
110.9390879255158069
 20
97.9622285068035126
 30
0.0
 11
110.9390879255158069
 21
113.962229266762705
 31
0.0
  0
LINE
  5
1DC21
  8
0
 10
102.0890852641684035
 20
117.9840321838855033
 30
0.0
 11
93.7390854787451246
 21
117.9840321838855033
 31
0.0
  0
LINE
  5
1DC22
  8
0
 10
102.0890852641684035
 20
93.9404255896806433
 30
0.0
 11
93.7390854787451246
 21
93.9404255896806433
 31
0.0
  0
LINE
  5
1DC23
  8
0
 10
102.0890852641684035
 20
93.3284078910946562
 30
0.0
 11
93.7390854787451246
 21
93.3284078910946562
 31
0.0
  0
LINE
  5
1DC24
  8
0
 10
102.0890852641684035
 20
118.5960498824715046
 30
0.0
 11
93.7390854787451246
 21
118.5960498824715046
 31
0.0
  0
LINE
  5
1DC25
  8
0
 10
111.9890870731694008
 20
102.4328171461820034
 30
0.0
 11
111.9890870731694008
 21
109.4916406273841005
 31
0.0
  0
LINE
  5
1DC26
  8
0
 10
102.0890852641684035
 20
118.9244575053453019
 30
0.0
 11
93.7390854787451246
 21
118.9244575053453019
 31
0.0
  0
LINE
  5
1DC27
  8
0
 10
102.0890852641684035
 20
93.0000002682208731
 30
0.0
 11
93.7390854787451246
 21
93.0000002682208731
 31
0.0
  0
LINE
  5
1DC28
  8
0
 10
102.0890852641684035
 20
93.0000002682208731
 30
0.0
 11
102.0890852641684035
 21
118.9244575053453019
 31
0.0
  0
LINE
  5
1DC29
  8
0
 10
151.9890866261345082
 20
103.5757289920001938
 30
0.0
 11
151.9890866261345082
 21
108.3487287815659954
 31
0.0
  0
LINE
  5
1DC2A
  8
0
 10
151.3755871933323078
 20
102.9622288607060057
 30
0.0
 11
151.3755871933323078
 21
108.9622289128600983
 31
0.0
  0
LINE
  5
1DC2B
  8
0
 10
160.4890870880705052
 20
98.9622286707162857
 30
0.0
 11
160.4890870880705052
 21
112.9622291028499035
 31
0.0
  0
LINE
  5
1DC2C
  8
0
 10
159.9890870643218079
 20
98.4622290544211864
 30
0.0
 11
159.9890870643218079
 21
113.4622287191450027
 31
0.0
  0
LINE
  5
1DC2D
  8
0
 10
157.4890870619935015
 20
98.4622290544211864
 30
0.0
 11
157.4890870619935015
 21
113.4622287191450027
 31
0.0
  0
LINE
  5
1DC2E
  8
0
 10
156.4890868980806999
 20
101.6765147633850006
 30
0.0
 11
156.4890868980806999
 21
110.2479430101811033
 31
0.0
  0
LINE
  5
1DC2F
  8
0
 10
152.989087255708597
 20
101.6765147633850006
 30
0.0
 11
152.989087255708597
 21
110.2479430101811033
 31
0.0
  0
LINE
  5
1DC30
  8
2
 10
95.9121646071939011
 20
98.4622288867830662
 30
0.0
 11
95.9121646071939011
 21
113.4622288867830946
 31
0.0
  0
LINE
  5
1DC31
  8
2
 10
96.4121646071939153
 20
98.4622288867830946
 30
0.0
 11
96.4121646071939153
 21
113.4622288867830946
 31
0.0
  0
LINE
  5
1DC32
  8
2
 10
92.9890876841169955
 20
95.7434788867830946
 30
0.0
 11
95.9121646071939011
 21
98.4622288867830662
 31
0.0
  0
LINE
  5
1DC33
  8
2
 10
95.9121646071939011
 20
113.4622288867830946
 30
0.0
 11
92.9890876841169955
 21
116.1809788867830946
 31
0.0
  0
LINE
  5
1DC34
  8
2
 10
95.9121646071939011
 20
98.4622288867830946
 30
0.0
 11
96.4121646071939153
 21
98.4622288867830946
 31
0.0
  0
LINE
  5
1DC35
  8
2
 10
96.4121646071939153
 20
113.4622288867830946
 30
0.0
 11
95.9121646071939011
 21
113.4622288867830946
 31
0.0
  0
LINE
  5
1DC36
  8
1
 10
162.4890870880705052
 20
105.9622288867830946
 30
0.0
 11
90.9890876841169955
 21
105.9622288867830946
 31
0.0
  0
LINE
  5
1DC37
  8
2
 10
153.4584624082220898
 20
104.1122288867831003
 30
0.0
 11
153.4584624082220898
 21
107.8122288867831031
 31
0.0
  0
LINE
  5
1DC38
  8
2
 10
153.489087255708597
 20
103.7122288867830946
 30
0.0
 11
153.489087255708597
 21
108.2122288867830946
 31
0.0
  0
LINE
  5
1DC39
  8
2
 10
156.989087255708597
 20
103.7122288867830946
 30
0.0
 11
156.989087255708597
 21
108.2122288867830946
 31
0.0
  0
ARC
  5
1DC3A
  8
2
 10
154.739087255708597
 20
105.9622288867830946
 30
0.0
 40
2.25
 50
235.3078694146595922
 51
124.6920998048716029
  0
LINE
  5
1DC3B
  8
2
 10
152.989087255708597
 20
104.1122288867831003
 30
0.0
 11
153.4584624082220898
 21
104.1122288867831003
 31
0.0
  0
LINE
  5
1DC3C
  8
2
 10
153.4584624082220898
 20
107.8122288867831031
 30
0.0
 11
152.989087255708597
 21
107.8122288867831031
 31
0.0
  0
LINE
  5
1DC3D
  8
2
 10
152.989087255708597
 20
103.2122288867830946
 30
0.0
 11
153.489087255708597
 21
103.7122288867830946
 31
0.0
  0
LINE
  5
1DC3E
  8
2
 10
153.489087255708597
 20
108.2122288867830946
 30
0.0
 11
152.989087255708597
 21
108.7122288867830946
 31
0.0
  0
LINE
  5
1DC3F
  8
2
 10
153.489087255708597
 20
103.7122288867830946
 30
0.0
 11
156.989087255708597
 21
103.7122288867830946
 31
0.0
  0
LINE
  5
1DC40
  8
2
 10
156.989087255708597
 20
108.2122288867830946
 30
0.0
 11
153.489087255708597
 21
108.2122288867830946
 31
0.0
  0
LINE
  5
1DC41
  8
0
 10
92.9890876841169955
 20
118.2122285664081005
 30
0.0
 11
93.1826537680249629
 21
118.4054863825437991
 31
0.0
  0
ARC
  5
1DC42
  8
0
 10
69.8087566586288375
 20
144.0243514949380881
 30
0.0
 40
34.6794653322061919
 50
312.3764026945364094
 51
313.6335276787534099
  0
LINE
  5
1DC43
  8
3
 10
113.9890870731694008
 20
103.5037288867830938
 30
0.0
 11
113.0511815608709014
 21
102.9622288867830946
 31
0.0
  0
LINE
  5
1DC44
  8
3
 10
113.9890870731694008
 20
108.4207288867831949
 30
0.0
 11
113.0511815608710009
 21
108.9622288867830946
 31
0.0
  0
LINE
  5
1DC45
  8
3
 10
113.9890870731694008
 20
108.4207288867831949
 30
0.0
 11
151.9170866028921125
 21
108.4207288867831949
 31
0.0
  0
LINE
  5
1DC46
  8
3
 10
113.9890870731694008
 20
103.5037288867831933
 30
0.0
 11
151.9170866028919136
 21
103.5037288867827954
 31
0.0
  0
LINE
  5
1DC47
  8
0
 10
113.9890870731694008
 20
102.9622288867830946
 30
0.0
 11
113.9890870731694008
 21
108.9622288867830946
 31
0.0
  0
ENDSEC
  0
EOF
