  0
SECTION
  2
HEADER
  9
$ACADVER
  1
AC1009
  9
$INSBASE
 10
0.0
 20
0.0
 30
0.0
  9
$EXTMIN
 10
0.0
 20
-2.960436562073669
 30
0.0
  9
$EXTMAX
 10
176.6500000000000057
 20
181.6500000000000057
 30
0.0
  9
$LIMMIN
 10
0.0
 20
0.0
  9
$LIMMAX
 10
279.3999999999999773
 20
215.9000000000000057
  9
$ORTHOMODE
 70
     1
  9
$REGENMODE
 70
     1
  9
$FILLMODE
 70
     1
  9
$QTEXTMODE
 70
     0
  9
$MIRRTEXT
 70
     1
  9
$DRAGMODE
 70
     2
  9
$LTSCALE
 40
5.0
  9
$OSMODE
 70
    37
  9
$ATTMODE
 70
     1
  9
$TEXTSIZE
 40
2.5
  9
$TRACEWID
 40
1.0
  9
$TEXTSTYLE
  7
STANDARD
  9
$CLAYER
  8
0
  9
$CELTYPE
  6
BYLAYER
  9
$CECOLOR
 62
   256
  9
$DIMSCALE
 40
1.0
  9
$DIMASZ
 40
6.0
  9
$DIMEXO
 40
1.0
  9
$DIMDLI
 40
3.75
  9
$DIMRND
 40
0.0
  9
$DIMDLE
 40
0.0
  9
$DIMEXE
 40
1.0
  9
$DIMTP
 40
0.0
  9
$DIMTM
 40
0.0
  9
$DIMTXT
 40
3.5
  9
$DIMCEN
 40
2.5
  9
$DIMTSZ
 40
0.0
  9
$DIMTOL
 70
     0
  9
$DIMLIM
 70
     0
  9
$DIMTIH
 70
     1
  9
$DIMTOH
 70
     1
  9
$DIMSE1
 70
     0
  9
$DIMSE2
 70
     0
  9
$DIMTAD
 70
     1
  9
$DIMZIN
 70
     8
  9
$DIMBLK
  1

  9
$DIMASO
 70
     1
  9
$DIMSHO
 70
     1
  9
$DIMPOST
  1

  9
$DIMAPOST
  1

  9
$DIMALT
 70
     0
  9
$DIMALTD
 70
     3
  9
$DIMALTF
 40
0.0393700787401575
  9
$DIMLFAC
 40
1.0
  9
$DIMTOFL
 70
     1
  9
$DIMTVP
 40
0.0
  9
$DIMTIX
 70
     0
  9
$DIMSOXD
 70
     0
  9
$DIMSAH
 70
     0
  9
$DIMBLK1
  1

  9
$DIMBLK2
  1

  9
$DIMSTYLE
  2
ISO-25
  9
$DIMCLRD
 70
     0
  9
$DIMCLRE
 70
     0
  9
$DIMCLRT
 70
     0
  9
$DIMTFAC
 40
1.0
  9
$DIMGAP
 40
1.524
  9
$LUNITS
 70
     2
  9
$LUPREC
 70
     1
  9
$SKETCHINC
 40
1.0
  9
$FILLETRAD
 40
10.0
  9
$AUNITS
 70
     0
  9
$AUPREC
 70
     0
  9
$MENU
  1
.
  9
$ELEVATION
 40
0.0
  9
$PELEVATION
 40
0.0
  9
$THICKNESS
 40
0.0
  9
$LIMCHECK
 70
     0
  9
$BLIPMODE
 70
     0
  9
$CHAMFERA
 40
10.0
  9
$CHAMFERB
 40
10.0
  9
$SKPOLY
 70
     0
  9
$TDCREATE
 40
2455132.3971180561929941
  9
$TDUPDATE
 40
2460571.6584027782082558
  9
$TDINDWG
 40
0.1921141898
  9
$TDUSRTIMER
 40
0.1921141898
  9
$USRTIMER
 70
     1
  9
$ANGBASE
 50
0.0
  9
$ANGDIR
 70
     0
  9
$PDMODE
 70
     0
  9
$PDSIZE
 40
-1.0
  9
$PLINEWID
 40
0.0
  9
$COORDS
 70
     1
  9
$SPLFRAME
 70
     0
  9
$SPLINETYPE
 70
     6
  9
$SPLINESEGS
 70
     8
  9
$ATTDIA
 70
     1
  9
$ATTREQ
 70
     1
  9
$HANDLING
 70
     1
  9
$HANDSEED
  5
74C
  9
$SURFTAB1
 70
     6
  9
$SURFTAB2
 70
     6
  9
$SURFTYPE
 70
     6
  9
$SURFU
 70
     6
  9
$SURFV
 70
     6
  9
$UCSNAME
  2

  9
$UCSORG
 10
0.0
 20
0.0
 30
0.0
  9
$UCSXDIR
 10
1.0
 20
0.0
 30
0.0
  9
$UCSYDIR
 10
0.0
 20
1.0
 30
0.0
  9
$PUCSNAME
  2

  9
$PUCSORG
 10
0.0
 20
0.0
 30
0.0
  9
$PUCSXDIR
 10
1.0
 20
0.0
 30
0.0
  9
$PUCSYDIR
 10
0.0
 20
1.0
 30
0.0
  9
$USERI1
 70
     0
  9
$USERI2
 70
     0
  9
$USERI3
 70
     0
  9
$USERI4
 70
     0
  9
$USERI5
 70
     0
  9
$USERR1
 40
0.0
  9
$USERR2
 40
0.0
  9
$USERR3
 40
0.0
  9
$USERR4
 40
0.0
  9
$USERR5
 40
0.0
  9
$WORLDVIEW
 70
     1
  9
$SHADEDGE
 70
     3
  9
$SHADEDIF
 70
    70
  9
$TILEMODE
 70
     1
  9
$MAXACTVP
 70
    64
  9
$PLIMCHECK
 70
     0
  9
$PEXTMIN
 10
25.6999999999999886
 20
19.5
 30
0.0
  9
$PEXTMAX
 10
231.3000000000000114
 20
175.5
 30
0.0
  9
$PLIMMIN
 10
-20.0
 20
-7.5
  9
$PLIMMAX
 10
277.0
 20
202.5
  9
$UNITMODE
 70
     0
  9
$VISRETAIN
 70
     1
  9
$PLINEGEN
 70
     0
  9
$PSLTSCALE
 70
     1
  0
ENDSEC
  0
SECTION
  2
TABLES
  0
TABLE
  2
VPORT
 70
     1
  0
VPORT
  2
*ACTIVE
 70
     0
 10
0.0
 20
0.0
 11
1.0
 21
1.0
 12
352.2783251231526833
 22
150.0
 13
0.0
 23
0.0
 14
10.0
 24
10.0
 15
10.0
 25
10.0
 16
0.0
 26
0.0
 36
1.0
 17
0.0
 27
0.0
 37
0.0
 40
300.0
 41
2.3485221674876842
 42
50.0
 43
0.0
 44
0.0
 50
0.0
 51
0.0
 71
     0
 72
  2000
 73
     1
 74
     3
 75
     0
 76
     0
 77
     0
 78
     0
  0
ENDTAB
  0
TABLE
  2
LTYPE
 70
     3
  0
LTYPE
  2
CONTINUOUS
 70
     0
  3
Solid line
 72
    65
 73
     0
 40
0.0
  0
LTYPE
  2
CENTER
 70
     0
  3
____ _ ____ _ ____ _ ____ _ ____ _ ____ _ ____
 72
    65
 73
     4
 40
2.0
 49
1.25
 49
-0.25
 49
0.25
 49
-0.25
  0
LTYPE
  2
HIDDEN
 70
     0
  3
_ _ _ _ _ _ _ _ _ _ _ _ _ _ _ _ _ _ _ _ _ _ _
 72
    65
 73
     2
 40
0.375
 49
0.25
 49
-0.125
  0
ENDTAB
  0
TABLE
  2
LAYER
 70
     4
  0
LAYER
  2
0
 70
     0
 62
     7
  6
CONTINUOUS
  0
LAYER
  2
1
 70
     0
 62
     1
  6
CENTER
  0
LAYER
  2
DEFPOINTS
 70
     0
 62
     7
  6
CONTINUOUS
  0
LAYER
  2
2
 70
     0
 62
     2
  6
HIDDEN
  0
ENDTAB
  0
TABLE
  2
STYLE
 70
     2
  0
STYLE
  2
STANDARD
 70
     0
 40
0.0
 41
1.0
 50
0.0
 71
     0
 42
2.5
  3
txt
  4
bigfont
  0
STYLE
  2
STANDARD1
 70
     0
 40
0.0
 41
1.0
 50
0.0
 71
     0
 42
3.0
  3
txt
  4

  0
ENDTAB
  0
TABLE
  2
VIEW
 70
     0
  0
ENDTAB
  0
TABLE
  2
UCS
 70
     0
  0
ENDTAB
  0
TABLE
  2
APPID
 70
    13
  0
APPID
  2
ACAD
 70
     0
  0
APPID
  2
ACAD_MLEADERVER
 70
     0
  0
APPID
  2
ACAD_PSEXT
 70
     0
  0
APPID
  2
ACAD_DSTYLE_DIMJAG
 70
     0
  0
APPID
  2
ACAD_DSTYLE_DIMTALN
 70
     0
  0
APPID
  2
ACAD_DSTYLE_DIMBREAK
 70
     0
  0
APPID
  2
ACAECLAYERSTANDARD
 70
     0
  0
APPID
  2
ACCMTRANSPARENCY
 70
     0
  0
APPID
  2
ACAD_NAV_VCDISPLAY
 70
     0
  0
APPID
  2
ACAD_EXEMPT_FROM_CAD_STANDARDS
 70
     0
  0
APPID
  2
ACAD_DSTYLE_DIM_LINETYPE
 70
     0
  0
APPID
  2
ACAD_DSTYLE_DIM_EXT1_LINETYPE
 70
     0
  0
APPID
  2
ACAD_DSTYLE_DIM_EXT2_LINETYPE
 70
     0
  0
ENDTAB
  0
TABLE
  2
DIMSTYLE
 70
     2
  0
DIMSTYLE
  2
ISO-25
 70
     0
  3

  4

  5

  6

  7

 40
1.0
 41
2.5
 42
0.625
 43
3.75
 44
1.25
 45
0.0
 46
0.0
 47
0.0
 48
0.0
140
2.5
141
2.5
142
0.0
143
0.03937007874016
144
1.0
145
0.0
146
1.0
147
0.625
 71
     0
 72
     0
 73
     0
 74
     0
 75
     0
 76
     0
 77
     1
 78
     8
170
     0
171
     3
172
     1
173
     0
174
     0
175
     0
176
     0
177
     0
178
     0
  0
DIMSTYLE
  2
STANDARD
 70
     0
  3

  4

  5

  6

  7

 40
1.0
 41
0.18
 42
0.0625
 43
0.38
 44
0.18
 45
0.0
 46
0.0
 47
0.0
 48
0.0
140
0.18
141
0.09
142
0.0
143
25.3999999999999986
144
1.0
145
0.0
146
1.0
147
0.09
 71
     0
 72
     0
 73
     1
 74
     1
 75
     0
 76
     0
 77
     0
 78
     0
170
     0
171
     2
172
     0
173
     0
174
     0
175
     0
176
     0
177
     0
178
     0
  0
ENDTAB
  0
ENDSEC
  0
SECTION
  2
BLOCKS
  0
BLOCK
  8
0
  2
$MODEL_SPACE
 70
     0
 10
0.0
 20
0.0
 30
0.0
  3
$MODEL_SPACE
  1

  0
ENDBLK
  5
21
  8
0
  0
BLOCK
 67
     1
  8
0
  2
$PAPER_SPACE
 70
     0
 10
0.0
 20
0.0
 30
0.0
  3
$PAPER_SPACE
  1

  0
ENDBLK
  5
1D
 67
     1
  8
0
  0
ENDSEC
  0
SECTION
  2
ENTITIES
  0
TEXT
  5
274
  8
0
 62
     3
 10
0.0
 20
0.0
 30
0.0
 40
10.0
  1
FK2-FPP1
  7
STANDARD1
  0
LINE
  5
64E
  8
0
 10
71.5999999999999943
 20
124.8499999999999943
 30
0.0
 11
71.5999999999999943
 21
175.1500000000000057
 31
0.0
  0
ARC
  5
64F
  8
0
 10
73.0072912811499464
 20
175.2437499999998067
 30
0.0
 40
1.41041051204982
 50
94.401949652284415
 51
183.8112610494559931
  0
LINE
  5
650
  8
0
 10
20.3000000000000007
 20
176.6500000000000057
 30
0.0
 11
79.6999999999999744
 21
176.6500000000000057
 31
0.0
  0
LINE
  5
652
  8
0
 10
79.6999999999999744
 20
123.3499999999999943
 30
0.0
 11
20.3000000000000007
 21
123.3499999999999943
 31
0.0
  0
ARC
  5
653
  8
0
 10
73.0072912811502306
 20
124.7562500000005059
 30
0.0
 40
1.4104105120501009
 50
176.1887389505569104
 51
265.5980503477156276
  0
ARC
  5
655
  8
0
 10
72.5072912811496337
 20
124.7562499999999943
 30
0.0
 40
1.4104105120495469
 50
176.1887389505340877
 51
265.5980503477367733
  0
ARC
  5
658
  8
0
 10
72.5072912811496053
 20
175.2437500000000909
 30
0.0
 40
1.4104105120495041
 50
94.4019496522713126
 51
183.8112610494690955
  0
ARC
  5
65B
  8
0
 10
27.4927087188508388
 20
124.7562499999994969
 30
0.0
 40
1.4104105120490731
 50
274.4019496522648183
 51
3.8112610494863288
  0
ARC
  5
65D
  8
0
 10
26.9927087188501993
 20
124.7562500000000938
 30
0.0
 40
1.410410512049673
 50
274.4019496522843724
 51
3.811261049461848
  0
LINE
  5
65E
  8
0
 10
28.3999999999999915
 20
175.1500000000000057
 30
0.0
 11
28.3999999999999915
 21
124.8499999999999943
 31
0.0
  0
LINE
  5
660
  8
0
 10
28.8999999999999915
 20
175.1500000000000057
 30
0.0
 11
28.8999999999999915
 21
124.8499999999999943
 31
0.0
  0
ARC
  5
664
  8
0
 10
26.9927087188504302
 20
175.2437500000000909
 30
0.0
 40
1.4104105120494601
 50
356.1887389505297961
 51
85.5980503477327659
  0
ARC
  5
666
  8
0
 10
27.4927087188504693
 20
175.2437500000000909
 30
0.0
 40
1.410410512049437
 50
356.1887389505297961
 51
85.5980503477336043
  0
LINE
  5
667
  8
0
 10
71.0999999999999943
 20
175.1500000000000057
 30
0.0
 11
71.0999999999999943
 21
124.8499999999999943
 31
0.0
  0
LINE
  5
669
  8
0
 10
20.3000000000000007
 20
176.6500000000000057
 30
0.0
 11
20.3000000000000007
 21
123.3499999999999943
 31
0.0
  0
LINE
  5
66B
  8
0
 10
79.6999999999999744
 20
176.6500000000000057
 30
0.0
 11
79.6999999999999744
 21
123.3499999999999943
 31
0.0
  0
CIRCLE
  5
670
  8
0
 10
50.0
 20
150.0
 30
0.0
 40
8.25
  0
ARC
  5
672
  8
0
 10
22.3000000000000007
 20
52.0000000000001066
 30
0.0
 40
1.0
 50
180.0000000000023874
 51
270.0000000000007958
  0
ARC
  5
674
  8
0
 10
22.3000000000000007
 20
52.0000000000001066
 30
0.0
 40
2.0
 50
180.0000000000015916
 51
270.0000000000007958
  0
LINE
  5
676
  8
0
 10
77.6999999999999886
 20
50.9999999999999005
 30
0.0
 11
22.3000000000000007
 21
51.0000000000001208
 31
0.0
  0
LINE
  5
678
  8
0
 10
22.3000000000000007
 20
50.0000000000001066
 30
0.0
 11
77.6999999999999886
 21
49.9999999999998934
 31
0.0
  0
LINE
  5
679
  8
0
 10
21.3000000000000007
 20
52.0000000000000924
 30
0.0
 11
21.3000000000000007
 21
72.222649730810474
 31
0.0
  0
LINE
  5
67B
  8
0
 10
20.3000000000000114
 20
72.222649730810474
 30
0.0
 11
20.3000000000000114
 21
52.0000000000000924
 31
0.0
  0
ARC
  5
67C
  8
0
 10
22.3000000000000007
 20
72.222649730810474
 30
0.0
 40
1.0
 50
120.0000000000008953
 51
180.0
  0
ARC
  5
67E
  8
0
 10
22.3000000000000007
 20
72.222649730810474
 30
0.0
 40
2.000000000000016
 50
120.0000000000000995
 51
180.0
  0
LINE
  5
67F
  8
0
 10
21.8000000000000114
 20
73.0886751345948795
 30
0.0
 11
28.9000000000000909
 21
77.1878620458411149
 31
0.0
  0
LINE
  5
680
  8
0
 10
28.400000000000059
 20
78.053887449625563
 30
0.0
 11
21.3000000000000007
 21
73.9547005383793703
 31
0.0
  0
LINE
  5
682
  8
0
 10
28.8999999999999986
 20
77.1878620458412712
 30
0.0
 11
28.3999999999999986
 21
78.0538874496256625
 31
0.0
  0
ARC
  5
685
  8
0
 10
77.6999999999999886
 20
51.9999999999999005
 30
0.0
 40
1.0
 50
270.0000000000007958
 51
0.0
  0
ARC
  5
687
  8
0
 10
77.6999999999999886
 20
51.9999999999999005
 30
0.0
 40
2.0000000000000142
 50
270.0000000000007958
 51
0.0
  0
LINE
  5
688
  8
0
 10
78.6999999999999886
 20
72.2226497308102751
 30
0.0
 11
78.6999999999999886
 21
51.9999999999998792
 31
0.0
  0
LINE
  5
68A
  8
0
 10
79.6999999999999744
 20
51.9999999999999005
 30
0.0
 11
79.6999999999999744
 21
72.2226497308102751
 31
0.0
  0
LINE
  5
68B
  8
0
 10
78.6999999999999886
 20
73.9547005383791713
 30
0.0
 11
71.6000000000000796
 21
78.0538874496255772
 31
0.0
  0
LINE
  5
68E
  8
0
 10
71.1000000000000512
 20
77.1878620458411575
 30
0.0
 11
78.1999999999999886
 21
73.0886751345946664
 31
0.0
  0
LINE
  5
68F
  8
0
 10
71.5999999999999943
 20
78.0538874496254778
 30
0.0
 11
71.0999999999999943
 21
77.1878620458410722
 31
0.0
  0
ARC
  5
692
  8
0
 10
77.6999999999999886
 20
72.2226497308102751
 30
0.0
 40
1.0
 50
0.0
 51
59.9999999999990408
  0
ARC
  5
693
  8
0
 10
77.6999999999999886
 20
72.2226497308102751
 30
0.0
 40
2.000000000000016
 50
0.0
 51
60.0000000000000497
  0
LINE
  5
699
  8
0
 10
176.6500000000000057
 20
49.9999999999998934
 30
0.0
 11
123.3499999999999943
 21
49.9999999999998792
 31
0.0
  0
LINE
  5
69E
  8
0
 10
124.8499999999999943
 20
78.0538874496254778
 30
0.0
 11
175.1500000000000057
 21
78.0538874496254778
 31
0.0
  0
POLYLINE
  5
69F
  8
0
 66
     1
 10
0.0
 20
0.0
 30
0.0
 70
   128
  0
VERTEX
  5
738
  8
0
 10
175.1500000000000057
 20
78.0538874496254778
 30
0.0
  0
VERTEX
  5
739
  8
0
 10
175.4426354830241905
 20
78.0394764099278859
 30
0.0
  0
VERTEX
  5
73A
  8
0
 10
175.7240251485476108
 20
77.9967970990089441
 30
0.0
  0
VERTEX
  5
73B
  8
0
 10
175.9833553495292904
 20
77.9274896588524086
 30
0.0
  0
VERTEX
  5
73C
  8
0
 10
176.2106601717796934
 20
77.8342175355154495
 30
0.0
  0
VERTEX
  5
73D
  8
0
 10
176.3972044184536969
 20
77.7205651243902764
 30
0.0
  0
VERTEX
  5
73E
  8
0
 10
176.5358192987667962
 20
77.5909000238994508
 30
0.0
  0
VERTEX
  5
73F
  8
0
 10
176.6211779206047083
 20
77.4502051911377691
 30
0.0
  0
VERTEX
  5
740
  8
0
 10
176.6500000000000057
 20
77.3038874496254778
 30
0.0
  0
SEQEND
  5
741
  8
0
  0
POLYLINE
  5
6A0
  8
0
 66
     1
 10
0.0
 20
0.0
 30
0.0
 70
   128
  0
VERTEX
  5
742
  8
0
 10
123.3499999999999943
 20
77.3038874496254778
 30
0.0
  0
VERTEX
  5
743
  8
0
 10
123.3788220793951069
 20
77.4502051911375702
 30
0.0
  0
VERTEX
  5
744
  8
0
 10
123.4641807012330048
 20
77.5909000238993087
 30
0.0
  0
VERTEX
  5
745
  8
0
 10
123.6027955815462036
 20
77.7205651243902054
 30
0.0
  0
VERTEX
  5
746
  8
0
 10
123.7893398282200934
 20
77.8342175355154637
 30
0.0
  0
VERTEX
  5
747
  8
0
 10
124.0166446504705959
 20
77.9274896588524939
 30
0.0
  0
VERTEX
  5
748
  8
0
 10
124.2759748514523039
 20
77.9967970990091146
 30
0.0
  0
VERTEX
  5
749
  8
0
 10
124.5573645169757953
 20
78.0394764099281417
 30
0.0
  0
VERTEX
  5
74A
  8
0
 10
124.8499999999999943
 20
78.0538874496254778
 30
0.0
  0
SEQEND
  5
74B
  8
0
  0
LINE
  5
6A1
  8
0
 10
176.6500000000000057
 20
77.3038874496254778
 30
0.0
 11
176.6500000000000057
 21
49.9999999999999005
 31
0.0
  0
LINE
  5
6A2
  8
0
 10
123.3499999999999943
 20
49.9999999999998792
 30
0.0
 11
123.3499999999999943
 21
77.3038874496254778
 31
0.0
  0
LINE
  5
6A3
  8
2
 10
58.2500000000000071
 20
50.0
 30
0.0
 11
58.2500000000000071
 21
51.0
 31
0.0
  0
LINE
  5
6A4
  8
2
 10
41.75
 20
50.0000000000000284
 30
0.0
 11
41.75
 21
51.0000000000000284
 31
0.0
  0
LINE
  5
6A5
  8
1
 10
50.0
 20
56.0
 30
0.0
 11
50.0
 21
45.0
 31
0.0
  0
LINE
  5
6AE
  8
2
 10
176.6500000000000057
 20
50.9999999999999005
 30
0.0
 11
123.3499999999999943
 21
50.9999999999998792
 31
0.0
  0
LINE
  5
6AF
  8
2
 10
158.25
 20
49.9999999999998934
 30
0.0
 11
158.25
 21
50.9999999999998792
 31
0.0
  0
LINE
  5
6B0
  8
2
 10
141.75
 20
49.9999999999999218
 30
0.0
 11
141.75
 21
50.9999999999999076
 31
0.0
  0
LINE
  5
6B1
  8
1
 10
150.0
 20
83.0538874496254493
 30
0.0
 11
150.0
 21
44.9999999999998792
 31
0.0
  0
LINE
  5
6B2
  8
1
 10
84.6999999999999744
 20
150.0
 30
0.0
 11
15.3000000000000007
 21
150.0
 31
0.0
  0
LINE
  5
6B3
  8
1
 10
50.0
 20
181.6500000000000057
 30
0.0
 11
50.0
 21
118.3499999999999943
 31
0.0
  0
VIEWPORT
  5
4F4
 67
     1
  8
0
 10
128.5
 20
97.5
 30
0.0
 40
637.7388888888888232
 41
222.1800000000000068
 68
     1
 69
     1
1001
ACAD
1000
MVIEW
1002
{
1070
    16
1010
0.0
1020
0.0
1030
0.0
1010
0.0
1020
0.0
1030
1.0
1040
0.0
1040
222.1800000000000068
1040
128.5
1040
97.5
1040
50.0
1040
0.0
1040
0.0
1070
     0
1070
  2000
1070
     1
1070
     1
1070
     0
1070
     0
1070
     0
1070
     0
1040
0.0
1040
0.0
1040
0.0
1040
10.0
1040
10.0
1040
10.0
1040
10.0
1070
     0
1002
{
1002
}
1002
}
  0
VIEWPORT
  5
4F8
 67
     1
  8
0
 10
128.5
 20
97.5
 30
0.0
 40
205.5999999999999943
 41
156.0
 68
     2
 69
     2
1001
ACAD
1000
MVIEW
1002
{
1070
    16
1010
0.0
1020
0.0
1030
0.0
1010
0.0
1020
0.0
1030
1.0
1040
0.0
1040
149.6269862816405976
1040
37.5011823863698126
1040
70.6737746447099653
1040
50.0
1040
0.0
1040
0.0
1070
     0
1070
  2000
1070
     1
1070
     3
1070
     0
1070
     0
1070
     0
1070
     0
1040
0.0
1040
0.0
1040
0.0
1040
10.0
1040
10.0
1040
10.0
1040
10.0
1070
     0
1002
{
1002
}
1002
}
  0
ENDSEC
  0
EOF
