  0
SECTION
  2
HEADER
  9
$ACADVER
  1
AC1009
  9
$INSBASE
 10
0.0
 20
0.0
 30
0.0
  9
$EXTMIN
 10
0.0
 20
-2.960436562073669
 30
0.0
  9
$EXTMAX
 10
315.0893815327405
 20
231.60121902478019
 30
0.0
  9
$LIMMIN
 10
0.0
 20
0.0
  9
$LIMMAX
 10
375.0
 20
270.0
  9
$ORTHOMODE
 70
     1
  9
$REGENMODE
 70
     1
  9
$FILLMODE
 70
     1
  9
$QTEXTMODE
 70
     0
  9
$MIRRTEXT
 70
     0
  9
$DRAGMODE
 70
     2
  9
$LTSCALE
 40
10.0
  9
$OSMODE
 70
    55
  9
$ATTMODE
 70
     1
  9
$TEXTSIZE
 40
0.2
  9
$TRACEWID
 40
0.05
  9
$TEXTSTYLE
  7
STANDARD
  9
$CLAYER
  8
0
  9
$CELTYPE
  6
BYLAYER
  9
$CECOLOR
 62
   256
  9
$DIMSCALE
 40
1.0
  9
$DIMASZ
 40
3.0
  9
$DIMEXO
 40
2.0
  9
$DIMDLI
 40
0.38
  9
$DIMRND
 40
0.0
  9
$DIMDLE
 40
0.0
  9
$DIMEXE
 40
2.0
  9
$DIMTP
 40
0.0
  9
$DIMTM
 40
0.0
  9
$DIMTXT
 40
3.2000000000000002
  9
$DIMCEN
 40
0.0
  9
$DIMTSZ
 40
0.0
  9
$DIMTOL
 70
     0
  9
$DIMLIM
 70
     0
  9
$DIMTIH
 70
     0
  9
$DIMTOH
 70
     0
  9
$DIMSE1
 70
     0
  9
$DIMSE2
 70
     0
  9
$DIMTAD
 70
     1
  9
$DIMZIN
 70
     0
  9
$DIMBLK
  1

  9
$DIMASO
 70
     1
  9
$DIMSHO
 70
     0
  9
$DIMPOST
  1

  9
$DIMAPOST
  1

  9
$DIMALT
 70
     0
  9
$DIMALTD
 70
     2
  9
$DIMALTF
 40
25.399999999999999
  9
$DIMLFAC
 40
1.0
  9
$DIMTOFL
 70
     1
  9
$DIMTVP
 40
1.6000000000000001
  9
$DIMTIX
 70
     1
  9
$DIMSOXD
 70
     0
  9
$DIMSAH
 70
     0
  9
$DIMBLK1
  1

  9
$DIMBLK2
  1

  9
$DIMSTYLE
  2
STANDARD
  9
$DIMCLRD
 70
     0
  9
$DIMCLRE
 70
     0
  9
$DIMCLRT
 70
     0
  9
$DIMTFAC
 40
1.0
  9
$DIMGAP
 40
0.09
  9
$LUNITS
 70
     2
  9
$LUPREC
 70
     4
  9
$SKETCHINC
 40
0.1
  9
$FILLETRAD
 40
0.0
  9
$AUNITS
 70
     0
  9
$AUPREC
 70
     4
  9
$MENU
  1
E:\r13\win\SUPPORT\ACAD
  9
$ELEVATION
 40
0.0
  9
$PELEVATION
 40
0.0
  9
$THICKNESS
 40
0.0
  9
$LIMCHECK
 70
     0
  9
$BLIPMODE
 70
     0
  9
$CHAMFERA
 40
0.25
  9
$CHAMFERB
 40
0.25
  9
$SKPOLY
 70
     0
  9
$TDCREATE
 40
2449839.7944097221
  9
$TDUPDATE
 40
2456598.6406799769
  9
$TDINDWG
 40
0.0116315856
  9
$TDUSRTIMER
 40
0.0116315856
  9
$USRTIMER
 70
     1
  9
$ANGBASE
 50
0.0
  9
$ANGDIR
 70
     0
  9
$PDMODE
 70
     0
  9
$PDSIZE
 40
0.0
  9
$PLINEWID
 40
0.0
  9
$COORDS
 70
     1
  9
$SPLFRAME
 70
     0
  9
$SPLINETYPE
 70
     6
  9
$SPLINESEGS
 70
     8
  9
$ATTDIA
 70
     0
  9
$ATTREQ
 70
     1
  9
$HANDLING
 70
     1
  9
$HANDSEED
  5
4B0
  9
$SURFTAB1
 70
     6
  9
$SURFTAB2
 70
     6
  9
$SURFTYPE
 70
     6
  9
$SURFU
 70
     6
  9
$SURFV
 70
     6
  9
$UCSNAME
  2

  9
$UCSORG
 10
0.0
 20
0.0
 30
0.0
  9
$UCSXDIR
 10
1.0
 20
0.0
 30
0.0
  9
$UCSYDIR
 10
0.0
 20
1.0
 30
0.0
  9
$PUCSNAME
  2

  9
$PUCSORG
 10
0.0
 20
0.0
 30
0.0
  9
$PUCSXDIR
 10
1.0
 20
0.0
 30
0.0
  9
$PUCSYDIR
 10
0.0
 20
1.0
 30
0.0
  9
$USERI1
 70
     0
  9
$USERI2
 70
     1
  9
$USERI3
 70
     1
  9
$USERI4
 70
     0
  9
$USERI5
 70
     0
  9
$USERR1
 40
0.0
  9
$USERR2
 40
0.0
  9
$USERR3
 40
0.0
  9
$USERR4
 40
0.0
  9
$USERR5
 40
0.0
  9
$WORLDVIEW
 70
     1
  9
$SHADEDGE
 70
     3
  9
$SHADEDIF
 70
    70
  9
$TILEMODE
 70
     1
  9
$MAXACTVP
 70
    16
  9
$PLIMCHECK
 70
     0
  9
$PEXTMIN
 10
1.0000000000000000E+020
 20
1.0000000000000000E+020
 30
1.0000000000000000E+020
  9
$PEXTMAX
 10
-1.0000000000000000E+020
 20
-1.0000000000000000E+020
 30
-1.0000000000000000E+020
  9
$PLIMMIN
 10
0.0
 20
0.0
  9
$PLIMMAX
 10
12.0
 20
9.0
  9
$UNITMODE
 70
     0
  9
$VISRETAIN
 70
     0
  9
$PLINEGEN
 70
     0
  9
$PSLTSCALE
 70
     0
  0
ENDSEC
  0
SECTION
  2
TABLES
  0
TABLE
  2
VPORT
 70
     1
  0
VPORT
  2
*ACTIVE
 70
     0
 10
0.0
 20
0.0
 11
1.0
 21
1.0
 12
187.49427839065231
 22
174.91677254346851
 13
0.0
 23
0.0
 14
10.0
 24
10.0
 15
10.0
 25
10.0
 16
0.0
 26
0.0
 36
1.0
 17
0.0
 27
0.0
 37
0.0
 40
358.92027899574339
 41
1.7807262569832401
 42
50.0
 43
0.0
 44
0.0
 50
0.0
 51
0.0
 71
     0
 72
   500
 73
     1
 74
     0
 75
     0
 76
     0
 77
     0
 78
     2
  0
ENDTAB
  0
TABLE
  2
LTYPE
 70
     3
  0
LTYPE
  2
CONTINUOUS
 70
     0
  3
Solid Line
 72
    65
 73
     0
 40
0.0
  0
LTYPE
  2
CENTER
 70
     0
  3
____ _ ____ _ ____ _ ____ _ ____ _ ____ _ ____
 72
    65
 73
     4
 40
2.0
 49
1.25
 49
-0.25
 49
0.25
 49
-0.25
  0
LTYPE
  2
PHANTOM2
 70
     0
  3
___ _ _ ___ _ _ ___ _ _ ___ _ _
 72
    65
 73
     6
 40
1.25
 49
0.625
 49
-0.125
 49
0.125
 49
-0.125
 49
0.125
 49
-0.125
  0
ENDTAB
  0
TABLE
  2
LAYER
 70
     3
  0
LAYER
  2
0
 70
     0
 62
     7
  6
CONTINUOUS
  0
LAYER
  2
1
 70
     0
 62
     1
  6
CENTER
  0
LAYER
  2
3
 70
     0
 62
     3
  6
CONTINUOUS
  0
ENDTAB
  0
TABLE
  2
STYLE
 70
     3
  0
STYLE
  2
STANDARD
 70
     0
 40
0.0
 41
1.0
 50
0.0
 71
     0
 42
0.2
  3
TXT
  4
BIGFONT
  0
STYLE
  2
SIM080
 70
     0
 40
0.0
 41
0.8
 50
0.0
 71
     0
 42
0.7
  3
SIMPLEX
  4

  0
STYLE
  2
STANDARD1
 70
     0
 40
0.0
 41
1.0
 50
0.0
 71
     0
 42
3.0
  3
txt
  4

  0
ENDTAB
  0
TABLE
  2
VIEW
 70
     1
  0
VIEW
  2
ALL
 70
     0
 40
270.0
 10
220.99159663865549
 20
135.0
 41
0.0
 11
0.0
 21
0.0
 31
1.0
 12
0.0
 22
0.0
 32
0.0
 42
0.0
 43
0.0
 44
0.0
 50
0.0
 71
     0
  0
ENDTAB
  0
TABLE
  2
UCS
 70
     0
  0
ENDTAB
  0
TABLE
  2
APPID
 70
     3
  0
APPID
  2
ACAD
 70
     0
  0
APPID
  2
ACAD_MLEADERVER
 70
     0
  0
APPID
  2
ACAD_NAV_VCDISPLAY
 70
     0
  0
ENDTAB
  0
TABLE
  2
DIMSTYLE
 70
     1
  0
DIMSTYLE
  2
STANDARD
 70
     0
  3

  4

  5

  6

  7

 40
1.0
 41
0.18
 42
0.0625
 43
0.38
 44
0.18
 45
0.0
 46
0.0
 47
0.0
 48
0.0
140
0.18
141
0.09
142
0.0
143
25.399999999999999
144
1.0
145
0.0
146
1.0
147
0.09
 71
     0
 72
     0
 73
     1
 74
     1
 75
     0
 76
     0
 77
     0
 78
     0
170
     0
171
     2
172
     0
173
     0
174
     0
175
     0
176
     0
177
     0
178
     0
  0
ENDTAB
  0
ENDSEC
  0
SECTION
  2
BLOCKS
  0
BLOCK
  8
0
  2
$MODEL_SPACE
 70
     0
 10
0.0
 20
0.0
 30
0.0
  3
$MODEL_SPACE
  1

  0
ENDBLK
  5
168
  8
0
  0
BLOCK
 67
     1
  8
0
  2
$PAPER_SPACE
 70
     0
 10
0.0
 20
0.0
 30
0.0
  3
$PAPER_SPACE
  1

  0
ENDBLK
  5
166
 67
     1
  8
0
  0
ENDSEC
  0
SECTION
  2
ENTITIES
  0
LINE
  5
58
  8
1
 10
175.5530605894952
 20
136.60121902478019
 30
0.0
 11
205.5530605894952
 21
136.60121902478019
 31
0.0
  0
LINE
  5
AE
  8
1
 10
97.660324778144115
 20
166.60121902478019
 30
0.0
 11
97.660324778144044
 21
106.60121902478021
 31
0.0
  0
LINE
  5
AF
  8
1
 10
127.6603247781441
 20
136.60121902478019
 30
0.0
 11
67.660324778144115
 21
136.60121902478031
 31
0.0
  0
ARC
  5
B7
  8
0
 10
285.08938153274039
 20
136.60121902478019
 30
0.0
 40
15.13269892406805
 50
154.16852229694749
 51
205.83147770304831
  0
ARC
  5
B8
  8
0
 10
285.08938153274062
 20
136.60121902478031
 30
0.0
 40
15.13269892406805
 50
94.168522296947472
 51
145.83147770304831
  0
ARC
  5
B9
  8
0
 10
285.08938153274062
 20
136.60121902478019
 30
0.0
 40
15.13269892406805
 50
34.168522296947543
 51
85.831477703048378
  0
ARC
  5
BA
  8
0
 10
285.08938153274062
 20
136.60121902478011
 30
0.0
 40
15.13269892406805
 50
334.16852229694751
 51
25.83147770304841
  0
ARC
  5
BB
  8
0
 10
285.08938153274062
 20
136.60121902477999
 30
0.0
 40
15.13269892406805
 50
274.16852229694751
 51
325.83147770304839
  0
ARC
  5
BC
  8
0
 10
285.08938153274039
 20
136.60121902478011
 30
0.0
 40
15.13269892406805
 50
214.16852229694749
 51
265.83147770304851
  0
ARC
  5
BD
  8
0
 10
285.08938153274062
 20
136.60121902478019
 30
0.0
 40
14.9999999999996
 50
154.2054656001535
 51
205.79453439984161
  0
ARC
  5
BE
  8
0
 10
285.08938153274062
 20
136.60121902478019
 30
0.0
 40
14.9999999999996
 50
94.205465600153602
 51
145.79453439984161
  0
ARC
  5
BF
  8
0
 10
285.08938153274062
 20
136.60121902478019
 30
0.0
 40
14.9999999999996
 50
34.205465600153573
 51
85.794534399841623
  0
ARC
  5
C0
  8
0
 10
285.08938153274062
 20
136.60121902478019
 30
0.0
 40
14.9999999999996
 50
334.20546560015362
 51
25.794534399841648
  0
ARC
  5
C1
  8
0
 10
285.08938153274062
 20
136.60121902478019
 30
0.0
 40
14.9999999999996
 50
274.20546560015362
 51
325.79453439984161
  0
ARC
  5
C2
  8
0
 10
285.08938153274062
 20
136.60121902478019
 30
0.0
 40
14.9999999999996
 50
214.20546560015359
 51
265.79453439984161
  0
LINE
  5
C3
  8
0
 10
271.93938153274132
 20
142.923204472408
 30
0.0
 11
271.36689600418572
 21
143.25372914642671
 31
0.0
  0
LINE
  5
C4
  8
0
 10
271.9393815327407
 20
130.27923357715341
 30
0.0
 11
271.36689600418521
 21
129.94870890313459
 31
0.0
  0
ARC
  5
C5
  8
0
 10
268.28938153274049
 20
136.60121902478031
 30
0.0
 40
7.3000000000000114
 50
300.0
 51
60.000000000000227
  0
LINE
  5
C6
  8
0
 10
283.98938153274219
 20
151.1504458083588
 30
0.0
 11
283.98938153274219
 21
151.8114951563964
 31
0.0
  0
LINE
  5
C7
  8
0
 10
273.03938153274032
 20
144.82846036073201
 30
0.0
 11
272.46689600418478
 21
145.15898503475071
 31
0.0
  0
ARC
  5
C8
  8
0
 10
276.68938153274058
 20
151.1504458083588
 30
0.0
 40
7.3000000000000114
 50
239.99999999999989
 51
0.0000000000001895
  0
LINE
  5
C9
  8
0
 10
297.13938153274148
 20
144.82846036073099
 30
0.0
 11
297.71186706129708
 21
145.15898503474969
 31
0.0
  0
LINE
  5
CA
  8
0
 10
286.18938153274007
 20
151.1504458083588
 30
0.0
 11
286.18938153274007
 21
151.81149515639621
 31
0.0
  0
ARC
  5
CB
  8
0
 10
293.48938153274071
 20
151.15044580835871
 30
0.0
 40
7.3000000000000114
 50
180.0
 51
300.00000000000028
  0
LINE
  5
CC
  8
0
 10
298.2393815327398
 20
130.27923357715221
 30
0.0
 11
298.81186706129552
 21
129.94870890313351
 31
0.0
  0
LINE
  5
CD
  8
0
 10
298.23938153274042
 20
142.92320447240701
 30
0.0
 11
298.81186706129603
 21
143.25372914642571
 31
0.0
  0
ARC
  5
CE
  8
0
 10
301.88938153274057
 20
136.60121902477999
 30
0.0
 40
7.3000000000000114
 50
119.9999999999999
 51
240.0000000000002
  0
LINE
  5
CF
  8
0
 10
286.18938153273888
 20
122.0519922412014
 30
0.0
 11
286.18938153273899
 21
121.390942893164
 31
0.0
  0
LINE
  5
D0
  8
0
 10
297.1393815327408
 20
128.3739776888284
 30
0.0
 11
297.7118670612964
 21
128.04345301480959
 31
0.0
  0
ARC
  5
D1
  8
0
 10
293.48938153274048
 20
122.0519922412014
 30
0.0
 40
7.3000000000000114
 50
59.999999999999972
 51
180.0000000000002
  0
CIRCLE
  5
D2
  8
0
 10
285.08938153274062
 20
136.60121902478019
 30
0.0
 40
15.25000000000005
  0
CIRCLE
  5
D3
  8
0
 10
285.08938153274062
 20
136.60121902478019
 30
0.0
 40
16.806665536269289
  0
CIRCLE
  5
D4
  8
0
 10
285.08938153274062
 20
136.60121902478019
 30
0.0
 40
17.100000000000129
  0
CIRCLE
  5
D5
  8
0
 10
285.08938153274039
 20
136.60121902478011
 30
0.0
 40
25.0
  0
ARC
  5
D6
  8
0
 10
276.68938153274041
 20
122.0519922412016
 30
0.0
 40
7.3000000000000114
 50
360.0
 51
120.0000000000002
  0
LINE
  5
D8
  8
0
 10
283.98938153274099
 20
122.0519922412016
 30
0.0
 11
283.98938153274099
 21
121.39094289316409
 31
0.0
  0
LINE
  5
D9
  8
0
 10
273.0393815327397
 20
128.3739776888294
 30
0.0
 11
272.46689600418409
 21
128.04345301481061
 31
0.0
  0
CIRCLE
  5
DA
  8
0
 10
285.08938153274062
 20
136.60121902478019
 30
0.0
 40
20.954999999999998
  0
CIRCLE
  5
DB
  8
3
 10
285.08938153274062
 20
136.60121902478019
 30
0.0
 40
19.475999999999999
  0
LINE
  5
DC
  8
1
 10
315.0893815327405
 20
136.60121902478011
 30
0.0
 11
255.0893815327405
 21
136.60121902478019
 31
0.0
  0
LINE
  5
DD
  8
1
 10
285.08938153274062
 20
166.60121902478011
 30
0.0
 11
285.0893815327405
 21
106.60121902478009
 31
0.0
  0
CIRCLE
  5
24E
  8
0
 10
97.660324778144044
 20
136.60121902478019
 30
0.0
 40
25.0
  0
CIRCLE
  5
24F
  8
0
 10
97.660324778144044
 20
136.60121902478019
 30
0.0
 40
15.0
  0
LINE
  5
250
  8
0
 10
116.4704205715702
 20
120.90312053349339
 30
0.0
 11
101.8502289660172
 21
112.46214897441369
 31
0.0
  0
CIRCLE
  5
251
  8
0
 10
97.660324778144044
 20
136.60121902478019
 30
0.0
 40
22.749999999999989
  0
CIRCLE
  5
254
  8
0
 10
97.660324778144044
 20
136.60121902478019
 30
0.0
 40
17.0
  0
ARC
  5
255
  8
0
 10
97.660324778144044
 20
136.60121902478019
 30
0.0
 40
24.5
 50
320.15307438419302
 51
339.84692561583148
  0
ARC
  5
256
  8
0
 10
97.660324778144044
 20
136.60121902478019
 30
0.0
 40
24.5
 50
20.153074384200529
 51
39.846925615832511
  0
ARC
  5
257
  8
0
 10
97.660324778144002
 20
136.60121902478019
 30
0.0
 40
24.5
 50
80.153074384197595
 51
99.846925615832419
  0
ARC
  5
258
  8
0
 10
97.660324778144044
 20
136.60121902478019
 30
0.0
 40
24.5
 50
140.15307438420001
 51
159.84692561583151
  0
ARC
  5
259
  8
0
 10
97.660324778144115
 20
136.60121902478019
 30
0.0
 40
24.5
 50
200.15307438420049
 51
219.8469256158325
  0
ARC
  5
25A
  8
0
 10
97.660324778144044
 20
136.60121902478019
 30
0.0
 40
24.5
 50
260.15307438420069
 51
279.84692561585871
  0
LINE
  5
25B
  8
0
 10
120.6603247594216
 20
145.04219058386269
 30
0.0
 11
120.66032475943
 21
128.1602474657179
 31
0.0
  0
LINE
  5
25C
  8
0
 10
101.8502289659955
 20
160.74028907514941
 30
0.0
 11
116.4704205715569
 21
152.29931751608439
 31
0.0
  0
LINE
  5
25D
  8
0
 10
78.850228984717873
 20
152.29931751606699
 30
0.0
 11
93.470420590270919
 21
160.74028907514659
 31
0.0
  0
LINE
  5
25E
  8
0
 10
74.660324796866462
 20
128.16024746569769
 30
0.0
 11
74.660324796858049
 21
145.0421905838426
 31
0.0
  0
LINE
  5
25F
  8
0
 10
93.47042059029252
 20
112.46214897441089
 30
0.0
 11
78.850228984731075
 21
120.903120533476
 31
0.0
  0
ARC
  5
260
  8
0
 10
89.260324778144025
 20
122.0519922412017
 30
0.0
 40
7.3000000000000123
 50
0.0
 51
120.0000000000005
  0
CIRCLE
  5
261
  8
3
 10
97.660324778144044
 20
136.60121902478019
 30
0.0
 40
1.5
  0
LINE
  5
262
  8
0
 10
96.560324778144604
 20
122.0519922412016
 30
0.0
 11
96.560324778144604
 21
121.6416067303383
 31
0.0
  0
LINE
  5
263
  8
0
 10
98.760324778142476
 20
122.0519922412016
 30
0.0
 11
98.760324778142476
 21
121.6416067303383
 31
0.0
  0
LINE
  5
264
  8
0
 10
110.8103247781432
 20
130.27923357715241
 30
0.0
 11
111.16572905589589
 21
130.07404082172081
 31
0.0
  0
LINE
  5
265
  8
0
 10
109.7103247781442
 20
128.37397768882849
 30
0.0
 11
110.0657290558969
 21
128.16878493339701
 31
0.0
  0
ARC
  5
266
  8
0
 10
106.06032477814389
 20
122.0519922412016
 30
0.0
 40
7.3000000000000123
 50
59.99999999999946
 51
180.0
  0
LINE
  5
267
  8
0
 10
109.71032477814479
 20
144.82846036073099
 30
0.0
 11
110.06572905589741
 21
145.03365311616261
 31
0.0
  0
LINE
  5
268
  8
0
 10
110.81032477814369
 20
142.92320447240709
 30
0.0
 11
111.16572905589631
 21
143.1283972278388
 31
0.0
  0
ARC
  5
269
  8
0
 10
114.4603247781439
 20
136.60121902478019
 30
0.0
 40
7.3000000000000123
 50
120.0000000000005
 51
239.99999999999949
  0
LINE
  5
26A
  8
0
 10
96.560324778145613
 20
151.15044580835871
 30
0.0
 11
96.560324778145613
 21
151.56083131922199
 31
0.0
  0
LINE
  5
26B
  8
0
 10
98.760324778143513
 20
151.15044580835871
 30
0.0
 11
98.760324778143513
 21
151.56083131922199
 31
0.0
  0
ARC
  5
26C
  8
0
 10
106.06032477814399
 20
151.15044580835871
 30
0.0
 40
7.3000000000000123
 50
180.0
 51
300.00000000000063
  0
LINE
  5
26D
  8
0
 10
84.510324778144877
 20
142.923204472408
 30
0.0
 11
84.154920500392222
 21
143.1283972278396
 31
0.0
  0
LINE
  5
26E
  8
0
 10
85.610324778143877
 20
144.82846036073181
 30
0.0
 11
85.254920500391222
 21
145.03365311616349
 31
0.0
  0
ARC
  5
26F
  8
0
 10
89.260324778144067
 20
151.1504458083588
 30
0.0
 40
7.3000000000000123
 50
239.99999999999949
 51
0.0
  0
LINE
  5
270
  8
0
 10
85.610324778143308
 20
128.3739776888294
 30
0.0
 11
85.254920500390654
 21
128.1687849333978
 31
0.0
  0
LINE
  5
271
  8
0
 10
84.510324778144309
 20
130.27923357715329
 30
0.0
 11
84.154920500391654
 21
130.07404082172161
 31
0.0
  0
ARC
  5
272
  8
0
 10
80.860324778144104
 20
136.60121902478031
 30
0.0
 40
7.3000000000000123
 50
300.00000000000063
 51
59.99999999999946
  0
LINE
  5
273
  8
3
 10
91.814653302595389
 20
139.97621902478241
 30
0.0
 11
93.330197759216958
 21
139.10121902478309
 31
0.0
  0
LINE
  5
274
  8
3
 10
91.140325450688806
 20
138.34824757922331
 30
0.0
 11
92.830695646693229
 21
137.89531425029429
 31
0.0
  0
LINE
  5
275
  8
3
 10
90.910324778139724
 20
136.60121902478011
 30
0.0
 11
92.660324778138261
 21
136.60121902478011
 31
0.0
  0
LINE
  5
276
  8
3
 10
91.140325450688692
 20
134.85419047033719
 30
0.0
 11
92.83069564669313
 21
135.30712379926621
 31
0.0
  0
LINE
  5
277
  8
3
 10
91.814653302595389
 20
133.22621902477809
 30
0.0
 11
93.330197759216958
 21
134.10121902477729
 31
0.0
  0
LINE
  5
278
  8
3
 10
103.5059962536927
 20
133.226219024778
 30
0.0
 11
101.9904517970712
 21
134.10121902477729
 31
0.0
  0
LINE
  5
279
  8
3
 10
104.1803241055994
 20
134.8541904703371
 30
0.0
 11
102.489953909595
 21
135.30712379926609
 31
0.0
  0
LINE
  5
27A
  8
3
 10
104.41032477814839
 20
136.60121902478011
 30
0.0
 11
102.6603247781498
 21
136.60121902478011
 31
0.0
  0
LINE
  5
27B
  8
3
 10
104.1803241055994
 20
138.34824757922331
 30
0.0
 11
102.489953909595
 21
137.89531425029429
 31
0.0
  0
LINE
  5
27C
  8
3
 10
103.5059962536927
 20
139.97621902478241
 30
0.0
 11
101.9904517970712
 21
139.10121902478309
 31
0.0
  0
TEXT
  5
27D
  8
3
 10
94.114434137693607
 20
140.15289994284359
 30
0.0
 40
1.75
  1
E
 50
40.000000000000092
 41
0.8
  7
SIM080
 72
     1
 11
94.446386729711833
 21
140.43144124037451
 31
0.0
  0
TEXT
  5
27E
  8
3
 10
95.574347013201574
 20
141.1628740713787
 30
0.0
 40
1.75
  1
L
 50
19.999999999999531
 41
0.8
  7
SIM080
 72
     1
 11
95.950224061515939
 21
141.29968212870901
 31
0.0
  0
TEXT
  5
27F
  8
3
 10
97.226991444810722
 20
141.60121902477951
 30
0.0
 40
1.75
  1
E
 41
0.8
  7
SIM080
 72
     1
 11
97.660324778144044
 21
141.60121902477951
 31
0.0
  0
TEXT
  5
280
  8
3
 10
98.931902271738736
 20
141.45929152892771
 30
0.0
 40
1.75
  1
S
 50
340.00000000000051
 41
0.8
  7
SIM080
 72
     1
 11
99.370425494772192
 21
141.29968212870909
 31
0.0
  0
TEXT
  5
281
  8
3
 10
100.4657057902461
 20
140.77426129887399
 30
0.0
 40
1.75
  1
A
 50
319.99999999999989
 41
0.8
  7
SIM080
 72
     1
 11
100.8742628265762
 21
140.43144124037451
 31
0.0
  0
TEXT
  5
282
  8
3
 10
94.854943766041899
 20
132.42817675068639
 30
0.0
 40
1.75
  1
A
 50
139.99999999999989
 41
0.8
  7
SIM080
 72
     1
 11
94.446386729711776
 21
132.77099680918579
 31
0.0
  0
TEXT
  5
283
  8
3
 10
96.388747284549311
 20
131.74314652063271
 30
0.0
 40
1.75
  1
S
 50
160.00000000000051
 41
0.8
  7
SIM080
 72
     1
 11
95.950224061515883
 21
131.90275592085129
 31
0.0
  0
TEXT
  5
284
  8
3
 10
98.093658111477353
 20
131.6012190247809
 30
0.0
 40
1.75
  1
E
 50
180.0
 41
0.8
  7
SIM080
 72
     1
 11
97.660324778144002
 21
131.6012190247809
 31
0.0
  0
TEXT
  5
285
  8
3
 10
99.7463025430865
 20
132.0395639781816
 30
0.0
 40
1.75
  1
L
 50
199.99999999999949
 41
0.8
  7
SIM080
 72
     1
 11
99.370425494772121
 21
131.90275592085129
 31
0.0
  0
TEXT
  5
286
  8
3
 10
101.2062154185944
 20
133.04953810671671
 30
0.0
 40
1.75
  1
E
 50
220.00000000000011
 41
0.8
  7
SIM080
 72
     1
 11
100.8742628265762
 21
132.77099680918579
 31
0.0
  0
LINE
  5
288
  8
0
 10
190.55306058949509
 20
159.85121902478031
 30
0.0
 11
190.55306058949509
 21
113.35121902478021
 31
0.0
  0
LINE
  5
289
  8
0
 10
189.55306058949509
 20
161.60121902478019
 30
0.0
 11
189.55306058949509
 21
111.60121902478009
 31
0.0
  0
LINE
  5
28A
  8
0
 10
180.5530605894952
 20
159.35121902478019
 30
0.0
 11
180.55306058949509
 21
113.85121902478021
 31
0.0
  0
LINE
  5
28B
  8
0
 10
186.75306058949511
 20
161.60121902478019
 30
0.0
 11
186.75306058949511
 21
111.60121902478021
 31
0.0
  0
LINE
  5
28C
  8
0
 10
200.5530605894952
 20
156.07721902478019
 30
0.0
 11
200.5530605894952
 21
117.12521902478019
 31
0.0
  0
LINE
  5
28D
  8
0
 10
199.0530605894952
 20
157.55621902478029
 30
0.0
 11
199.0530605894952
 21
115.64621902478009
 31
0.0
  0
LINE
  5
28E
  8
0
 10
182.30306058949529
 20
120.90312053347409
 30
0.0
 11
182.30306058949529
 21
128.16024746569551
 31
0.0
  0
LINE
  5
28F
  8
3
 10
190.55306058949509
 20
117.12521902478019
 30
0.0
 11
199.0530605894952
 21
117.12521902478019
 31
0.0
  0
LINE
  5
290
  8
0
 10
190.55306058949509
 20
115.64621902478009
 30
0.0
 11
199.0530605894952
 21
115.64621902478009
 31
0.0
  0
LINE
  5
291
  8
0
 10
199.0530605894952
 20
117.12521902478009
 30
0.0
 11
200.5530605894952
 21
117.12521902478019
 31
0.0
  0
ARC
  5
292
  8
0
 10
187.49056057777909
 20
116.68263475394239
 30
0.0
 40
6.6875000070035382
 50
140.86862477288241
 51
219.1313752271175
  0
LINE
  5
293
  8
0
 10
182.30306058949529
 20
112.4621489744106
 30
0.0
 11
186.75306058949511
 21
112.4621489744107
 31
0.0
  0
LINE
  5
294
  8
0
 10
182.30306058949529
 20
112.10121902478021
 30
0.0
 11
186.75306058949511
 21
112.10121902478021
 31
0.0
  0
LINE
  5
295
  8
0
 10
186.75306058949511
 20
111.60121902478021
 30
0.0
 11
189.55306058949509
 21
111.60121902478009
 31
0.0
  0
LINE
  5
296
  8
0
 10
189.55306058949509
 20
113.35121902478021
 30
0.0
 11
190.55306058949509
 21
113.35121902478021
 31
0.0
  0
LINE
  5
297
  8
0
 10
180.5530605894952
 20
113.85121902478021
 30
0.0
 11
182.30306058949529
 21
112.10121902478021
 31
0.0
  0
LINE
  5
298
  8
0
 10
182.30306058949529
 20
112.10121902478021
 30
0.0
 11
182.30306058949529
 21
112.4621489744106
 31
0.0
  0
LINE
  5
299
  8
0
 10
182.30306058949529
 20
120.90312053347409
 30
0.0
 11
186.75306058949511
 21
120.90312053347409
 31
0.0
  0
LINE
  5
29A
  8
0
 10
190.55306058949509
 20
157.55621902478029
 30
0.0
 11
199.0530605894952
 21
157.55621902478029
 31
0.0
  0
LINE
  5
29B
  8
3
 10
190.55306058949509
 20
156.07721902478019
 30
0.0
 11
199.0530605894952
 21
156.07721902478019
 31
0.0
  0
LINE
  5
29C
  8
0
 10
199.0530605894952
 20
156.07721902478011
 30
0.0
 11
200.5530605894952
 21
156.07721902478011
 31
0.0
  0
LINE
  5
29D
  8
0
 10
180.5530605894952
 20
159.35121902478019
 30
0.0
 11
182.30306058949529
 21
161.10121902478019
 31
0.0
  0
ARC
  5
29E
  8
0
 10
187.49056057777909
 20
156.51980329561789
 30
0.0
 40
6.6875000070035382
 50
140.86862477288241
 51
219.1313752271175
  0
ARC
  5
29F
  8
0
 10
205.30306057083621
 20
136.60121902478011
 30
0.0
 40
24.500000000060268
 50
159.846925615852
 51
200.15307438414791
  0
LINE
  5
2A0
  8
0
 10
182.30306058949529
 20
128.16024746569551
 30
0.0
 11
186.75306058949511
 21
128.16024746569551
 31
0.0
  0
LINE
  5
2A1
  8
0
 10
182.30306058949529
 20
152.29931751608629
 30
0.0
 11
182.30306058949529
 21
145.04219058386479
 31
0.0
  0
LINE
  5
2A2
  8
0
 10
182.30306058949529
 20
145.04219058386479
 30
0.0
 11
186.75306058949511
 21
145.04219058386479
 31
0.0
  0
LINE
  5
2A3
  8
0
 10
182.30306058949529
 20
152.29931751608629
 30
0.0
 11
186.75306058949511
 21
152.29931751608621
 31
0.0
  0
LINE
  5
2A4
  8
0
 10
189.5530605894952
 20
159.85121902478031
 30
0.0
 11
190.55306058949509
 21
159.85121902478031
 31
0.0
  0
LINE
  5
2A5
  8
0
 10
182.30306058949529
 20
161.10121902478019
 30
0.0
 11
186.75306058949511
 21
161.10121902478019
 31
0.0
  0
LINE
  5
2A6
  8
0
 10
182.30306058949529
 20
160.74028907514969
 30
0.0
 11
186.75306058949511
 21
160.7402890751496
 31
0.0
  0
LINE
  5
2A7
  8
0
 10
186.75306058949511
 20
161.60121902478019
 30
0.0
 11
189.55306058949509
 21
161.60121902478019
 31
0.0
  0
LINE
  5
2A8
  8
0
 10
182.30306058949529
 20
161.10121902478019
 30
0.0
 11
182.30306058949529
 21
160.74028907514969
 31
0.0
  0
CIRCLE
  5
2AE
  8
0
 10
285.08938153274062
 20
136.60121902478011
 30
0.0
 40
23.250000000000139
  0
LINE
  5
2B2
  8
0
 10
186.75306058949511
 20
231.60121902478019
 30
0.0
 11
189.55306058949509
 21
231.60121902478019
 31
0.0
  0
LINE
  5
2B5
  8
0
 10
189.5530605894952
 20
229.85121902478031
 30
0.0
 11
190.55306058949509
 21
229.85121902478031
 31
0.0
  0
LINE
  5
2B8
  8
0
 10
182.30306058949529
 20
229.6012190060662
 30
0.0
 11
182.30306058949529
 21
225.41131481820639
 31
0.0
  0
LINE
  5
2BD
  8
0
 10
199.0530605894952
 20
226.07721902478011
 30
0.0
 11
200.5530605894952
 21
226.07721902478011
 31
0.0
  0
LINE
  5
2BE
  8
3
 10
190.55306058949509
 20
226.07721902478019
 30
0.0
 11
199.0530605894952
 21
226.07721902478019
 31
0.0
  0
LINE
  5
2BF
  8
0
 10
190.55306058949509
 20
227.55621902478029
 30
0.0
 11
199.0530605894952
 21
227.55621902478029
 31
0.0
  0
LINE
  5
2C3
  8
0
 10
189.55306058949509
 20
183.35121902478019
 30
0.0
 11
190.55306058949509
 21
183.35121902478019
 31
0.0
  0
LINE
  5
2C4
  8
0
 10
186.75306058949511
 20
181.60121902478019
 30
0.0
 11
189.55306058949509
 21
181.60121902478011
 31
0.0
  0
LINE
  5
2C8
  8
0
 10
199.0530605894952
 20
187.12521902478011
 30
0.0
 11
200.5530605894952
 21
187.12521902478019
 31
0.0
  0
LINE
  5
2C9
  8
0
 10
190.55306058949509
 20
185.64621902478009
 30
0.0
 11
199.0530605894952
 21
185.64621902478009
 31
0.0
  0
LINE
  5
2CA
  8
3
 10
190.55306058949509
 20
187.12521902478019
 30
0.0
 11
199.0530605894952
 21
187.12521902478019
 31
0.0
  0
LINE
  5
2CC
  8
0
 10
199.0530605894952
 20
227.55621902478029
 30
0.0
 11
199.0530605894952
 21
185.64621902478009
 31
0.0
  0
LINE
  5
2CD
  8
0
 10
200.5530605894952
 20
226.07721902478019
 30
0.0
 11
200.5530605894952
 21
187.12521902478019
 31
0.0
  0
LINE
  5
2CE
  8
0
 10
186.75306058949511
 20
231.60121902478019
 30
0.0
 11
186.75306058949511
 21
181.60121902478019
 31
0.0
  0
LINE
  5
2CF
  8
0
 10
180.5530605894952
 20
229.3512190060662
 30
0.0
 11
180.55306058949509
 21
183.85121902478019
 31
0.0
  0
LINE
  5
2D0
  8
0
 10
189.55306058949509
 20
231.60121902478019
 30
0.0
 11
189.55306058949509
 21
181.60121902478011
 31
0.0
  0
LINE
  5
2D1
  8
0
 10
190.55306058949509
 20
229.85121902478031
 30
0.0
 11
190.55306058949509
 21
183.35121902478019
 31
0.0
  0
LINE
  5
2D2
  8
1
 10
175.5530605894952
 20
206.60121902478019
 30
0.0
 11
205.5530605894952
 21
206.60121902478019
 31
0.0
  0
LINE
  5
30C
  8
0
 10
180.8030605894952
 20
229.6012190060662
 30
0.0
 11
186.75306058949511
 21
229.6012190060662
 31
0.0
  0
LINE
  5
30D
  8
0
 10
182.30306058949529
 20
225.41131481820639
 30
0.0
 11
186.75306058949511
 21
225.41131481820639
 31
0.0
  0
LINE
  5
30E
  8
0
 10
182.3030605894952
 20
210.79112321265339
 30
0.0
 11
186.75306058949511
 21
210.79112321265339
 31
0.0
  0
ARC
  5
310
  8
0
 10
199.36556057310099
 20
218.10121901542979
 30
0.0
 40
18.562500002325049
 50
156.80823034472431
 51
203.1917696552749
  0
LINE
  5
311
  8
0
 10
180.8030605894952
 20
229.6012190060662
 30
0.0
 11
180.5530605894952
 21
229.3512190060662
 31
0.0
  0
LINE
  5
312
  8
0
 10
180.8030605894952
 20
183.60121904349421
 30
0.0
 11
180.5530605894952
 21
183.85121904349421
 31
0.0
  0
ARC
  5
313
  8
0
 10
199.36556057310099
 20
195.10121903413059
 30
0.0
 40
18.562500002325049
 50
156.8082303447251
 51
203.19176965527569
  0
LINE
  5
314
  8
0
 10
182.3030605894952
 20
202.411314836907
 30
0.0
 11
186.75306058949511
 21
202.411314836907
 31
0.0
  0
LINE
  5
315
  8
0
 10
182.30306058949529
 20
187.79112323135399
 30
0.0
 11
186.75306058949511
 21
187.79112323135399
 31
0.0
  0
LINE
  5
316
  8
0
 10
180.8030605894952
 20
183.60121904349421
 30
0.0
 11
186.75306058949511
 21
183.6012190434941
 31
0.0
  0
LINE
  5
317
  8
0
 10
182.30306058949529
 20
183.6012190434941
 30
0.0
 11
182.30306058949529
 21
187.79112323135399
 31
0.0
  0
LINE
  5
318
  8
0
 10
182.3030605894952
 20
210.7911232126533
 30
0.0
 11
182.3030605894952
 21
202.411314836907
 31
0.0
  0
LINE
  5
319
  8
0
 10
182.3030605894952
 20
70.791123212653304
 30
0.0
 11
182.3030605894952
 21
62.411314836907017
 31
0.0
  0
LINE
  5
31A
  8
0
 10
182.30306058949529
 20
43.601219043494147
 30
0.0
 11
182.30306058949529
 21
47.791123231353993
 31
0.0
  0
LINE
  5
31B
  8
0
 10
180.8030605894952
 20
43.601219043494211
 30
0.0
 11
186.75306058949511
 21
43.601219043494147
 31
0.0
  0
LINE
  5
31C
  8
0
 10
182.30306058949529
 20
47.791123231354021
 30
0.0
 11
186.75306058949511
 21
47.791123231353993
 31
0.0
  0
LINE
  5
31D
  8
0
 10
182.3030605894952
 20
62.411314836907017
 30
0.0
 11
186.75306058949511
 21
62.411314836907017
 31
0.0
  0
ARC
  5
31E
  8
0
 10
199.36556057310099
 20
55.101219034130622
 30
0.0
 40
18.562500002325049
 50
156.8082303447251
 51
203.19176965527569
  0
LINE
  5
31F
  8
0
 10
180.8030605894952
 20
43.601219043494211
 30
0.0
 11
180.5530605894952
 21
43.851219043494197
 31
0.0
  0
LINE
  5
320
  8
0
 10
180.8030605894952
 20
89.601219006066174
 30
0.0
 11
180.5530605894952
 21
89.351219006066174
 31
0.0
  0
ARC
  5
321
  8
0
 10
199.36556057310099
 20
78.101219015429763
 30
0.0
 40
18.562500002325049
 50
156.80823034472431
 51
203.1917696552749
  0
LINE
  5
322
  8
0
 10
182.3030605894952
 20
70.79112321265336
 30
0.0
 11
186.75306058949511
 21
70.79112321265336
 31
0.0
  0
LINE
  5
323
  8
0
 10
182.30306058949529
 20
85.411314818206364
 30
0.0
 11
186.75306058949511
 21
85.411314818206407
 31
0.0
  0
LINE
  5
324
  8
0
 10
180.8030605894952
 20
89.601219006066174
 30
0.0
 11
186.75306058949511
 21
89.601219006066231
 31
0.0
  0
LINE
  5
325
  8
1
 10
175.5530605894952
 20
66.601219024780193
 30
0.0
 11
205.5530605894952
 21
66.601219024780193
 31
0.0
  0
LINE
  5
326
  8
0
 10
190.55306058949509
 20
89.851219024780306
 30
0.0
 11
190.55306058949509
 21
43.351219024780193
 31
0.0
  0
LINE
  5
327
  8
0
 10
189.55306058949509
 20
91.601219024780193
 30
0.0
 11
189.55306058949509
 21
41.601219024780129
 31
0.0
  0
LINE
  5
328
  8
0
 10
180.5530605894952
 20
89.351219006066174
 30
0.0
 11
180.55306058949509
 21
43.851219024780193
 31
0.0
  0
LINE
  5
329
  8
0
 10
186.75306058949511
 20
91.601219024780193
 30
0.0
 11
186.75306058949511
 21
41.601219024780193
 31
0.0
  0
LINE
  5
32A
  8
0
 10
200.5530605894952
 20
86.077219024780192
 30
0.0
 11
200.5530605894952
 21
47.125219024780193
 31
0.0
  0
LINE
  5
32B
  8
0
 10
199.0530605894952
 20
87.55621902478029
 30
0.0
 11
199.0530605894952
 21
45.646219024780152
 31
0.0
  0
LINE
  5
32C
  8
3
 10
190.55306058949509
 20
47.125219024780193
 30
0.0
 11
199.0530605894952
 21
47.125219024780193
 31
0.0
  0
LINE
  5
32D
  8
0
 10
190.55306058949509
 20
45.646219024780152
 30
0.0
 11
199.0530605894952
 21
45.646219024780152
 31
0.0
  0
LINE
  5
32E
  8
0
 10
199.0530605894952
 20
47.125219024780129
 30
0.0
 11
200.5530605894952
 21
47.125219024780193
 31
0.0
  0
LINE
  5
32F
  8
0
 10
186.75306058949511
 20
41.601219024780193
 30
0.0
 11
189.55306058949509
 21
41.601219024780129
 31
0.0
  0
LINE
  5
330
  8
0
 10
189.55306058949509
 20
43.351219024780193
 30
0.0
 11
190.55306058949509
 21
43.351219024780193
 31
0.0
  0
LINE
  5
331
  8
0
 10
190.55306058949509
 20
87.55621902478029
 30
0.0
 11
199.0530605894952
 21
87.55621902478029
 31
0.0
  0
LINE
  5
332
  8
3
 10
190.55306058949509
 20
86.077219024780192
 30
0.0
 11
199.0530605894952
 21
86.077219024780192
 31
0.0
  0
LINE
  5
333
  8
0
 10
199.0530605894952
 20
86.077219024780135
 30
0.0
 11
200.5530605894952
 21
86.077219024780135
 31
0.0
  0
LINE
  5
334
  8
0
 10
182.30306058949529
 20
89.601219006066231
 30
0.0
 11
182.30306058949529
 21
85.411314818206407
 31
0.0
  0
LINE
  5
335
  8
0
 10
189.5530605894952
 20
89.851219024780306
 30
0.0
 11
190.55306058949509
 21
89.851219024780306
 31
0.0
  0
LINE
  5
336
  8
0
 10
186.75306058949511
 20
91.601219024780193
 30
0.0
 11
189.55306058949509
 21
91.601219024780193
 31
0.0
  0
TEXT
  5
421
  8
0
 62
     3
 10
0.0
 20
0.0
 30
0.0
 40
10.0
  1
FG-25N
  7
STANDARD1
  0
ENDSEC
  0
EOF
