  0
SECTION
  2
HEADER
  9
$ACADVER
  1
AC1009
  9
$INSBASE
 10
0.0
 20
0.0
 30
0.0
  9
$EXTMIN
 10
0.0
 20
-2.960436562073669
 30
0.0
  9
$EXTMAX
 10
174.7480021075782
 20
168.68779508164221
 30
0.0
  9
$LIMMIN
 10
0.0
 20
0.0
  9
$LIMMAX
 10
187.5
 20
135.0
  9
$ORTHOMODE
 70
     1
  9
$REGENMODE
 70
     1
  9
$FILLMODE
 70
     1
  9
$QTEXTMODE
 70
     0
  9
$MIRRTEXT
 70
     0
  9
$DRAGMODE
 70
     2
  9
$LTSCALE
 40
5.0
  9
$OSMODE
 70
    55
  9
$ATTMODE
 70
     1
  9
$TEXTSIZE
 40
0.2
  9
$TRACEWID
 40
0.05
  9
$TEXTSTYLE
  7
STANDARD
  9
$CLAYER
  8
0
  9
$CELTYPE
  6
BYLAYER
  9
$CECOLOR
 62
   256
  9
$DIMSCALE
 40
0.5
  9
$DIMASZ
 40
3.0
  9
$DIMEXO
 40
2.0
  9
$DIMDLI
 40
0.38
  9
$DIMRND
 40
0.0
  9
$DIMDLE
 40
0.0
  9
$DIMEXE
 40
2.0
  9
$DIMTP
 40
0.0
  9
$DIMTM
 40
0.0
  9
$DIMTXT
 40
3.2000000000000002
  9
$DIMCEN
 40
0.0
  9
$DIMTSZ
 40
0.0
  9
$DIMTOL
 70
     0
  9
$DIMLIM
 70
     0
  9
$DIMTIH
 70
     0
  9
$DIMTOH
 70
     0
  9
$DIMSE1
 70
     0
  9
$DIMSE2
 70
     0
  9
$DIMTAD
 70
     1
  9
$DIMZIN
 70
     0
  9
$DIMBLK
  1

  9
$DIMASO
 70
     1
  9
$DIMSHO
 70
     0
  9
$DIMPOST
  1

  9
$DIMAPOST
  1

  9
$DIMALT
 70
     0
  9
$DIMALTD
 70
     2
  9
$DIMALTF
 40
25.399999999999999
  9
$DIMLFAC
 40
1.0
  9
$DIMTOFL
 70
     1
  9
$DIMTVP
 40
1.6000000000000001
  9
$DIMTIX
 70
     1
  9
$DIMSOXD
 70
     0
  9
$DIMSAH
 70
     0
  9
$DIMBLK1
  1

  9
$DIMBLK2
  1

  9
$DIMSTYLE
  2
STANDARD
  9
$DIMCLRD
 70
     0
  9
$DIMCLRE
 70
     0
  9
$DIMCLRT
 70
     0
  9
$DIMTFAC
 40
1.0
  9
$DIMGAP
 40
0.09
  9
$LUNITS
 70
     2
  9
$LUPREC
 70
     4
  9
$SKETCHINC
 40
0.1
  9
$FILLETRAD
 40
0.0
  9
$AUNITS
 70
     0
  9
$AUPREC
 70
     4
  9
$MENU
  1
E:\r13\win\SUPPORT\ACAD
  9
$ELEVATION
 40
0.0
  9
$PELEVATION
 40
0.0
  9
$THICKNESS
 40
0.0
  9
$LIMCHECK
 70
     0
  9
$BLIPMODE
 70
     0
  9
$CHAMFERA
 40
0.35
  9
$CHAMFERB
 40
0.35
  9
$SKPOLY
 70
     0
  9
$TDCREATE
 40
2449839.794363426
  9
$TDUPDATE
 40
2456598.6405631602
  9
$TDINDWG
 40
0.0266812847
  9
$TDUSRTIMER
 40
0.0266812847
  9
$USRTIMER
 70
     1
  9
$ANGBASE
 50
0.0
  9
$ANGDIR
 70
     0
  9
$PDMODE
 70
     0
  9
$PDSIZE
 40
0.0
  9
$PLINEWID
 40
0.0
  9
$COORDS
 70
     1
  9
$SPLFRAME
 70
     0
  9
$SPLINETYPE
 70
     6
  9
$SPLINESEGS
 70
     8
  9
$ATTDIA
 70
     0
  9
$ATTREQ
 70
     1
  9
$HANDLING
 70
     1
  9
$HANDSEED
  5
4BC
  9
$SURFTAB1
 70
     6
  9
$SURFTAB2
 70
     6
  9
$SURFTYPE
 70
     6
  9
$SURFU
 70
     6
  9
$SURFV
 70
     6
  9
$UCSNAME
  2

  9
$UCSORG
 10
0.0
 20
0.0
 30
0.0
  9
$UCSXDIR
 10
1.0
 20
0.0
 30
0.0
  9
$UCSYDIR
 10
0.0
 20
1.0
 30
0.0
  9
$PUCSNAME
  2

  9
$PUCSORG
 10
0.0
 20
0.0
 30
0.0
  9
$PUCSXDIR
 10
1.0
 20
0.0
 30
0.0
  9
$PUCSYDIR
 10
0.0
 20
1.0
 30
0.0
  9
$USERI1
 70
     0
  9
$USERI2
 70
     1
  9
$USERI3
 70
     1
  9
$USERI4
 70
     0
  9
$USERI5
 70
     0
  9
$USERR1
 40
0.0
  9
$USERR2
 40
0.0
  9
$USERR3
 40
0.0
  9
$USERR4
 40
0.0
  9
$USERR5
 40
0.0
  9
$WORLDVIEW
 70
     1
  9
$SHADEDGE
 70
     3
  9
$SHADEDIF
 70
    70
  9
$TILEMODE
 70
     1
  9
$MAXACTVP
 70
    16
  9
$PLIMCHECK
 70
     0
  9
$PEXTMIN
 10
1.0000000000000000E+020
 20
1.0000000000000000E+020
 30
1.0000000000000000E+020
  9
$PEXTMAX
 10
-1.0000000000000000E+020
 20
-1.0000000000000000E+020
 30
-1.0000000000000000E+020
  9
$PLIMMIN
 10
0.0
 20
0.0
  9
$PLIMMAX
 10
12.0
 20
9.0
  9
$UNITMODE
 70
     0
  9
$VISRETAIN
 70
     0
  9
$PLINEGEN
 70
     0
  9
$PSLTSCALE
 70
     0
  0
ENDSEC
  0
SECTION
  2
TABLES
  0
TABLE
  2
VPORT
 70
     1
  0
VPORT
  2
*ACTIVE
 70
     0
 10
0.0
 20
0.0
 11
1.0
 21
1.0
 12
93.747139195326184
 22
108.9005128216893
 13
0.0
 23
0.0
 14
5.0
 24
5.0
 15
5.0
 25
5.0
 16
0.0
 26
0.0
 36
1.0
 17
0.0
 27
0.0
 37
0.0
 40
225.70453743849259
 41
1.7807262569832401
 42
50.0
 43
0.0
 44
0.0
 50
0.0
 51
0.0
 71
     0
 72
   500
 73
     1
 74
     0
 75
     0
 76
     0
 77
     0
 78
     2
  0
ENDTAB
  0
TABLE
  2
LTYPE
 70
     3
  0
LTYPE
  2
CONTINUOUS
 70
     0
  3
Solid Line
 72
    65
 73
     0
 40
0.0
  0
LTYPE
  2
CENTER
 70
     0
  3
____ _ ____ _ ____ _ ____ _ ____ _ ____ _ ____
 72
    65
 73
     4
 40
2.0
 49
1.25
 49
-0.25
 49
0.25
 49
-0.25
  0
LTYPE
  2
PHANTOM2
 70
     0
  3
___ _ _ ___ _ _ ___ _ _ ___ _ _
 72
    65
 73
     6
 40
1.25
 49
0.625
 49
-0.125
 49
0.125
 49
-0.125
 49
0.125
 49
-0.125
  0
ENDTAB
  0
TABLE
  2
LAYER
 70
     3
  0
LAYER
  2
0
 70
     0
 62
     7
  6
CONTINUOUS
  0
LAYER
  2
1
 70
     0
 62
     1
  6
CENTER
  0
LAYER
  2
3
 70
     0
 62
     3
  6
CONTINUOUS
  0
ENDTAB
  0
TABLE
  2
STYLE
 70
     3
  0
STYLE
  2
STANDARD
 70
     0
 40
0.0
 41
1.0
 50
0.0
 71
     0
 42
0.2
  3
TXT
  4
BIGFONT
  0
STYLE
  2
SIM080
 70
     0
 40
0.0
 41
0.8
 50
0.0
 71
     0
 42
0.7
  3
SIMPLEX
  4

  0
STYLE
  2
STANDARD1
 70
     0
 40
0.0
 41
1.0
 50
0.0
 71
     0
 42
3.0
  3
txt
  4

  0
ENDTAB
  0
TABLE
  2
VIEW
 70
     1
  0
VIEW
  2
ALL
 70
     0
 40
179.5384664489153
 10
135.0
 20
89.769233224457665
 41
0.0
 11
0.0
 21
0.0
 31
1.0
 12
0.0
 22
0.0
 32
0.0
 42
0.0
 43
0.0
 44
0.0
 50
0.0
 71
     0
  0
ENDTAB
  0
TABLE
  2
UCS
 70
     0
  0
ENDTAB
  0
TABLE
  2
APPID
 70
     3
  0
APPID
  2
ACAD
 70
     0
  0
APPID
  2
ACAD_MLEADERVER
 70
     0
  0
APPID
  2
ACAD_NAV_VCDISPLAY
 70
     0
  0
ENDTAB
  0
TABLE
  2
DIMSTYLE
 70
     1
  0
DIMSTYLE
  2
STANDARD
 70
     0
  3

  4

  5

  6

  7

 40
1.0
 41
0.18
 42
0.0625
 43
0.38
 44
0.18
 45
0.0
 46
0.0
 47
0.0
 48
0.0
140
0.18
141
0.09
142
0.0
143
25.399999999999999
144
1.0
145
0.0
146
1.0
147
0.09
 71
     0
 72
     0
 73
     1
 74
     1
 75
     0
 76
     0
 77
     0
 78
     0
170
     0
171
     2
172
     0
173
     0
174
     0
175
     0
176
     0
177
     0
178
     0
  0
ENDTAB
  0
ENDSEC
  0
SECTION
  2
BLOCKS
  0
BLOCK
  8
0
  2
$MODEL_SPACE
 70
     0
 10
0.0
 20
0.0
 30
0.0
  3
$MODEL_SPACE
  1

  0
ENDBLK
  5
162
  8
0
  0
BLOCK
 67
     1
  8
0
  2
$PAPER_SPACE
 70
     0
 10
0.0
 20
0.0
 30
0.0
  3
$PAPER_SPACE
  1

  0
ENDBLK
  5
160
 67
     1
  8
0
  0
ENDSEC
  0
SECTION
  2
ENTITIES
  0
ARC
  5
4D
  8
0
 10
152.2480021075782
 20
91.187795081642108
 30
0.0
 40
9.1920642322036485
 50
240.03251520336019
 51
299.96748479664052
  0
ARC
  5
4E
  8
0
 10
152.2480021075782
 20
91.187795081642108
 30
0.0
 40
9.1920642322036485
 50
168.03251608610401
 51
227.96748042272731
  0
ARC
  5
4F
  8
0
 10
152.2480021075782
 20
91.187795081642136
 30
0.0
 40
9.1920642322036485
 50
96.032514644165644
 51
155.96748065661001
  0
ARC
  5
50
  8
0
 10
152.2480021075782
 20
91.187795081642108
 30
0.0
 40
9.1920642322036485
 50
24.032519343390039
 51
83.967485355833475
  0
ARC
  5
51
  8
0
 10
152.2480021075782
 20
91.187795081642108
 30
0.0
 40
9.1920642322036485
 50
312.03251957727292
 51
11.967483913895849
  0
ARC
  5
55
  8
0
 10
152.2480021075782
 20
91.187795081642108
 30
0.0
 40
8.9999999999992895
 50
240.16174571282301
 51
299.83825428717768
  0
ARC
  5
59
  8
0
 10
152.2480021075782
 20
91.187795081642108
 30
0.0
 40
8.9999999999992895
 50
168.16174650140519
 51
227.83825075675321
  0
ARC
  5
5D
  8
0
 10
152.2480021075782
 20
91.187795081642136
 30
0.0
 40
8.9999999999992895
 50
96.161744672604215
 51
155.83825088246741
  0
ARC
  5
61
  8
0
 10
152.2480021075782
 20
91.187795081642108
 30
0.0
 40
8.9999999999992895
 50
24.161749117532612
 51
83.838255327395117
  0
CIRCLE
  5
62
  8
0
 10
152.2480021075782
 20
91.187795081642108
 30
0.0
 40
10.578888229490589
  0
ARC
  5
63
  8
0
 10
152.2480021075782
 20
91.187795081642108
 30
0.0
 40
8.9999999999992895
 50
312.1617492432473
 51
11.838253498594719
  0
CIRCLE
  5
64
  8
0
 10
152.2480021075782
 20
91.187795081642108
 30
0.0
 40
9.2499999999998863
  0
CIRCLE
  5
65
  8
0
 10
152.2480021075782
 20
91.187795081642108
 30
0.0
 40
10.749999999999879
  0
CIRCLE
  5
66
  8
0
 10
152.2480021075782
 20
91.187795081642108
 30
0.0
 40
17.5
  0
CIRCLE
  5
6A
  8
0
 10
152.2480021075782
 20
91.187795081642165
 30
0.0
 40
13.220499999999999
  0
CIRCLE
  5
6B
  8
3
 10
152.2480021075782
 20
91.187795081642165
 30
0.0
 40
12.0585
  0
LINE
  5
6C
  8
1
 10
152.2480021075782
 20
113.68779508164209
 30
0.0
 11
152.2480021075782
 21
68.687795081642108
 31
0.0
  0
LINE
  5
6D
  8
1
 10
129.7480021075782
 20
91.187795081642236
 30
0.0
 11
174.7480021075782
 21
91.187795081642193
 31
0.0
  0
LINE
  5
7C
  8
1
 10
81.748002107578259
 20
91.187795081642236
 30
0.0
 11
109.7480021075782
 21
91.187795081642236
 31
0.0
  0
LINE
  5
D2
  8
1
 10
16.748002107578259
 20
91.187795081642278
 30
0.0
 11
61.748002107578259
 21
91.187795081642236
 31
0.0
  0
LINE
  5
D3
  8
1
 10
39.248002107578323
 20
113.68779508164231
 30
0.0
 11
39.248002107578287
 21
68.687795081642264
 31
0.0
  0
LINE
  5
228
  8
0
 10
88.348002107578239
 20
108.43779508164219
 30
0.0
 11
88.348002107578239
 21
108.2676510816422
 31
0.0
  0
LINE
  5
229
  8
0
 10
88.348002107578239
 20
108.43779508164219
 30
0.0
 11
86.748002107578259
 21
106.8377950816422
 31
0.0
  0
LINE
  5
22A
  8
0
 10
92.948002107578219
 20
108.68779508164219
 30
0.0
 11
95.248002107578216
 21
108.68779508164219
 31
0.0
  0
LINE
  5
22B
  8
0
 10
95.248002107578216
 20
106.8877950816422
 30
0.0
 11
96.248002107578245
 21
106.8877950816422
 31
0.0
  0
LINE
  5
22C
  8
0
 10
88.348002107578239
 20
108.43779508164219
 30
0.0
 11
92.948002107578219
 21
108.43779508164219
 31
0.0
  0
LINE
  5
22D
  8
0
 10
88.348002107578239
 20
108.2676510816422
 30
0.0
 11
92.948002107578219
 21
108.2676510816422
 31
0.0
  0
LINE
  5
22E
  8
0
 10
88.348002107578239
 20
101.8207520816422
 30
0.0
 11
88.348002107578225
 21
97.634694081642238
 31
0.0
  0
LINE
  5
22F
  8
0
 10
88.348002107578239
 20
101.8207520816422
 30
0.0
 11
92.948002107578219
 21
101.8207520816422
 31
0.0
  0
LINE
  5
230
  8
0
 10
88.348002107578225
 20
97.634694081642238
 30
0.0
 11
92.948002107578219
 21
97.634694081642238
 31
0.0
  0
ARC
  5
231
  8
0
 10
91.879252107578225
 20
105.0442010816422
 30
0.0
 40
4.78125
 50
137.6090710000002
 51
222.3909289999998
  0
LINE
  5
232
  8
0
 10
103.7480021075782
 20
103.2462950816422
 30
0.0
 11
104.7480021075782
 21
103.2462950816422
 31
0.0
  0
LINE
  5
234
  8
0
 10
96.248002107578245
 20
104.40829508164219
 30
0.0
 11
103.7480021075782
 21
104.40829508164219
 31
0.0
  0
LINE
  5
235
  8
3
 10
96.248002107578245
 20
103.2462950816422
 30
0.0
 11
103.7480021075782
 21
103.2462950816422
 31
0.0
  0
LINE
  5
236
  8
0
 10
88.348002107578225
 20
80.554838081642245
 30
0.0
 11
88.348002107578225
 21
84.740896081642234
 31
0.0
  0
LINE
  5
237
  8
0
 10
88.348002107578225
 20
84.740896081642234
 30
0.0
 11
92.948002107578219
 21
84.740896081642234
 31
0.0
  0
LINE
  5
238
  8
0
 10
88.348002107578225
 20
80.554838081642245
 30
0.0
 11
92.948002107578219
 21
80.554838081642245
 31
0.0
  0
LINE
  5
239
  8
0
 10
88.348002107578225
 20
73.937795081642236
 30
0.0
 11
88.348002107578225
 21
74.107939081642215
 31
0.0
  0
LINE
  5
23A
  8
0
 10
88.348002107578225
 20
73.937795081642236
 30
0.0
 11
86.74800210757823
 21
75.53779508164223
 31
0.0
  0
LINE
  5
23B
  8
0
 10
95.248002107578216
 20
75.487795081642247
 30
0.0
 11
96.248002107578245
 21
75.487795081642247
 31
0.0
  0
LINE
  5
23C
  8
0
 10
92.948002107578219
 20
73.687795081642236
 30
0.0
 11
95.248002107578216
 21
73.687795081642236
 31
0.0
  0
LINE
  5
23D
  8
0
 10
88.348002107578225
 20
74.107939081642215
 30
0.0
 11
92.948002107578219
 21
74.107939081642215
 31
0.0
  0
LINE
  5
23E
  8
0
 10
88.348002107578225
 20
73.937795081642236
 30
0.0
 11
92.948002107578219
 21
73.937795081642236
 31
0.0
  0
ARC
  5
23F
  8
0
 10
91.879252107578225
 20
77.331389081642243
 30
0.0
 40
4.78125
 50
137.6090710000002
 51
222.3909289999998
  0
LINE
  5
240
  8
0
 10
103.7480021075782
 20
79.129295081642226
 30
0.0
 11
104.7480021075782
 21
79.129295081642226
 31
0.0
  0
LINE
  5
241
  8
0
 10
96.248002107578245
 20
77.967295081642249
 30
0.0
 11
103.7480021075782
 21
77.967295081642249
 31
0.0
  0
LINE
  5
242
  8
3
 10
96.248002107578245
 20
79.129295081642226
 30
0.0
 11
103.7480021075782
 21
79.129295081642226
 31
0.0
  0
ARC
  5
243
  8
0
 10
104.3480021075782
 20
91.187795081642236
 30
0.0
 40
17.25
 50
158.05395899999971
 51
201.94604100000021
  0
LINE
  5
244
  8
0
 10
92.948002107578219
 20
73.687795081642236
 30
0.0
 11
92.948002107578219
 21
108.68779508164219
 31
0.0
  0
LINE
  5
245
  8
0
 10
103.7480021075782
 20
104.40829508164219
 30
0.0
 11
103.7480021075782
 21
77.967295081642249
 31
0.0
  0
LINE
  5
246
  8
0
 10
104.7480021075782
 20
103.2462950816422
 30
0.0
 11
104.7480021075782
 21
79.129295081642226
 31
0.0
  0
LINE
  5
247
  8
0
 10
86.748002107578259
 20
106.8377950816422
 30
0.0
 11
86.74800210757823
 21
75.53779508164223
 31
0.0
  0
LINE
  5
248
  8
0
 10
95.248002107578216
 20
108.68779508164219
 30
0.0
 11
95.248002107578216
 21
73.687795081642236
 31
0.0
  0
LINE
  5
249
  8
0
 10
96.248002107578245
 20
106.8877950816422
 30
0.0
 11
96.248002107578245
 21
75.487795081642247
 31
0.0
  0
CIRCLE
  5
24A
  8
0
 10
39.248002107578259
 20
91.187795081642278
 30
0.0
 40
17.5
  0
CIRCLE
  5
24B
  8
0
 10
39.248002107578259
 20
91.187795081642278
 30
0.0
 40
9.0
  0
LINE
  5
24C
  8
0
 10
52.831180107578291
 20
80.554838081642274
 30
0.0
 11
41.664824107578283
 21
74.107939081642272
 31
0.0
  0
CIRCLE
  5
24D
  8
0
 10
39.248002107578259
 20
91.187795081642278
 30
0.0
 40
15.65
  0
CIRCLE
  5
250
  8
0
 10
39.248002107578259
 20
91.187795081642278
 30
0.0
 40
11.0
  0
ARC
  5
251
  8
0
 10
39.248002107578259
 20
91.187795081642278
 30
0.0
 40
17.25
 50
321.94604100000009
 51
338.05395899999968
  0
ARC
  5
252
  8
0
 10
39.248002107578259
 20
91.187795081642278
 30
0.0
 40
17.25
 50
21.946041000000239
 51
38.053958999999942
  0
ARC
  5
253
  8
0
 10
39.248002107578259
 20
91.187795081642278
 30
0.0
 40
17.25
 50
81.946041000000108
 51
98.053958999999878
  0
ARC
  5
254
  8
0
 10
39.248002107578259
 20
91.187795081642278
 30
0.0
 40
17.25
 50
141.94604100000001
 51
158.05395899999971
  0
ARC
  5
255
  8
0
 10
39.248002107578259
 20
91.187795081642278
 30
0.0
 40
17.25
 50
201.94604100000021
 51
218.05395899999991
  0
ARC
  5
256
  8
0
 10
39.248002107578259
 20
91.187795081642278
 30
0.0
 40
17.25
 50
261.94604100000021
 51
278.05395899999991
  0
LINE
  5
257
  8
0
 10
55.248002107578309
 20
97.63469408164228
 30
0.0
 11
55.248002107578309
 21
84.740896081642276
 31
0.0
  0
LINE
  5
258
  8
0
 10
41.664824107578283
 20
108.2676510816423
 30
0.0
 11
52.831180107578291
 21
101.8207520816422
 31
0.0
  0
LINE
  5
259
  8
0
 10
25.66482410757828
 20
101.8207520816422
 30
0.0
 11
36.831180107578291
 21
108.2676510816423
 31
0.0
  0
LINE
  5
25A
  8
0
 10
23.248002107578319
 20
84.740896081642276
 30
0.0
 11
23.248002107578319
 21
97.63469408164228
 31
0.0
  0
LINE
  5
25B
  8
0
 10
36.831180107578291
 20
74.107939081642272
 30
0.0
 11
25.66482410757828
 21
80.554838081642274
 31
0.0
  0
ARC
  5
25C
  8
0
 10
39.248002107578259
 20
81.037795081642287
 30
0.0
 40
5.0
 50
35.999999999999162
 51
144.0000000000008
  0
LINE
  5
25D
  8
0
 10
43.72598110757832
 20
83.380894081642268
 30
0.0
 11
43.29308710757828
 21
83.976721081642268
 31
0.0
  0
LINE
  5
25E
  8
0
 10
34.770023107578311
 20
83.380894081642268
 30
0.0
 11
35.202917107578287
 21
83.976721081642268
 31
0.0
  0
ARC
  5
25F
  8
0
 10
48.901226107578282
 20
88.051273081642265
 30
0.0
 40
5.0
 50
108.0000000000005
 51
215.9999999999992
  0
LINE
  5
260
  8
0
 10
45.289035107578279
 20
84.516519081642286
 30
0.0
 11
44.85614110757831
 21
85.112346081642286
 31
0.0
  0
LINE
  5
261
  8
0
 10
48.056578107578282
 20
93.034141081642289
 30
0.0
 11
47.35614110757831
 21
92.806555081642287
 31
0.0
  0
ARC
  5
262
  8
0
 10
45.21402210757833
 20
99.399317081642295
 30
0.0
 40
5.0
 50
180.0
 51
288.00000000000051
  0
LINE
  5
263
  8
0
 10
47.459544107578317
 20
94.871621081642289
 30
0.0
 11
46.759107107578302
 21
94.644035081642286
 31
0.0
  0
LINE
  5
264
  8
0
 10
40.21402210757833
 20
100.1358010816422
 30
0.0
 11
40.21402210757833
 21
99.399317081642295
 31
0.0
  0
ARC
  5
265
  8
0
 10
33.281982107578301
 20
99.399317081642295
 30
0.0
 40
5.0
 50
251.99999999999949
 51
0.0
  0
LINE
  5
266
  8
0
 10
38.281982107578301
 20
100.1358010816422
 30
0.0
 11
38.281982107578301
 21
99.399317081642295
 31
0.0
  0
LINE
  5
267
  8
0
 10
31.036460107578311
 20
94.871621081642289
 30
0.0
 11
31.736897107578329
 21
94.644035081642286
 31
0.0
  0
ARC
  5
268
  8
0
 10
29.594778107578289
 20
88.051273081642265
 30
0.0
 40
5.0
 50
324.0000000000008
 51
71.999999999999503
  0
LINE
  5
269
  8
0
 10
30.439426107578299
 20
93.034141081642289
 30
0.0
 11
31.139863107578321
 21
92.806555081642287
 31
0.0
  0
LINE
  5
26A
  8
0
 10
33.206969107578288
 20
84.516519081642286
 30
0.0
 11
33.639863107578321
 21
85.112346081642286
 31
0.0
  0
LINE
  5
26B
  8
3
 10
42.798706107578312
 20
93.237795081642275
 30
0.0
 11
41.75947610757828
 21
92.637795081642267
 31
0.0
  0
LINE
  5
26C
  8
3
 10
43.20829810757828
 20
92.248953081642284
 30
0.0
 11
42.049187107578291
 21
91.938370081642276
 31
0.0
  0
LINE
  5
26D
  8
3
 10
43.348002107578282
 20
91.187795081642278
 30
0.0
 11
42.148002107578293
 21
91.187795081642278
 31
0.0
  0
LINE
  5
26E
  8
3
 10
43.20829810757828
 20
90.126637081642272
 30
0.0
 11
42.049187107578291
 21
90.437220081642295
 31
0.0
  0
LINE
  5
26F
  8
3
 10
42.798706107578312
 20
89.137795081642267
 30
0.0
 11
41.75947610757828
 21
89.73779508164229
 31
0.0
  0
LINE
  5
270
  8
3
 10
35.69729810757832
 20
89.137795081642267
 30
0.0
 11
36.736528107578287
 21
89.73779508164229
 31
0.0
  0
LINE
  5
271
  8
3
 10
35.287706107578288
 20
90.126637081642272
 30
0.0
 11
36.44681710757834
 21
90.437220081642295
 31
0.0
  0
LINE
  5
272
  8
3
 10
35.1480021075783
 20
91.187795081642278
 30
0.0
 11
36.348002107578282
 21
91.187795081642278
 31
0.0
  0
LINE
  5
273
  8
3
 10
35.287706107578288
 20
92.248953081642284
 30
0.0
 11
36.44681710757834
 21
91.938370081642276
 31
0.0
  0
LINE
  5
274
  8
3
 10
35.69729810757832
 20
93.237795081642275
 30
0.0
 11
36.736528107578287
 21
92.637795081642267
 31
0.0
  0
TEXT
  5
275
  8
3
 10
37.156293473051541
 20
93.218324334764006
 30
0.0
 40
1.1999999999999991
  1
E
 50
40.000000000000092
 41
0.8
  7
SIM080
 72
     1
 11
37.383918107578317
 21
93.409324081642282
 31
0.0
  0
TEXT
  5
276
  8
3
 10
37.99839984587701
 20
93.819092842330079
 30
0.0
 40
1.1999999999999991
  1
L
 50
20.000000000000089
 41
0.8
  7
SIM080
 72
     1
 11
38.25614410757828
 21
93.912904081642296
 31
0.0
  0
TEXT
  5
277
  8
3
 10
38.9508592504354
 20
94.087795081642284
 30
0.0
 40
1.1999999999999991
  1
E
 41
0.8
  7
SIM080
 72
     1
 11
39.248002107578259
 21
94.087795081642284
 31
0.0
  0
TEXT
  5
278
  8
3
 10
39.939158468926813
 20
94.022350527506489
 30
0.0
 40
1.1999999999999991
  1
S
 50
339.99999999999989
 41
0.8
  7
SIM080
 72
     1
 11
40.239860107578302
 21
93.912904081642296
 31
0.0
  0
TEXT
  5
279
  8
3
 10
40.831932711237648
 20
93.644400693184792
 30
0.0
 40
1.1999999999999991
  1
A
 50
319.99999999999989
 41
0.8
  7
SIM080
 72
     1
 11
41.1120861075783
 21
93.409324081642282
 31
0.0
  0
TEXT
  5
27A
  8
3
 10
37.664071503918983
 20
88.731189470099764
 30
0.0
 40
1.1999999999999991
  1
A
 50
139.99999999999989
 41
0.8
  7
SIM080
 72
     1
 11
37.383918107578317
 21
88.966266081642274
 31
0.0
  0
TEXT
  5
27B
  8
3
 10
38.556845746229769
 20
88.353239635778067
 30
0.0
 40
1.1999999999999991
  1
S
 50
159.99999999999989
 41
0.8
  7
SIM080
 72
     1
 11
38.25614410757828
 21
88.462686081642275
 31
0.0
  0
TEXT
  5
27C
  8
3
 10
39.545144964721118
 20
88.287795081642273
 30
0.0
 40
1.1999999999999991
  1
E
 50
180.0
 41
0.8
  7
SIM080
 72
     1
 11
39.248002107578259
 21
88.287795081642273
 31
0.0
  0
TEXT
  5
27D
  8
3
 10
40.497604369279557
 20
88.556497320954463
 30
0.0
 40
1.1999999999999991
  1
L
 50
200.00000000000011
 41
0.8
  7
SIM080
 72
     1
 11
40.239860107578302
 21
88.462686081642275
 31
0.0
  0
TEXT
  5
27E
  8
3
 10
41.33971074210509
 20
89.157265828520565
 30
0.0
 40
1.1999999999999991
  1
E
 50
220.00000000000011
 41
0.8
  7
SIM080
 72
     1
 11
41.1120861075783
 21
88.966266081642274
 31
0.0
  0
CIRCLE
  5
27F
  8
3
 10
39.248002107578259
 20
91.187795081642278
 30
0.0
 40
1.0
  0
CIRCLE
  5
2AA
  8
0
 10
152.2480021075782
 20
91.187795081642136
 30
0.0
 40
15.70000000000004
  0
LINE
  5
2AD
  8
0
 10
96.248002107578245
 20
166.8877950816422
 30
0.0
 11
96.248002107578245
 21
135.48779508164219
 31
0.0
  0
LINE
  5
2AE
  8
0
 10
95.248002107578216
 20
168.68779508164221
 30
0.0
 11
95.248002107578216
 21
133.68779508164221
 31
0.0
  0
LINE
  5
2AF
  8
0
 10
86.748002107578259
 20
166.8377951126437
 30
0.0
 11
86.74800210757823
 21
135.5377950816422
 31
0.0
  0
LINE
  5
2B0
  8
0
 10
104.7480021075782
 20
163.24629508164219
 30
0.0
 11
104.7480021075782
 21
139.1292950816422
 31
0.0
  0
LINE
  5
2B1
  8
0
 10
103.7480021075782
 20
164.40829508164219
 30
0.0
 11
103.7480021075782
 21
137.96729508164219
 31
0.0
  0
LINE
  5
2B2
  8
0
 10
92.948002107578219
 20
133.68779508164221
 30
0.0
 11
92.948002107578219
 21
168.68779508164221
 31
0.0
  0
LINE
  5
2B4
  8
3
 10
96.248002107578245
 20
139.1292950816422
 30
0.0
 11
103.7480021075782
 21
139.1292950816422
 31
0.0
  0
LINE
  5
2B5
  8
0
 10
96.248002107578245
 20
137.96729508164219
 30
0.0
 11
103.7480021075782
 21
137.96729508164219
 31
0.0
  0
LINE
  5
2B6
  8
0
 10
103.7480021075782
 20
139.1292950816422
 30
0.0
 11
104.7480021075782
 21
139.1292950816422
 31
0.0
  0
LINE
  5
2BA
  8
0
 10
92.948002107578219
 20
133.68779508164221
 30
0.0
 11
95.248002107578216
 21
133.68779508164221
 31
0.0
  0
LINE
  5
2BB
  8
0
 10
95.248002107578216
 20
135.48779508164219
 30
0.0
 11
96.248002107578245
 21
135.48779508164219
 31
0.0
  0
LINE
  5
2C1
  8
3
 10
96.248002107578245
 20
163.24629508164219
 30
0.0
 11
103.7480021075782
 21
163.24629508164219
 31
0.0
  0
LINE
  5
2C2
  8
0
 10
96.248002107578245
 20
164.40829508164219
 30
0.0
 11
103.7480021075782
 21
164.40829508164219
 31
0.0
  0
LINE
  5
2C3
  8
0
 10
103.7480021075782
 20
163.24629508164219
 30
0.0
 11
104.7480021075782
 21
163.24629508164219
 31
0.0
  0
LINE
  5
2CA
  8
0
 10
95.248002107578216
 20
166.8877950816422
 30
0.0
 11
96.248002107578245
 21
166.8877950816422
 31
0.0
  0
LINE
  5
2CB
  8
0
 10
92.948002107578219
 20
168.68779508164221
 30
0.0
 11
95.248002107578216
 21
168.68779508164221
 31
0.0
  0
LINE
  5
2CE
  8
1
 10
81.748002107578259
 20
151.18779508164221
 30
0.0
 11
109.7480021075782
 21
151.18779508164221
 31
0.0
  0
LINE
  5
305
  8
0
 10
87.098002107578225
 20
167.1877951126437
 30
0.0
 11
92.948002107578219
 21
167.1877951126437
 31
0.0
  0
LINE
  5
306
  8
0
 10
88.348002133284808
 20
164.7709730816423
 30
0.0
 11
92.948002107578219
 21
164.7709730816423
 31
0.0
  0
LINE
  5
307
  8
0
 10
88.348002133284766
 20
153.6046170816422
 30
0.0
 11
92.948002107578219
 21
153.6046170816422
 31
0.0
  0
LINE
  5
308
  8
0
 10
88.348002133284766
 20
148.77097308164221
 30
0.0
 11
92.948002107578219
 21
148.7709730816423
 31
0.0
  0
ARC
  5
30B
  8
0
 10
100.1917524958824
 20
159.18779508164229
 30
0.0
 40
13.09375038830418
 50
154.7606752193922
 51
205.23932478060769
  0
LINE
  5
30C
  8
0
 10
88.348002133284766
 20
164.7709730816423
 30
0.0
 11
88.348002133284766
 21
167.1877951126437
 31
0.0
  0
LINE
  5
30D
  8
0
 10
88.348002133284766
 20
153.6046170816422
 30
0.0
 11
88.348002133284808
 21
148.77097308164221
 31
0.0
  0
LINE
  5
30E
  8
0
 10
87.098002107578225
 20
167.1877951126437
 30
0.0
 11
86.748002107578259
 21
166.8377951126437
 31
0.0
  0
LINE
  5
30F
  8
0
 10
87.098002107578225
 20
135.1877950506408
 30
0.0
 11
86.748002107578259
 21
135.53779505064071
 31
0.0
  0
LINE
  5
310
  8
0
 10
88.348002133284766
 20
137.60461708164209
 30
0.0
 11
88.348002133284766
 21
135.18779505064069
 31
0.0
  0
LINE
  5
311
  8
0
 10
88.348002133284808
 20
137.60461708164209
 30
0.0
 11
92.948002107578219
 21
137.60461708164209
 31
0.0
  0
LINE
  5
312
  8
0
 10
87.098002107578225
 20
135.1877950506408
 30
0.0
 11
92.948002107578219
 21
135.18779505064069
 31
0.0
  0
ARC
  5
313
  8
0
 10
100.1917524958824
 20
143.18779508164221
 30
0.0
 40
13.09375038830418
 50
154.76067521939231
 51
205.2393247806078
  0
ARC
  5
314
  8
0
 10
100.1917524958824
 20
23.187795081642179
 30
0.0
 40
13.09375038830418
 50
154.76067521939231
 51
205.2393247806078
  0
LINE
  5
315
  8
0
 10
87.098002107578225
 20
15.187795050640769
 30
0.0
 11
92.948002107578219
 21
15.187795050640741
 31
0.0
  0
LINE
  5
316
  8
0
 10
88.348002133284808
 20
17.604617081642139
 30
0.0
 11
92.948002107578219
 21
17.604617081642171
 31
0.0
  0
LINE
  5
317
  8
0
 10
88.348002133284766
 20
17.604617081642171
 30
0.0
 11
88.348002133284766
 21
15.187795050640741
 31
0.0
  0
LINE
  5
318
  8
0
 10
87.098002107578225
 20
15.187795050640769
 30
0.0
 11
86.748002107578259
 21
15.537795050640771
 31
0.0
  0
LINE
  5
319
  8
0
 10
87.098002107578225
 20
47.187795112643698
 30
0.0
 11
86.748002107578259
 21
46.837795112643697
 31
0.0
  0
LINE
  5
31A
  8
0
 10
88.348002133284766
 20
33.60461708164226
 30
0.0
 11
88.348002133284808
 21
28.770973081642261
 31
0.0
  0
LINE
  5
31B
  8
0
 10
88.348002133284766
 20
44.770973081642289
 30
0.0
 11
88.348002133284766
 21
47.18779511264372
 31
0.0
  0
ARC
  5
31C
  8
0
 10
100.1917524958824
 20
39.187795081642292
 30
0.0
 40
13.09375038830418
 50
154.7606752193922
 51
205.23932478060769
  0
LINE
  5
31D
  8
0
 10
88.348002133284766
 20
28.770973081642261
 30
0.0
 11
92.948002107578219
 21
28.770973081642278
 31
0.0
  0
LINE
  5
31E
  8
0
 10
88.348002133284766
 20
33.60461708164226
 30
0.0
 11
92.948002107578219
 21
33.60461708164226
 31
0.0
  0
LINE
  5
31F
  8
0
 10
88.348002133284808
 20
44.770973081642317
 30
0.0
 11
92.948002107578219
 21
44.770973081642289
 31
0.0
  0
LINE
  5
320
  8
0
 10
87.098002107578225
 20
47.187795112643698
 30
0.0
 11
92.948002107578219
 21
47.18779511264372
 31
0.0
  0
LINE
  5
321
  8
1
 10
81.748002107578259
 20
31.187795081642239
 30
0.0
 11
109.7480021075782
 21
31.187795081642239
 31
0.0
  0
LINE
  5
322
  8
0
 10
92.948002107578219
 20
48.687795081642228
 30
0.0
 11
95.248002107578216
 21
48.687795081642228
 31
0.0
  0
LINE
  5
323
  8
0
 10
95.248002107578216
 20
46.887795081642217
 30
0.0
 11
96.248002107578245
 21
46.887795081642217
 31
0.0
  0
LINE
  5
324
  8
0
 10
103.7480021075782
 20
43.246295081642238
 30
0.0
 11
104.7480021075782
 21
43.246295081642238
 31
0.0
  0
LINE
  5
325
  8
0
 10
96.248002107578245
 20
44.408295081642223
 30
0.0
 11
103.7480021075782
 21
44.408295081642223
 31
0.0
  0
LINE
  5
326
  8
3
 10
96.248002107578245
 20
43.246295081642238
 30
0.0
 11
103.7480021075782
 21
43.246295081642238
 31
0.0
  0
LINE
  5
327
  8
0
 10
95.248002107578216
 20
15.48779508164225
 30
0.0
 11
96.248002107578245
 21
15.48779508164225
 31
0.0
  0
LINE
  5
328
  8
0
 10
92.948002107578219
 20
13.68779508164223
 30
0.0
 11
95.248002107578216
 21
13.68779508164223
 31
0.0
  0
LINE
  5
329
  8
0
 10
103.7480021075782
 20
19.129295081642219
 30
0.0
 11
104.7480021075782
 21
19.129295081642219
 31
0.0
  0
LINE
  5
32A
  8
0
 10
96.248002107578245
 20
17.967295081642249
 30
0.0
 11
103.7480021075782
 21
17.967295081642249
 31
0.0
  0
LINE
  5
32B
  8
3
 10
96.248002107578245
 20
19.129295081642219
 30
0.0
 11
103.7480021075782
 21
19.129295081642219
 31
0.0
  0
LINE
  5
32C
  8
0
 10
92.948002107578219
 20
13.68779508164223
 30
0.0
 11
92.948002107578219
 21
48.687795081642228
 31
0.0
  0
LINE
  5
32D
  8
0
 10
103.7480021075782
 20
44.408295081642223
 30
0.0
 11
103.7480021075782
 21
17.967295081642249
 31
0.0
  0
LINE
  5
32E
  8
0
 10
104.7480021075782
 20
43.246295081642238
 30
0.0
 11
104.7480021075782
 21
19.129295081642219
 31
0.0
  0
LINE
  5
32F
  8
0
 10
86.748002107578259
 20
46.837795112643697
 30
0.0
 11
86.74800210757823
 21
15.53779508164223
 31
0.0
  0
LINE
  5
330
  8
0
 10
95.248002107578216
 20
48.687795081642228
 30
0.0
 11
95.248002107578216
 21
13.68779508164223
 31
0.0
  0
LINE
  5
331
  8
0
 10
96.248002107578245
 20
46.887795081642217
 30
0.0
 11
96.248002107578245
 21
15.48779508164225
 31
0.0
  0
ARC
  5
333
  8
0
 10
158.2140221075783
 20
99.399317081642224
 30
0.0
 40
5.0
 50
180.0
 51
288.00000000000051
  0
LINE
  5
334
  8
0
 10
151.2819821075783
 20
100.387213832824
 30
0.0
 11
151.2819821075783
 21
99.399317081642224
 31
0.0
  0
LINE
  5
335
  8
0
 10
153.2140221075783
 20
100.387213832824
 30
0.0
 11
153.2140221075783
 21
99.399317081642224
 31
0.0
  0
ARC
  5
336
  8
0
 10
146.2819821075783
 20
99.399317081642224
 30
0.0
 40
5.0
 50
251.99999999999949
 51
0.0
  0
LINE
  5
337
  8
0
 10
143.2003183166224
 20
93.111831988479636
 30
0.0
 11
144.13986310757829
 21
92.806555081642216
 31
0.0
  0
LINE
  5
338
  8
0
 10
143.79735186845051
 20
94.949312134099642
 30
0.0
 11
144.7368971075783
 21
94.644035081642215
 31
0.0
  0
ARC
  5
339
  8
0
 10
142.59477810757821
 20
88.051273081642194
 30
0.0
 40
5.0
 50
324.0000000000008
 51
71.999999999999503
  0
LINE
  5
33A
  8
0
 10
146.05919223440401
 20
84.313121827319463
 30
0.0
 11
146.63986310757829
 21
85.112346081642215
 31
0.0
  0
LINE
  5
33B
  8
0
 10
147.6222460913271
 20
83.17749663039109
 30
0.0
 11
148.2029171075782
 21
83.976721081642197
 31
0.0
  0
ARC
  5
33C
  8
0
 10
152.2480021075782
 20
81.037795081642216
 30
0.0
 40
5.0
 50
35.999999999999162
 51
144.0000000000008
  0
LINE
  5
33D
  8
0
 10
158.43681198075251
 20
84.313121827319478
 30
0.0
 11
157.85614110757831
 21
85.112346081642215
 31
0.0
  0
LINE
  5
33E
  8
0
 10
156.8737581238295
 20
83.177496630391161
 30
0.0
 11
156.2930871075782
 21
83.976721081642197
 31
0.0
  0
ARC
  5
33F
  8
0
 10
161.9012261075782
 20
88.051273081642194
 30
0.0
 40
5.0
 50
108.0000000000005
 51
215.9999999999992
  0
LINE
  5
340
  8
0
 10
160.6986523467059
 20
94.949312134099614
 30
0.0
 11
159.7591071075783
 21
94.644035081642215
 31
0.0
  0
LINE
  5
341
  8
0
 10
161.295685898534
 20
93.111831988479608
 30
0.0
 11
160.35614110757831
 21
92.806555081642216
 31
0.0
  0
TEXT
  5
42D
  8
0
 62
     3
 10
0.0
 20
0.0
 30
0.0
 40
10.0
  1
FG-16N
  7
STANDARD1
  0
ENDSEC
  0
EOF
