  0
SECTION
  2
HEADER
  9
$ACADVER
  1
AC1009
  9
$INSBASE
 10
0.0
 20
0.0
 30
0.0
  9
$EXTMIN
 10
0.0
 20
-2.960436562073669
 30
0.0
  9
$EXTMAX
 10
184.79920987701149
 20
150.60121902478019
 30
0.0
  9
$LIMMIN
 10
0.0
 20
0.0
  9
$LIMMAX
 10
187.5
 20
135.0
  9
$ORTHOMODE
 70
     1
  9
$REGENMODE
 70
     1
  9
$FILLMODE
 70
     1
  9
$QTEXTMODE
 70
     0
  9
$MIRRTEXT
 70
     0
  9
$DRAGMODE
 70
     2
  9
$LTSCALE
 40
5.0
  9
$OSMODE
 70
    55
  9
$ATTMODE
 70
     1
  9
$TEXTSIZE
 40
0.2
  9
$TRACEWID
 40
0.05
  9
$TEXTSTYLE
  7
STANDARD
  9
$CLAYER
  8
0
  9
$CELTYPE
  6
BYLAYER
  9
$CECOLOR
 62
   256
  9
$DIMSCALE
 40
0.5
  9
$DIMASZ
 40
3.0
  9
$DIMEXO
 40
2.0
  9
$DIMDLI
 40
0.38
  9
$DIMRND
 40
0.0
  9
$DIMDLE
 40
0.0
  9
$DIMEXE
 40
2.0
  9
$DIMTP
 40
0.0
  9
$DIMTM
 40
0.0
  9
$DIMTXT
 40
3.2000000000000002
  9
$DIMCEN
 40
0.0
  9
$DIMTSZ
 40
0.0
  9
$DIMTOL
 70
     0
  9
$DIMLIM
 70
     0
  9
$DIMTIH
 70
     0
  9
$DIMTOH
 70
     0
  9
$DIMSE1
 70
     0
  9
$DIMSE2
 70
     0
  9
$DIMTAD
 70
     1
  9
$DIMZIN
 70
     0
  9
$DIMBLK
  1

  9
$DIMASO
 70
     1
  9
$DIMSHO
 70
     0
  9
$DIMPOST
  1

  9
$DIMAPOST
  1

  9
$DIMALT
 70
     0
  9
$DIMALTD
 70
     2
  9
$DIMALTF
 40
25.399999999999999
  9
$DIMLFAC
 40
1.0
  9
$DIMTOFL
 70
     1
  9
$DIMTVP
 40
1.6000000000000001
  9
$DIMTIX
 70
     1
  9
$DIMSOXD
 70
     0
  9
$DIMSAH
 70
     0
  9
$DIMBLK1
  1

  9
$DIMBLK2
  1

  9
$DIMSTYLE
  2
STANDARD
  9
$DIMCLRD
 70
     0
  9
$DIMCLRE
 70
     0
  9
$DIMCLRT
 70
     0
  9
$DIMTFAC
 40
1.0
  9
$DIMGAP
 40
0.09
  9
$LUNITS
 70
     2
  9
$LUPREC
 70
     4
  9
$SKETCHINC
 40
0.1
  9
$FILLETRAD
 40
0.0
  9
$AUNITS
 70
     0
  9
$AUPREC
 70
     4
  9
$MENU
  1
E:\r13\win\SUPPORT\ACAD
  9
$ELEVATION
 40
0.0
  9
$PELEVATION
 40
0.0
  9
$THICKNESS
 40
0.0
  9
$LIMCHECK
 70
     0
  9
$BLIPMODE
 70
     0
  9
$CHAMFERA
 40
0.5
  9
$CHAMFERB
 40
0.5
  9
$SKPOLY
 70
     0
  9
$TDCREATE
 40
2449839.7943402771
  9
$TDUPDATE
 40
2456598.6404943629
  9
$TDINDWG
 40
0.0330088657
  9
$TDUSRTIMER
 40
0.0330088657
  9
$USRTIMER
 70
     1
  9
$ANGBASE
 50
0.0
  9
$ANGDIR
 70
     0
  9
$PDMODE
 70
     0
  9
$PDSIZE
 40
0.0
  9
$PLINEWID
 40
0.0
  9
$COORDS
 70
     1
  9
$SPLFRAME
 70
     0
  9
$SPLINETYPE
 70
     6
  9
$SPLINESEGS
 70
     8
  9
$ATTDIA
 70
     0
  9
$ATTREQ
 70
     1
  9
$HANDLING
 70
     1
  9
$HANDSEED
  5
516
  9
$SURFTAB1
 70
     6
  9
$SURFTAB2
 70
     6
  9
$SURFTYPE
 70
     6
  9
$SURFU
 70
     6
  9
$SURFV
 70
     6
  9
$UCSNAME
  2

  9
$UCSORG
 10
0.0
 20
0.0
 30
0.0
  9
$UCSXDIR
 10
1.0
 20
0.0
 30
0.0
  9
$UCSYDIR
 10
0.0
 20
1.0
 30
0.0
  9
$PUCSNAME
  2

  9
$PUCSORG
 10
0.0
 20
0.0
 30
0.0
  9
$PUCSXDIR
 10
1.0
 20
0.0
 30
0.0
  9
$PUCSYDIR
 10
0.0
 20
1.0
 30
0.0
  9
$USERI1
 70
     0
  9
$USERI2
 70
     1
  9
$USERI3
 70
     1
  9
$USERI4
 70
     0
  9
$USERI5
 70
     0
  9
$USERR1
 40
0.0
  9
$USERR2
 40
0.0
  9
$USERR3
 40
0.0
  9
$USERR4
 40
0.0
  9
$USERR5
 40
0.0
  9
$WORLDVIEW
 70
     1
  9
$SHADEDGE
 70
     3
  9
$SHADEDIF
 70
    70
  9
$TILEMODE
 70
     1
  9
$MAXACTVP
 70
    16
  9
$PLIMCHECK
 70
     0
  9
$PEXTMIN
 10
1.0000000000000000E+020
 20
1.0000000000000000E+020
 30
1.0000000000000000E+020
  9
$PEXTMAX
 10
-1.0000000000000000E+020
 20
-1.0000000000000000E+020
 30
-1.0000000000000000E+020
  9
$PLIMMIN
 10
0.0
 20
0.0
  9
$PLIMMAX
 10
12.0
 20
9.0
  9
$UNITMODE
 70
     0
  9
$VISRETAIN
 70
     0
  9
$PLINEGEN
 70
     0
  9
$PSLTSCALE
 70
     0
  0
ENDSEC
  0
SECTION
  2
TABLES
  0
TABLE
  2
VPORT
 70
     1
  0
VPORT
  2
*ACTIVE
 70
     0
 10
0.0
 20
0.0
 11
1.0
 21
1.0
 12
93.74713919532617
 22
97.112221334542454
 13
0.0
 23
0.0
 14
5.0
 24
5.0
 15
5.0
 25
5.0
 16
0.0
 26
0.0
 36
1.0
 17
0.0
 27
0.0
 37
0.0
 40
201.92768173380941
 41
1.7807262569832401
 42
50.0
 43
0.0
 44
0.0
 50
0.0
 51
0.0
 71
     0
 72
   500
 73
     1
 74
     0
 75
     0
 76
     0
 77
     0
 78
     2
  0
ENDTAB
  0
TABLE
  2
LTYPE
 70
     3
  0
LTYPE
  2
CONTINUOUS
 70
     0
  3
Solid Line
 72
    65
 73
     0
 40
0.0
  0
LTYPE
  2
CENTER
 70
     0
  3
____ _ ____ _ ____ _ ____ _ ____ _ ____ _ ____
 72
    65
 73
     4
 40
2.0
 49
1.25
 49
-0.25
 49
0.25
 49
-0.25
  0
LTYPE
  2
PHANTOM2
 70
     0
  3
___ _ _ ___ _ _ ___ _ _ ___ _ _
 72
    65
 73
     6
 40
1.25
 49
0.625
 49
-0.125
 49
0.125
 49
-0.125
 49
0.125
 49
-0.125
  0
ENDTAB
  0
TABLE
  2
LAYER
 70
     3
  0
LAYER
  2
0
 70
     0
 62
     7
  6
CONTINUOUS
  0
LAYER
  2
1
 70
     0
 62
     1
  6
CENTER
  0
LAYER
  2
3
 70
     0
 62
     3
  6
CONTINUOUS
  0
ENDTAB
  0
TABLE
  2
STYLE
 70
     3
  0
STYLE
  2
STANDARD
 70
     0
 40
0.0
 41
1.0
 50
0.0
 71
     0
 42
0.2
  3
TXT
  4
BIGFONT
  0
STYLE
  2
SIM080
 70
     0
 40
0.0
 41
0.8
 50
0.0
 71
     0
 42
0.7
  3
SIMPLEX
  4

  0
STYLE
  2
STANDARD1
 70
     0
 40
0.0
 41
1.0
 50
0.0
 71
     0
 42
3.0
  3
txt
  4

  0
ENDTAB
  0
TABLE
  2
VIEW
 70
     1
  0
VIEW
  2
ALL
 70
     0
 40
179.5384664489153
 10
135.0
 20
89.769233224457665
 41
0.0
 11
0.0
 21
0.0
 31
1.0
 12
0.0
 22
0.0
 32
0.0
 42
0.0
 43
0.0
 44
0.0
 50
0.0
 71
     0
  0
ENDTAB
  0
TABLE
  2
UCS
 70
     0
  0
ENDTAB
  0
TABLE
  2
APPID
 70
     3
  0
APPID
  2
ACAD
 70
     0
  0
APPID
  2
ACAD_MLEADERVER
 70
     0
  0
APPID
  2
ACAD_NAV_VCDISPLAY
 70
     0
  0
ENDTAB
  0
TABLE
  2
DIMSTYLE
 70
     1
  0
DIMSTYLE
  2
STANDARD
 70
     0
  3

  4

  5

  6

  7

 40
1.0
 41
0.18
 42
0.0625
 43
0.38
 44
0.18
 45
0.0
 46
0.0
 47
0.0
 48
0.0
140
0.18
141
0.09
142
0.0
143
25.399999999999999
144
1.0
145
0.0
146
1.0
147
0.09
 71
     0
 72
     0
 73
     1
 74
     1
 75
     0
 76
     0
 77
     0
 78
     0
170
     0
171
     2
172
     0
173
     0
174
     0
175
     0
176
     0
177
     0
178
     0
  0
ENDTAB
  0
ENDSEC
  0
SECTION
  2
BLOCKS
  0
BLOCK
  8
0
  2
$MODEL_SPACE
 70
     0
 10
0.0
 20
0.0
 30
0.0
  3
$MODEL_SPACE
  1

  0
ENDBLK
  5
140
  8
0
  0
BLOCK
 67
     1
  8
0
  2
$PAPER_SPACE
 70
     0
 10
0.0
 20
0.0
 30
0.0
  3
$PAPER_SPACE
  1

  0
ENDBLK
  5
13E
 67
     1
  8
0
  0
ENDSEC
  0
SECTION
  2
ENTITIES
  0
ARC
  5
4D
  8
0
 10
165.79920987701149
 20
86.601219024780235
 30
0.0
 40
7.6210313434495163
 50
167.7312927277757
 51
228.2687072722245
  0
ARC
  5
4E
  8
0
 10
165.79920987701149
 20
86.601219024780207
 30
0.0
 40
7.6210313434495163
 50
95.731292727775795
 51
156.2687072722245
  0
ARC
  5
4F
  8
0
 10
165.79920987701149
 20
86.601219024780164
 30
0.0
 40
7.6210313434495163
 50
23.731292727775799
 51
84.268707272224532
  0
ARC
  5
50
  8
0
 10
165.79920987701149
 20
86.601219024780207
 30
0.0
 40
7.6210313434495163
 50
311.73129272777589
 51
12.26870727222453
  0
ARC
  5
51
  8
0
 10
165.79920987701149
 20
86.601219024780207
 30
0.0
 40
7.6210313434495163
 50
239.73129272777581
 51
300.26870727222462
  0
LINE
  5
52
  8
0
 10
158.2289669727441
 20
88.260713637723157
 30
0.0
 11
159.3317200725206
 21
87.902407435523855
 31
0.0
  0
LINE
  5
53
  8
0
 10
160.6501811756597
 20
80.808982545436137
 30
0.0
 11
161.3317200725206
 21
81.747040361173305
 31
0.0
  0
ARC
  5
54
  8
0
 10
158.0956520950208
 20
84.098181370343227
 30
0.0
 40
4.0
 50
323.99999999999977
 51
71.999999999999574
  0
LINE
  5
56
  8
0
 10
165.0381493334427
 20
94.313759906293981
 30
0.0
 11
165.0381493334427
 21
93.154256679217355
 31
0.0
  0
LINE
  5
57
  8
0
 10
158.69932825616681
 20
89.708336816235857
 30
0.0
 11
159.8020813559429
 21
89.350030614036726
 31
0.0
  0
ARC
  5
58
  8
0
 10
161.03814933344259
 20
93.154256679217355
 30
0.0
 40
4.0
 50
251.9999999999998
 51
359.9999999999996
  0
LINE
  5
5A
  8
0
 10
172.89909149785711
 20
89.708336816235843
 30
0.0
 11
171.79633839808059
 21
89.350030614036584
 31
0.0
  0
LINE
  5
5B
  8
0
 10
166.56027042058079
 20
94.313759906293413
 30
0.0
 11
166.56027042058079
 21
93.154256679217227
 31
0.0
  0
ARC
  5
5C
  8
0
 10
170.56027042058079
 20
93.154256679217227
 30
0.0
 40
4.0
 50
179.9999999999998
 51
287.9999999999996
  0
LINE
  5
5E
  8
0
 10
170.94823857836371
 20
80.808982545435526
 30
0.0
 11
170.2666996815025
 21
81.747040361173148
 31
0.0
  0
LINE
  5
5F
  8
0
 10
173.3694527812786
 20
88.260713637722773
 30
0.0
 11
172.2666996815025
 21
87.902407435523671
 31
0.0
  0
ARC
  5
60
  8
0
 10
173.5027676590023
 20
84.098181370343028
 30
0.0
 40
4.0
 50
107.9999999999998
 51
215.9999999999996
  0
CIRCLE
  5
62
  8
0
 10
165.79920987701149
 20
86.601219024780207
 30
0.0
 40
8.3358723833887041
  0
CIRCLE
  5
64
  8
0
 10
165.79920987701149
 20
86.601219024780207
 30
0.0
 40
7.7500000000000853
  0
CIRCLE
  5
65
  8
0
 10
165.79920987701149
 20
86.601219024780207
 30
0.0
 40
8.5000000000000426
  0
ARC
  5
67
  8
0
 10
165.79920987701149
 20
78.501219024780184
 30
0.0
 40
4.0
 50
35.999999999999787
 51
143.99999999999949
  0
LINE
  5
68
  8
0
 10
169.71681675137219
 20
79.914302218212853
 30
0.0
 11
169.03527785451129
 21
80.852360033950077
 31
0.0
  0
LINE
  5
69
  8
0
 10
161.88160300265051
 20
79.914302218212512
 30
0.0
 11
162.56314189951169
 21
80.852360033950077
 31
0.0
  0
CIRCLE
  5
6A
  8
0
 10
165.79920987701161
 20
86.601219024780207
 30
0.0
 40
10.477499999999999
  0
CIRCLE
  5
6B
  8
3
 10
165.79920987701161
 20
86.601219024780207
 30
0.0
 40
9.3155000000000001
  0
LINE
  5
6C
  8
1
 10
184.79920987701149
 20
86.601219024780207
 30
0.0
 11
146.79920987701149
 21
86.601219024780207
 31
0.0
  0
LINE
  5
6D
  8
1
 10
165.79920987701161
 20
105.60121902478021
 30
0.0
 11
165.79920987701161
 21
67.601219024780207
 31
0.0
  0
LINE
  5
7B
  8
1
 10
98.299209877011563
 20
86.601219024780207
 30
0.0
 11
126.79920987701151
 21
86.601219024780207
 31
0.0
  0
LINE
  5
B7
  8
1
 10
59.299209877011599
 20
105.60121902478021
 30
0.0
 11
59.299209877011577
 21
67.601219024780207
 31
0.0
  0
LINE
  5
B8
  8
1
 10
78.299209877011563
 20
86.601219024780207
 30
0.0
 11
40.29920987701157
 21
86.601219024780207
 31
0.0
  0
LINE
  5
DB
  8
1
 10
98.299209877011563
 20
136.60121902478019
 30
0.0
 11
126.79920987701151
 21
136.60121902478019
 31
0.0
  0
ARC
  5
195
  8
0
 10
165.79920987701149
 20
86.601219024780207
 30
0.0
 40
7.25
 50
240.02566099094199
 51
299.97433900905781
  0
ARC
  5
196
  8
0
 10
165.79920987701149
 20
86.601219024780207
 30
0.0
 40
7.25
 50
168.02566099094111
 51
227.9743390090577
  0
ARC
  5
197
  8
0
 10
165.79920987701149
 20
86.601219024780207
 30
0.0
 40
7.25
 50
96.025660990940239
 51
155.97433900905679
  0
ARC
  5
198
  8
0
 10
165.79920987701149
 20
86.601219024780207
 30
0.0
 40
7.25
 50
24.025660990940938
 51
83.974339009055896
  0
ARC
  5
199
  8
0
 10
165.79920987701149
 20
86.601219024780207
 30
0.0
 40
7.25
 50
312.02566099094201
 51
11.974339009057051
  0
LINE
  5
22B
  8
0
 10
104.79920987701151
 20
100.60121902478021
 30
0.0
 11
111.79920987701151
 21
100.60121902478021
 31
0.0
  0
LINE
  5
22C
  8
0
 10
104.79920987701151
 20
92.785877024780206
 30
0.0
 11
104.79920987701151
 21
93.901195024780179
 31
0.0
  0
LINE
  5
22E
  8
0
 10
109.79920987701151
 20
92.785877024780206
 30
0.0
 11
104.79920987701151
 21
92.785877024780206
 31
0.0
  0
LINE
  5
22F
  8
0
 10
109.79920987701151
 20
93.901195024780179
 30
0.0
 11
104.79920987701151
 21
93.901195024780179
 31
0.0
  0
LINE
  5
230
  8
0
 10
109.79920987701151
 20
92.785877024780206
 30
0.0
 11
104.79920987701151
 21
92.785877024780206
 31
0.0
  0
ARC
  5
231
  8
0
 10
109.1042448770115
 20
97.001207024780243
 30
0.0
 40
5.3050350000000002
 50
144.24271800000011
 51
215.75728199999989
  0
LINE
  5
232
  8
0
 10
109.79920987701151
 20
100.60121902478021
 30
0.0
 11
109.79920987701151
 21
72.601219024780193
 31
0.0
  0
LINE
  5
233
  8
0
 10
104.79920987701151
 20
100.60121902478021
 30
0.0
 11
103.29920987701151
 21
99.101219024780235
 31
0.0
  0
LINE
  5
234
  8
0
 10
120.79920987701151
 20
95.916719024780164
 30
0.0
 11
121.79920987701151
 21
95.916719024780164
 31
0.0
  0
LINE
  5
236
  8
0
 10
112.79920987701151
 20
97.078719024780185
 30
0.0
 11
120.79920987701151
 21
97.078719024780185
 31
0.0
  0
LINE
  5
237
  8
3
 10
112.79920987701151
 20
95.916719024780164
 30
0.0
 11
120.79920987701151
 21
95.916719024780164
 31
0.0
  0
LINE
  5
238
  8
0
 10
104.79920987701151
 20
80.416561024780179
 30
0.0
 11
104.79920987701151
 21
79.301243024780206
 31
0.0
  0
LINE
  5
239
  8
0
 10
109.79920987701151
 20
80.416561024780179
 30
0.0
 11
104.79920987701151
 21
80.416561024780179
 31
0.0
  0
LINE
  5
23A
  8
0
 10
109.79920987701151
 20
79.301243024780206
 30
0.0
 11
104.79920987701151
 21
79.301243024780206
 31
0.0
  0
LINE
  5
23B
  8
0
 10
111.79920987701151
 20
74.301219024780181
 30
0.0
 11
112.79920987701151
 21
74.301219024780181
 31
0.0
  0
ARC
  5
23E
  8
0
 10
109.1042448770115
 20
76.201231024780213
 30
0.0
 40
5.3050350000000002
 50
144.24271800000011
 51
215.75728199999989
  0
LINE
  5
240
  8
0
 10
120.79920987701151
 20
77.285719024780207
 30
0.0
 11
121.79920987701151
 21
77.285719024780207
 31
0.0
  0
LINE
  5
241
  8
0
 10
112.79920987701151
 20
76.1237190247802
 30
0.0
 11
120.79920987701151
 21
76.1237190247802
 31
0.0
  0
LINE
  5
242
  8
3
 10
112.79920987701151
 20
77.285719024780207
 30
0.0
 11
120.79920987701151
 21
77.285719024780207
 31
0.0
  0
LINE
  5
243
  8
0
 10
111.79920987701151
 20
72.601219024780178
 30
0.0
 11
111.79920987701151
 21
100.60121902478021
 31
0.0
  0
LINE
  5
244
  8
0
 10
120.79920987701151
 20
97.078719024780185
 30
0.0
 11
120.79920987701151
 21
76.1237190247802
 31
0.0
  0
LINE
  5
245
  8
0
 10
121.79920987701151
 20
95.916719024780164
 30
0.0
 11
121.79920987701151
 21
77.285719024780207
 31
0.0
  0
LINE
  5
246
  8
0
 10
103.29920987701151
 20
99.101219024780235
 30
0.0
 11
103.29920987701151
 21
74.101219024780193
 31
0.0
  0
LINE
  5
247
  8
0
 10
112.79920987701151
 20
74.301219024780181
 30
0.0
 11
112.79920987701151
 21
98.901219024780204
 31
0.0
  0
ARC
  5
249
  8
0
 10
123.42420987701151
 20
86.601219024780235
 30
0.0
 40
19.625
 50
161.6306239999993
 51
198.36937600000061
  0
LINE
  5
2AC
  8
0
 10
47.943138877011592
 20
93.901195024780165
 30
0.0
 11
58.655280877011563
 21
100.08585302478011
 31
0.0
  0
LINE
  5
2AD
  8
0
 10
59.943138877011592
 20
100.08585302478011
 30
0.0
 11
70.655280877011592
 21
93.901195024780165
 31
0.0
  0
LINE
  5
2AE
  8
0
 10
71.299209877011577
 20
92.785877024780177
 30
0.0
 11
71.299209877011577
 21
80.416561024780165
 31
0.0
  0
LINE
  5
2AF
  8
0
 10
70.655280877011592
 20
79.301243024780192
 30
0.0
 11
59.943138877011592
 21
73.116585024780164
 31
0.0
  0
LINE
  5
2B0
  8
0
 10
58.655280877011563
 20
73.116585024780164
 30
0.0
 11
47.943138877011592
 21
79.301243024780192
 31
0.0
  0
LINE
  5
2B1
  8
0
 10
47.299209877011577
 20
80.416561024780165
 30
0.0
 11
47.299209877011577
 21
92.785877024780177
 31
0.0
  0
CIRCLE
  5
2B2
  8
3
 10
59.299209877011577
 20
86.601219024780207
 30
0.0
 40
0.8
  0
TEXT
  5
2B3
  8
3
 10
60.819782352906657
 20
85.13577583493894
 30
0.0
 40
0.9
  1
E
 50
220.00000000000011
 41
0.8
  7
SIM080
 72
     1
 11
60.649063877011571
 21
84.992526024780204
 31
0.0
  0
TEXT
  5
2B4
  8
3
 10
60.210760073287538
 20
84.698222454264354
 30
0.0
 40
0.9
  1
L
 50
200.00000000000011
 41
0.8
  7
SIM080
 72
     1
 11
60.017451877011581
 21
84.627864024780209
 31
0.0
  0
TEXT
  5
2B5
  8
3
 10
59.522067019868722
 20
84.501219024780227
 30
0.0
 40
0.9
  1
E
 50
180.0
 41
0.8
  7
SIM080
 72
     1
 11
59.299209877011577
 21
84.501219024780227
 31
0.0
  0
TEXT
  5
2B6
  8
3
 10
58.806494106000187
 20
84.545779190382049
 30
0.0
 40
0.9
  1
S
 50
159.99999999999989
 41
0.8
  7
SIM080
 72
     1
 11
58.580967877011567
 21
84.627864024780209
 31
0.0
  0
TEXT
  5
2B7
  8
3
 10
58.159470924267069
 20
84.816218566123325
 30
0.0
 40
0.9
  1
A
 50
139.99999999999989
 41
0.8
  7
SIM080
 72
     1
 11
57.949355877011577
 21
84.992526024780204
 31
0.0
  0
TEXT
  5
2B8
  8
3
 10
60.438948829756079
 20
88.386219483437074
 30
0.0
 40
0.9
  1
A
 50
319.99999999999989
 41
0.8
  7
SIM080
 72
     1
 11
60.649063877011571
 21
88.209912024780195
 31
0.0
  0
TEXT
  5
2B9
  8
3
 10
59.791925648022961
 20
88.656658859178364
 30
0.0
 40
0.9
  1
S
 50
339.99999999999989
 41
0.8
  7
SIM080
 72
     1
 11
60.017451877011581
 21
88.574574024780205
 31
0.0
  0
TEXT
  5
2BA
  8
3
 10
59.07635273415444
 20
88.701219024780201
 30
0.0
 40
0.9
  1
E
 41
0.8
  7
SIM080
 72
     1
 11
59.299209877011577
 21
88.701219024780201
 31
0.0
  0
TEXT
  5
2BB
  8
3
 10
58.387659680735617
 20
88.504215595296046
 30
0.0
 40
0.9
  1
L
 50
20.000000000000089
 41
0.8
  7
SIM080
 72
     1
 11
58.580967877011567
 21
88.574574024780205
 31
0.0
  0
TEXT
  5
2BC
  8
3
 10
57.778637401116498
 20
88.066662214621473
 30
0.0
 40
0.9
  1
E
 50
40.000000000000092
 41
0.8
  7
SIM080
 72
     1
 11
57.949355877011577
 21
88.209912024780195
 31
0.0
  0
LINE
  5
2BD
  8
3
 10
56.701133877011578
 20
88.101219024780178
 30
0.0
 11
57.480556877011587
 21
87.651219024780204
 31
0.0
  0
LINE
  5
2BE
  8
3
 10
56.401432877011587
 20
87.377676024780172
 30
0.0
 11
57.27076587701157
 21
87.144739024780165
 31
0.0
  0
LINE
  5
2BF
  8
3
 10
56.299209877011577
 20
86.601219024780164
 30
0.0
 11
57.199209877011583
 21
86.601219024780164
 31
0.0
  0
LINE
  5
2C0
  8
3
 10
56.401432877011587
 20
85.824762024780185
 30
0.0
 11
57.27076587701157
 21
86.057699024780177
 31
0.0
  0
LINE
  5
2C1
  8
3
 10
56.701133877011578
 20
85.101219024780164
 30
0.0
 11
57.480556877011587
 21
85.551219024780167
 31
0.0
  0
LINE
  5
2C2
  8
3
 10
61.897285877011569
 20
85.101219024780164
 30
0.0
 11
61.117862877011589
 21
85.551219024780167
 31
0.0
  0
LINE
  5
2C3
  8
3
 10
62.196986877011597
 20
85.824762024780185
 30
0.0
 11
61.327653877011613
 21
86.057699024780177
 31
0.0
  0
LINE
  5
2C4
  8
3
 10
62.299209877011577
 20
86.601219024780164
 30
0.0
 11
61.3992098770116
 21
86.601219024780164
 31
0.0
  0
LINE
  5
2C5
  8
3
 10
62.196986877011597
 20
87.377676024780172
 30
0.0
 11
61.327653877011613
 21
87.144739024780165
 31
0.0
  0
LINE
  5
2C6
  8
3
 10
61.897285877011569
 20
88.101219024780178
 30
0.0
 11
61.117862877011589
 21
87.651219024780204
 31
0.0
  0
ARC
  5
2C7
  8
0
 10
51.595651877011591
 20
84.098181024780203
 30
0.0
 40
4.0
 50
324.0000000000008
 51
71.999999999999503
  0
LINE
  5
2C8
  8
0
 10
54.445600276393378
 20
81.215592427550604
 30
0.0
 11
54.831719877011579
 21
81.74704002478019
 31
0.0
  0
LINE
  5
2C9
  8
0
 10
52.206965327227969
 20
88.105402273611489
 30
0.0
 11
52.831719877011579
 21
87.902407024780175
 31
0.0
  0
ARC
  5
2CA
  8
0
 10
54.538148877011601
 20
93.154257024780193
 30
0.0
 40
4.0
 50
251.99999999999949
 51
0.0
  0
LINE
  5
2CB
  8
0
 10
52.677326693106991
 20
89.553025776368344
 30
0.0
 11
53.302080877011583
 21
89.350031024780165
 31
0.0
  0
LINE
  5
2CC
  8
0
 10
58.538148877011601
 20
93.811162585882414
 30
0.0
 11
58.538148877011587
 21
93.154257024780165
 31
0.0
  0
ARC
  5
2CD
  8
0
 10
64.060270877011561
 20
93.154257024780193
 30
0.0
 40
4.0
 50
180.0
 51
288.00000000000051
  0
LINE
  5
2CE
  8
0
 10
60.060270877011561
 20
93.811162585882414
 30
0.0
 11
60.060270877011561
 21
93.154257024780165
 31
0.0
  0
LINE
  5
2CF
  8
0
 10
65.921093060916192
 20
89.553025776368344
 30
0.0
 11
65.296338877011607
 21
89.350031024780165
 31
0.0
  0
ARC
  5
2D0
  8
0
 10
67.002767877011564
 20
84.098181024780203
 30
0.0
 40
4.0
 50
108.0000000000005
 51
215.9999999999992
  0
LINE
  5
2D1
  8
0
 10
66.391454426795207
 20
88.105402273611489
 30
0.0
 11
65.766699877011575
 21
87.902407024780175
 31
0.0
  0
LINE
  5
2D2
  8
0
 10
64.152819477629791
 20
81.215592427550604
 30
0.0
 11
63.766699877011568
 21
81.74704002478019
 31
0.0
  0
LINE
  5
2D3
  8
0
 10
55.677022317527083
 20
80.320911923697025
 30
0.0
 11
56.063141877011581
 21
80.852360024780168
 31
0.0
  0
LINE
  5
2D4
  8
0
 10
62.9213974364961
 20
80.320911923697025
 30
0.0
 11
62.535277877011588
 21
80.852360024780168
 31
0.0
  0
ARC
  5
2D5
  8
0
 10
59.299209877011577
 20
78.501219024780212
 30
0.0
 40
4.0
 50
35.999999999999162
 51
144.0000000000008
  0
CIRCLE
  5
2D6
  8
0
 10
59.299209877011577
 20
86.601219024780207
 30
0.0
 40
9.3149999999999995
  0
CIRCLE
  5
2D7
  8
0
 10
59.299209877011577
 20
86.601219024780207
 30
0.0
 40
12.0
  0
CIRCLE
  5
2D9
  8
0
 10
59.299209877011577
 20
86.601219024780207
 30
0.0
 40
13.5
  0
LINE
  5
2DB
  8
0
 10
111.79920987701151
 20
98.901219024780204
 30
0.0
 11
112.79920987701151
 21
98.901219024780204
 31
0.0
  0
CIRCLE
  5
2E0
  8
0
 10
165.79920987701149
 20
86.601219024780207
 30
0.0
 40
12.300000000000111
  0
LINE
  5
311
  8
0
 10
111.79920987701151
 20
148.9012190247802
 30
0.0
 11
112.79920987701151
 21
148.9012190247802
 31
0.0
  0
LINE
  5
313
  8
0
 10
112.79920987701151
 20
124.3012190247802
 30
0.0
 11
112.79920987701151
 21
148.9012190247802
 31
0.0
  0
LINE
  5
314
  8
0
 10
103.29920987701151
 20
148.10121902478031
 30
0.0
 11
103.29920987701151
 21
125.10121902478021
 31
0.0
  0
LINE
  5
315
  8
0
 10
121.79920987701151
 20
145.91671902478021
 30
0.0
 11
121.79920987701151
 21
127.28571902478021
 31
0.0
  0
LINE
  5
316
  8
0
 10
120.79920987701151
 20
147.07871902478021
 30
0.0
 11
120.79920987701151
 21
126.1237190247802
 31
0.0
  0
LINE
  5
317
  8
0
 10
111.79920987701151
 20
122.60121902478021
 30
0.0
 11
111.79920987701151
 21
150.60121902478019
 31
0.0
  0
LINE
  5
318
  8
3
 10
112.79920987701151
 20
127.28571902478021
 30
0.0
 11
120.79920987701151
 21
127.28571902478021
 31
0.0
  0
LINE
  5
319
  8
0
 10
112.79920987701151
 20
126.1237190247802
 30
0.0
 11
120.79920987701151
 21
126.1237190247802
 31
0.0
  0
LINE
  5
31A
  8
0
 10
120.79920987701151
 20
127.28571902478021
 30
0.0
 11
121.79920987701151
 21
127.28571902478021
 31
0.0
  0
LINE
  5
31D
  8
0
 10
109.79920987701151
 20
122.60121902478021
 30
0.0
 11
111.79920987701151
 21
122.60121902478021
 31
0.0
  0
LINE
  5
31E
  8
0
 10
111.79920987701151
 20
124.3012190247802
 30
0.0
 11
112.79920987701151
 21
124.3012190247802
 31
0.0
  0
LINE
  5
322
  8
3
 10
112.79920987701151
 20
145.91671902478021
 30
0.0
 11
120.79920987701151
 21
145.91671902478021
 31
0.0
  0
LINE
  5
323
  8
0
 10
112.79920987701151
 20
147.07871902478021
 30
0.0
 11
120.79920987701151
 21
147.07871902478021
 31
0.0
  0
LINE
  5
324
  8
0
 10
120.79920987701151
 20
145.91671902478021
 30
0.0
 11
121.79920987701151
 21
145.91671902478021
 31
0.0
  0
LINE
  5
326
  8
0
 10
109.79920987701151
 20
150.60121902478019
 30
0.0
 11
109.79920987701151
 21
122.60121902478021
 31
0.0
  0
LINE
  5
32C
  8
0
 10
109.79920987701151
 20
150.60121902478019
 30
0.0
 11
111.79920987701151
 21
150.60121902478019
 31
0.0
  0
LINE
  5
32F
  8
0
 10
103.79920987701151
 20
148.60121902478019
 30
0.0
 11
109.79920987701151
 21
148.60121902478019
 31
0.0
  0
LINE
  5
330
  8
0
 10
104.79920987701161
 20
147.95729002478021
 30
0.0
 11
109.79920987701151
 21
147.95729002478021
 31
0.0
  0
LINE
  5
331
  8
0
 10
104.79920987701161
 20
137.24514802478021
 30
0.0
 11
109.79920987701151
 21
137.24514802478021
 31
0.0
  0
LINE
  5
332
  8
0
 10
104.79920987701161
 20
135.95729002478021
 30
0.0
 11
109.79920987701151
 21
135.95729002478021
 31
0.0
  0
ARC
  5
335
  8
0
 10
118.6429581555322
 20
142.60121902478031
 30
0.0
 40
14.84374827852066
 50
158.84881667284429
 51
201.15118332715579
  0
LINE
  5
336
  8
0
 10
104.79920987701151
 20
147.95729002478021
 30
0.0
 11
104.79920987701151
 21
148.60121902478019
 31
0.0
  0
LINE
  5
337
  8
0
 10
104.79920987701161
 20
137.24514802478021
 30
0.0
 11
104.79920987701161
 21
135.95729002478021
 31
0.0
  0
ARC
  5
338
  8
0
 10
118.6429581555322
 20
130.60121902478011
 30
0.0
 40
14.84374827852066
 50
158.84881667284421
 51
201.15118332715571
  0
LINE
  5
339
  8
0
 10
104.79920987701161
 20
125.24514802478009
 30
0.0
 11
109.79920987701151
 21
125.24514802478009
 31
0.0
  0
LINE
  5
33A
  8
0
 10
104.79920987701151
 20
125.24514802478009
 30
0.0
 11
104.79920987701151
 21
124.60121902478009
 31
0.0
  0
LINE
  5
33B
  8
0
 10
103.79920987701161
 20
124.60121902478021
 30
0.0
 11
109.79920987701151
 21
124.60121902478021
 31
0.0
  0
LINE
  5
33C
  8
0
 10
103.29920987701151
 20
125.10121902478021
 30
0.0
 11
103.79920987701161
 21
124.60121902478021
 31
0.0
  0
LINE
  5
33D
  8
0
 10
103.79920987701151
 20
148.60121902478019
 30
0.0
 11
103.29920987701151
 21
148.10121902478031
 31
0.0
  0
CIRCLE
  5
361
  8
0
 10
59.299209877011592
 20
86.601219024780207
 30
0.0
 40
7.25
  0
CIRCLE
  5
371
  8
0
 10
59.299209877011577
 20
86.601219024780207
 30
0.0
 40
14.0
  0
CIRCLE
  5
372
  8
0
 10
165.79920987701161
 20
86.601219024780235
 30
0.0
 40
14.0
  0
LINE
  5
374
  8
0
 10
104.7992103880578
 20
100.10121902478021
 30
0.0
 11
109.79920987701151
 21
100.10121902478021
 31
0.0
  0
LINE
  5
375
  8
0
 10
104.7992104584804
 20
100.10121912257721
 30
0.0
 11
104.79920987701151
 21
100.60121902478021
 31
0.0
  0
LINE
  5
376
  8
0
 10
104.7992104584804
 20
73.101218926983208
 30
0.0
 11
104.79920987701151
 21
72.601219024780193
 31
0.0
  0
LINE
  5
377
  8
0
 10
104.7992103880578
 20
73.101219024780193
 30
0.0
 11
109.79920987701151
 21
73.101219024780193
 31
0.0
  0
LINE
  5
378
  8
0
 10
104.79920987701151
 20
72.601219024780178
 30
0.0
 11
111.79920987701151
 21
72.601219024780178
 31
0.0
  0
LINE
  5
379
  8
0
 10
104.79920987701151
 20
72.601219024780178
 30
0.0
 11
103.29920987701151
 21
74.101219024780164
 31
0.0
  0
LINE
  5
37A
  8
0
 10
103.79920987701151
 20
24.601219024780139
 30
0.0
 11
103.29920987701151
 21
25.101219024780139
 31
0.0
  0
LINE
  5
37B
  8
0
 10
103.29920987701151
 20
48.10121902478015
 30
0.0
 11
103.79920987701161
 21
48.60121902478015
 31
0.0
  0
LINE
  5
37C
  8
0
 10
103.79920987701161
 20
48.60121902478015
 30
0.0
 11
109.79920987701151
 21
48.601219024780171
 31
0.0
  0
LINE
  5
37D
  8
0
 10
104.79920987701151
 20
47.957290024780228
 30
0.0
 11
104.79920987701151
 21
48.601219024780249
 31
0.0
  0
LINE
  5
37E
  8
0
 10
104.79920987701161
 20
47.957290024780228
 30
0.0
 11
109.79920987701151
 21
47.957290024780228
 31
0.0
  0
ARC
  5
37F
  8
0
 10
118.6429581555322
 20
42.601219024780249
 30
0.0
 40
14.84374827852066
 50
158.84881667284429
 51
201.15118332715579
  0
LINE
  5
380
  8
0
 10
104.79920987701161
 20
35.957290024780178
 30
0.0
 11
104.79920987701161
 21
37.245148024780178
 31
0.0
  0
LINE
  5
381
  8
0
 10
104.79920987701151
 20
25.24514802478015
 30
0.0
 11
104.79920987701151
 21
24.601219024780139
 31
0.0
  0
ARC
  5
382
  8
0
 10
118.6429581555322
 20
30.601219024780139
 30
0.0
 40
14.84374827852066
 50
158.84881667284421
 51
201.15118332715571
  0
LINE
  5
383
  8
0
 10
104.79920987701161
 20
37.245148024780178
 30
0.0
 11
109.79920987701151
 21
37.245148024780178
 31
0.0
  0
LINE
  5
384
  8
0
 10
104.79920987701161
 20
35.95729002478015
 30
0.0
 11
109.79920987701151
 21
35.95729002478015
 31
0.0
  0
LINE
  5
385
  8
0
 10
104.79920987701161
 20
25.24514802478015
 30
0.0
 11
109.79920987701151
 21
25.24514802478015
 31
0.0
  0
LINE
  5
386
  8
0
 10
103.79920987701151
 20
24.601219024780139
 30
0.0
 11
109.79920987701151
 21
24.601219024780139
 31
0.0
  0
LINE
  5
387
  8
0
 10
109.79920987701151
 20
22.601219024780189
 30
0.0
 11
111.79920987701151
 21
22.601219024780189
 31
0.0
  0
LINE
  5
388
  8
0
 10
109.79920987701151
 20
22.601219024780189
 30
0.0
 11
109.79920987701151
 21
50.601219024780178
 31
0.0
  0
LINE
  5
389
  8
0
 10
120.79920987701151
 20
27.28571902478021
 30
0.0
 11
121.79920987701151
 21
27.28571902478021
 31
0.0
  0
LINE
  5
38A
  8
0
 10
112.79920987701151
 20
26.1237190247802
 30
0.0
 11
120.79920987701151
 21
26.1237190247802
 31
0.0
  0
LINE
  5
38B
  8
3
 10
112.79920987701151
 20
27.28571902478021
 30
0.0
 11
120.79920987701151
 21
27.28571902478021
 31
0.0
  0
LINE
  5
38C
  8
0
 10
111.79920987701151
 20
48.901219024780197
 30
0.0
 11
112.79920987701151
 21
48.901219024780197
 31
0.0
  0
LINE
  5
38D
  8
0
 10
109.79920987701151
 20
50.6012190247802
 30
0.0
 11
111.79920987701151
 21
50.601219024780193
 31
0.0
  0
LINE
  5
38E
  8
0
 10
120.79920987701151
 20
45.916719024780178
 30
0.0
 11
121.79920987701151
 21
45.916719024780178
 31
0.0
  0
LINE
  5
38F
  8
0
 10
112.79920987701151
 20
47.078719024780177
 30
0.0
 11
120.79920987701151
 21
47.078719024780177
 31
0.0
  0
LINE
  5
390
  8
3
 10
112.79920987701151
 20
45.916719024780178
 30
0.0
 11
120.79920987701151
 21
45.916719024780178
 31
0.0
  0
LINE
  5
391
  8
0
 10
111.79920987701151
 20
50.601219024780193
 30
0.0
 11
111.79920987701151
 21
22.601219024780189
 31
0.0
  0
LINE
  5
392
  8
0
 10
120.79920987701151
 20
26.1237190247802
 30
0.0
 11
120.79920987701151
 21
47.078719024780177
 31
0.0
  0
LINE
  5
393
  8
0
 10
121.79920987701151
 20
27.28571902478021
 30
0.0
 11
121.79920987701151
 21
45.916719024780178
 31
0.0
  0
LINE
  5
394
  8
0
 10
103.29920987701151
 20
25.101219024780139
 30
0.0
 11
103.29920987701151
 21
48.10121902478015
 31
0.0
  0
LINE
  5
395
  8
0
 10
112.79920987701151
 20
48.901219024780197
 30
0.0
 11
112.79920987701151
 21
24.301219024780181
 31
0.0
  0
LINE
  5
396
  8
0
 10
111.79920987701151
 20
24.301219024780181
 30
0.0
 11
112.79920987701151
 21
24.301219024780181
 31
0.0
  0
LINE
  5
397
  8
1
 10
98.299209877011563
 20
36.6012190247802
 30
0.0
 11
126.79920987701151
 21
36.6012190247802
 31
0.0
  0
TEXT
  5
487
  8
0
 62
     3
 10
0.0
 20
0.0
 30
0.0
 40
10.0
  1
FG-13N
  7
STANDARD1
  0
ENDSEC
  0
EOF
