  0
SECTION
  2
HEADER
  9
$ACADVER
  1
AC1009
  9
$INSBASE
 10
0.0
 20
0.0
 30
0.0
  9
$EXTMIN
 10
0.0
 20
-2.960436562073669
 30
0.0
  9
$EXTMAX
 10
320.0
 20
243.5
 30
0.0
  9
$LIMMIN
 10
0.0
 20
0.0
  9
$LIMMAX
 10
375.0
 20
270.0
  9
$ORTHOMODE
 70
     1
  9
$REGENMODE
 70
     1
  9
$FILLMODE
 70
     1
  9
$QTEXTMODE
 70
     0
  9
$MIRRTEXT
 70
     0
  9
$DRAGMODE
 70
     2
  9
$LTSCALE
 40
10.0
  9
$OSMODE
 70
    37
  9
$ATTMODE
 70
     1
  9
$TEXTSIZE
 40
0.2
  9
$TRACEWID
 40
0.05
  9
$TEXTSTYLE
  7
STANDARD
  9
$CLAYER
  8
0
  9
$CELTYPE
  6
BYLAYER
  9
$CECOLOR
 62
   256
  9
$DIMSCALE
 40
1.0
  9
$DIMASZ
 40
3.0
  9
$DIMEXO
 40
2.0
  9
$DIMDLI
 40
0.38
  9
$DIMRND
 40
0.0
  9
$DIMDLE
 40
0.0
  9
$DIMEXE
 40
2.0
  9
$DIMTP
 40
0.0
  9
$DIMTM
 40
0.0
  9
$DIMTXT
 40
3.2000000000000002
  9
$DIMCEN
 40
0.0
  9
$DIMTSZ
 40
0.0
  9
$DIMTOL
 70
     0
  9
$DIMLIM
 70
     0
  9
$DIMTIH
 70
     0
  9
$DIMTOH
 70
     0
  9
$DIMSE1
 70
     0
  9
$DIMSE2
 70
     0
  9
$DIMTAD
 70
     1
  9
$DIMZIN
 70
     0
  9
$DIMBLK
  1

  9
$DIMASO
 70
     1
  9
$DIMSHO
 70
     0
  9
$DIMPOST
  1

  9
$DIMAPOST
  1

  9
$DIMALT
 70
     0
  9
$DIMALTD
 70
     2
  9
$DIMALTF
 40
25.3999999999999986
  9
$DIMLFAC
 40
1.0
  9
$DIMTOFL
 70
     1
  9
$DIMTVP
 40
1.6000000000000001
  9
$DIMTIX
 70
     1
  9
$DIMSOXD
 70
     0
  9
$DIMSAH
 70
     0
  9
$DIMBLK1
  1

  9
$DIMBLK2
  1

  9
$DIMSTYLE
  2
STANDARD
  9
$DIMCLRD
 70
     0
  9
$DIMCLRE
 70
     0
  9
$DIMCLRT
 70
     0
  9
$DIMTFAC
 40
1.0
  9
$DIMGAP
 40
0.09
  9
$LUNITS
 70
     2
  9
$LUPREC
 70
     4
  9
$SKETCHINC
 40
0.1
  9
$FILLETRAD
 40
0.0
  9
$AUNITS
 70
     0
  9
$AUPREC
 70
     4
  9
$MENU
  1
E:\r13\win\SUPPORT\ACAD
  9
$ELEVATION
 40
0.0
  9
$PELEVATION
 40
0.0
  9
$THICKNESS
 40
0.0
  9
$LIMCHECK
 70
     0
  9
$BLIPMODE
 70
     0
  9
$CHAMFERA
 40
0.0
  9
$CHAMFERB
 40
0.0
  9
$SKPOLY
 70
     0
  9
$TDCREATE
 40
2449839.7945486111566424
  9
$TDUPDATE
 40
2460095.5807523149996996
  9
$TDINDWG
 40
0.0239660185
  9
$TDUSRTIMER
 40
0.0239660185
  9
$USRTIMER
 70
     1
  9
$ANGBASE
 50
0.0
  9
$ANGDIR
 70
     0
  9
$PDMODE
 70
     0
  9
$PDSIZE
 40
0.0
  9
$PLINEWID
 40
0.0
  9
$COORDS
 70
     1
  9
$SPLFRAME
 70
     0
  9
$SPLINETYPE
 70
     6
  9
$SPLINESEGS
 70
     8
  9
$ATTDIA
 70
     1
  9
$ATTREQ
 70
     1
  9
$HANDLING
 70
     1
  9
$HANDSEED
  5
BE5
  9
$SURFTAB1
 70
     6
  9
$SURFTAB2
 70
     6
  9
$SURFTYPE
 70
     6
  9
$SURFU
 70
     6
  9
$SURFV
 70
     6
  9
$UCSNAME
  2

  9
$UCSORG
 10
0.0
 20
0.0
 30
0.0
  9
$UCSXDIR
 10
1.0
 20
0.0
 30
0.0
  9
$UCSYDIR
 10
0.0
 20
1.0
 30
0.0
  9
$PUCSNAME
  2

  9
$PUCSORG
 10
0.0
 20
0.0
 30
0.0
  9
$PUCSXDIR
 10
1.0
 20
0.0
 30
0.0
  9
$PUCSYDIR
 10
0.0
 20
1.0
 30
0.0
  9
$USERI1
 70
     0
  9
$USERI2
 70
     1
  9
$USERI3
 70
     1
  9
$USERI4
 70
     0
  9
$USERI5
 70
     0
  9
$USERR1
 40
0.0
  9
$USERR2
 40
0.0
  9
$USERR3
 40
0.0
  9
$USERR4
 40
0.0
  9
$USERR5
 40
0.0
  9
$WORLDVIEW
 70
     1
  9
$SHADEDGE
 70
     3
  9
$SHADEDIF
 70
    70
  9
$TILEMODE
 70
     1
  9
$MAXACTVP
 70
    16
  9
$PLIMCHECK
 70
     0
  9
$PEXTMIN
 10
1.0000000000000000E+20
 20
1.0000000000000000E+20
 30
1.0000000000000000E+20
  9
$PEXTMAX
 10
-1.0000000000000000E+20
 20
-1.0000000000000000E+20
 30
-1.0000000000000000E+20
  9
$PLIMMIN
 10
0.0
 20
0.0
  9
$PLIMMAX
 10
12.0
 20
9.0
  9
$UNITMODE
 70
     0
  9
$VISRETAIN
 70
     0
  9
$PLINEGEN
 70
     0
  9
$PSLTSCALE
 70
     0
  0
ENDSEC
  0
SECTION
  2
TABLES
  0
TABLE
  2
VPORT
 70
     1
  0
VPORT
  2
*ACTIVE
 70
     0
 10
0.0
 20
0.0
 11
1.0
 21
1.0
 12
348.8414634146341768
 22
150.0
 13
0.0
 23
0.0
 14
10.0
 24
10.0
 15
10.0
 25
10.0
 16
0.0
 26
0.0
 36
1.0
 17
0.0
 27
0.0
 37
0.0
 40
300.0
 41
2.325609756097561
 42
50.0
 43
0.0
 44
0.0
 50
0.0
 51
0.0
 71
     0
 72
   500
 73
     1
 74
     0
 75
     0
 76
     0
 77
     0
 78
     2
  0
ENDTAB
  0
TABLE
  2
LTYPE
 70
     3
  0
LTYPE
  2
CONTINUOUS
 70
     0
  3
Solid Line
 72
    65
 73
     0
 40
0.0
  0
LTYPE
  2
CENTER
 70
     0
  3
____ _ ____ _ ____ _ ____ _ ____ _ ____ _ ____
 72
    65
 73
     4
 40
2.0
 49
1.25
 49
-0.25
 49
0.25
 49
-0.25
  0
LTYPE
  2
PHANTOM2
 70
     0
  3
___ _ _ ___ _ _ ___ _ _ ___ _ _
 72
    65
 73
     6
 40
1.25
 49
0.625
 49
-0.125
 49
0.125
 49
-0.125
 49
0.125
 49
-0.125
  0
ENDTAB
  0
TABLE
  2
LAYER
 70
     4
  0
LAYER
  2
0
 70
     0
 62
     7
  6
CONTINUOUS
  0
LAYER
  2
1
 70
     0
 62
     1
  6
CENTER
  0
LAYER
  2
3
 70
     0
 62
     3
  6
CONTINUOUS
  0
LAYER
  2
DEFPOINTS
 70
     0
 62
     7
  6
CONTINUOUS
  0
ENDTAB
  0
TABLE
  2
STYLE
 70
     3
  0
STYLE
  2
STANDARD
 70
     0
 40
0.0
 41
1.0
 50
0.0
 71
     0
 42
0.2
  3
TXT
  4
BIGFONT
  0
STYLE
  2
SIM080
 70
     0
 40
0.0
 41
0.8
 50
0.0
 71
     0
 42
1.5
  3
SIMPLEX
  4

  0
STYLE
  2
STANDARD1
 70
     0
 40
0.0
 41
1.0
 50
0.0
 71
     0
 42
3.0
  3
txt
  4

  0
ENDTAB
  0
TABLE
  2
VIEW
 70
     1
  0
VIEW
  2
ALL
 70
     0
 40
270.0
 10
220.9915966386554942
 20
135.0
 41
0.0
 11
0.0
 21
0.0
 31
1.0
 12
0.0
 22
0.0
 32
0.0
 42
0.0
 43
0.0
 44
0.0
 50
0.0
 71
     0
  0
ENDTAB
  0
TABLE
  2
UCS
 70
     0
  0
ENDTAB
  0
TABLE
  2
APPID
 70
     5
  0
APPID
  2
ACAD
 70
     0
  0
APPID
  2
ACAD_MLEADERVER
 70
     0
  0
APPID
  2
ACAD_EXEMPT_FROM_CAD_STANDARDS
 70
     0
  0
APPID
  2
ACAD_NAV_VCDISPLAY
 70
     0
  0
APPID
  2
ACAD_DSTYLE_DIMRADIAL_EXTENSION
 70
     0
  0
ENDTAB
  0
TABLE
  2
DIMSTYLE
 70
     1
  0
DIMSTYLE
  2
STANDARD
 70
     0
  3

  4

  5

  6

  7

 40
1.0
 41
0.18
 42
0.0625
 43
0.38
 44
0.18
 45
0.0
 46
0.0
 47
0.0
 48
0.0
140
0.18
141
0.09
142
0.0
143
25.3999999999999986
144
1.0
145
0.0
146
1.0
147
0.09
 71
     0
 72
     0
 73
     1
 74
     1
 75
     0
 76
     0
 77
     0
 78
     0
170
     0
171
     2
172
     0
173
     0
174
     0
175
     0
176
     0
177
     0
178
     0
  0
ENDTAB
  0
ENDSEC
  0
SECTION
  2
BLOCKS
  0
BLOCK
  8
0
  2
$MODEL_SPACE
 70
     2
 10
0.0
 20
0.0
 30
0.0
  3
$MODEL_SPACE
  1

  0
ENDBLK
  5
12E
  8
0
  0
BLOCK
 67
     1
  8
0
  2
$PAPER_SPACE
 70
     0
 10
0.0
 20
0.0
 30
0.0
  3
$PAPER_SPACE
  1

  0
ENDBLK
  5
12C
 67
     1
  8
0
  0
ENDSEC
  0
SECTION
  2
ENTITIES
  0
TEXT
  5
291
  8
0
 62
     3
 10
0.0
 20
0.0
 30
0.0
 40
10.0
  1
FE-30-ATEX
  7
STANDARD1
  0
CIRCLE
  5
64E
  8
0
 10
100.0
 20
140.0
 30
0.0
 40
15.0
  0
LINE
  5
650
  8
1
 10
71.5
 20
140.0
 30
0.0
 11
128.5
 21
140.0
 31
0.0
  0
LINE
  5
651
  8
1
 10
100.0
 20
111.5
 30
0.0
 11
100.0
 21
168.5
 31
0.0
  0
CIRCLE
  5
652
  8
0
 10
100.0
 20
140.0
 30
0.0
 40
23.5
  0
LINE
  5
653
  8
0
 10
100.0
 20
163.3826859021797873
 30
0.0
 11
120.25
 21
151.6913429510898936
 31
0.0
  0
LINE
  5
654
  8
0
 10
79.75
 20
151.6913429510898936
 30
0.0
 11
100.0
 21
163.3826859021797873
 31
0.0
  0
LINE
  5
655
  8
0
 10
79.75
 20
128.3086570489101064
 30
0.0
 11
79.75
 21
151.6913429510898936
 31
0.0
  0
LINE
  5
656
  8
0
 10
100.0
 20
116.6173140978200991
 30
0.0
 11
79.75
 21
128.3086570489101064
 31
0.0
  0
LINE
  5
657
  8
0
 10
120.25
 20
128.3086570489101064
 30
0.0
 11
100.0
 21
116.6173140978200991
 31
0.0
  0
LINE
  5
658
  8
0
 10
120.25
 20
151.6913429510898936
 30
0.0
 11
120.25
 21
128.3086570489101064
 31
0.0
  0
ARC
  5
671
  8
0
 10
84.4216682354057752
 20
134.9382931752325874
 30
0.0
 40
8.1833060556464812
 50
312.2846597205953003
 51
83.7153402794032928
  0
ARC
  5
677
  8
0
 10
115.5783317645941963
 20
134.9382931752325874
 30
0.0
 40
8.1833060556464812
 50
96.284659720596693
 51
227.7153402794046997
  0
ARC
  5
678
  8
0
 10
100.0
 20
123.6199726328781026
 30
0.0
 40
8.1833060556464776
 50
24.2846597205975705
 51
155.7153402794023975
  0
ARC
  5
67C
  8
0
 10
109.6279385185412991
 20
153.2517205083283045
 30
0.0
 40
8.1833060556464812
 50
168.2846597205958119
 51
299.7153402794014028
  0
ARC
  5
680
  8
0
 10
90.3720614814586867
 20
153.2517205083283045
 30
0.0
 40
8.1833060556464812
 50
240.284659720598512
 51
11.7153402794042094
  0
TEXT
  5
69A
  8
3
 10
103.5458906404503949
 20
136.4483190819364893
 30
0.0
 40
1.75
  1
E
 50
219.9999999999998863
 41
0.8
  7
SIM080
 72
     1
 11
103.2139380484320981
 21
136.1697777844055963
 31
0.0
  0
TEXT
  5
69B
  8
3
 10
102.0859777649423989
 20
135.4383449534014119
 30
0.0
 40
1.75
  1
L
 50
199.9999999999998863
 41
0.8
  7
SIM080
 72
     1
 11
101.7101007166280056
 21
135.3015368960710987
 31
0.0
  0
TEXT
  5
69C
  8
3
 10
100.433333333333195
 20
135.0000000000007105
 30
0.0
 40
1.75
  1
E
 50
180.0
 41
0.8
  7
SIM080
 72
     1
 11
99.9999999999998863
 21
135.0000000000007105
 31
0.0
  0
TEXT
  5
69D
  8
3
 10
98.7284225064052521
 20
135.1419274958525136
 30
0.0
 40
1.75
  1
S
 50
160.0
 41
0.8
  7
SIM080
 72
     1
 11
98.2898992833718239
 21
135.3015368960710987
 31
0.0
  0
TEXT
  5
69E
  8
3
 10
97.1946189878978402
 20
135.8269577259061123
 30
0.0
 40
1.75
  1
A
 50
140.0
 41
0.8
  7
SIM080
 72
     1
 11
96.7860619515677172
 21
136.1697777844055963
 31
0.0
  0
TEXT
  5
69F
  8
3
 10
102.8053810121020035
 20
144.1730422740936888
 30
0.0
 40
1.75
  1
A
 50
320.0
 41
0.8
  7
SIM080
 72
     1
 11
103.2139380484320981
 21
143.83022221559429
 31
0.0
  0
TEXT
  5
6A0
  8
3
 10
101.2715774935946058
 20
144.8580725041474864
 30
0.0
 40
1.75
  1
S
 50
340.0
 41
0.8
  7
SIM080
 72
     1
 11
101.7101007166280056
 21
144.6984631039287876
 31
0.0
  0
TEXT
  5
6A1
  8
3
 10
99.5666666666666629
 20
144.9999999999992042
 30
0.0
 40
1.75
  1
E
 50
360.0
 41
0.8
  7
SIM080
 72
     1
 11
100.0
 21
144.9999999999992042
 31
0.0
  0
TEXT
  5
6A2
  8
3
 10
97.9140222350574589
 20
144.5616550465985028
 30
0.0
 40
1.75
  1
L
 50
19.9999999999999609
 41
0.8
  7
SIM080
 72
     1
 11
98.2898992833718239
 21
144.6984631039287876
 31
0.0
  0
TEXT
  5
6A3
  8
3
 10
96.4541093595494914
 20
143.551680918063397
 30
0.0
 40
1.75
  1
E
 50
40.0
 41
0.8
  7
SIM080
 72
     1
 11
96.7860619515677172
 21
143.83022221559429
 31
0.0
  0
LINE
  5
6A4
  8
3
 10
105.845671475548599
 20
143.3750000000021032
 30
0.0
 11
104.3301270189271008
 21
142.500000000002899
 31
0.0
  0
LINE
  5
6A5
  8
3
 10
106.5199993274551957
 20
141.7470285544430908
 30
0.0
 11
104.8296291314508011
 21
141.2940952255140985
 31
0.0
  0
LINE
  5
6A6
  8
3
 10
106.7500000000043059
 20
139.9999999999998863
 30
0.0
 11
105.000000000005798
 21
139.9999999999998863
 31
0.0
  0
LINE
  5
6A7
  8
3
 10
106.5199993274552952
 20
138.2529714455569092
 30
0.0
 11
104.8296291314509006
 21
138.7059047744859015
 31
0.0
  0
LINE
  5
6A8
  8
3
 10
105.845671475548599
 20
136.6249999999978115
 30
0.0
 11
104.3301270189271008
 21
137.499999999997101
 31
0.0
  0
LINE
  5
6A9
  8
3
 10
94.1543285244513442
 20
136.6249999999978968
 30
0.0
 11
95.6698729810727855
 21
137.499999999997101
 31
0.0
  0
LINE
  5
6AA
  8
3
 10
93.4800006725446337
 20
138.2529714455569092
 30
0.0
 11
95.170370868549071
 21
138.7059047744859868
 31
0.0
  0
LINE
  5
6AB
  8
3
 10
93.2499999999956657
 20
139.9999999999998863
 30
0.0
 11
94.999999999994202
 21
139.9999999999998863
 31
0.0
  0
LINE
  5
6AC
  8
3
 10
93.4800006725446337
 20
141.7470285544430908
 30
0.0
 11
95.170370868549071
 21
141.2940952255140985
 31
0.0
  0
LINE
  5
6AD
  8
3
 10
94.1543285244513442
 20
143.3750000000021885
 30
0.0
 11
95.6698729810727855
 21
142.500000000002899
 31
0.0
  0
POLYLINE
  5
6C8
  8
3
 66
     1
 10
0.0
 20
0.0
 30
0.0
 70
     1
 40
3.0
 41
3.0
  0
VERTEX
  5
8D6
  8
3
 10
100.75
 20
140.0
 30
0.0
 42
0.9999999999999998
  0
VERTEX
  5
8D7
  8
3
 10
99.25
 20
140.0
 30
0.0
 42
0.9999999999999998
  0
SEQEND
  5
8D8
  8
3
  0
LINE
  5
701
  8
1
 10
213.0
 20
140.0
 30
0.0
 11
178.5
 21
140.0
 31
0.0
  0
LINE
  5
702
  8
0
 10
208.0
 20
121.7782608695652016
 30
0.0
 11
207.0
 21
121.7782608695652016
 31
0.0
  0
LINE
  5
703
  8
0
 10
207.0
 20
158.2217391304347984
 30
0.0
 11
208.0
 21
158.2217391304347984
 31
0.0
  0
LINE
  5
704
  8
0
 10
208.0
 20
158.2217391304347984
 30
0.0
 11
208.0
 21
121.7782608695652016
 31
0.0
  0
LINE
  5
705
  8
0
 10
193.1563786008229897
 20
116.6173140978200991
 30
0.0
 11
187.9979240718768949
 21
116.6173140978200991
 31
0.0
  0
LINE
  5
706
  8
0
 10
193.1563786008229897
 20
128.3086570489101064
 30
0.0
 11
187.9979240718768949
 21
128.3086570489101064
 31
0.0
  0
LINE
  5
707
  8
0
 10
187.9979240718768949
 20
163.3826859021797873
 30
0.0
 11
193.1563786008229897
 21
163.3826859021797873
 31
0.0
  0
LINE
  5
708
  8
0
 10
193.1563786008229897
 20
151.6913429510898936
 30
0.0
 11
187.9979240718768949
 21
151.6913429510898936
 31
0.0
  0
POLYLINE
  5
709
  8
0
 10
187.9979240718768665
 20
151.6913429510899221
 30
0.0
 66
     1
 70
     8
  0
VERTEX
  8
0
  5
8D9
 10
187.998
 20
151.691
 30
0.00000
  70
    32
  0
VERTEX
  8
0
  5
8DA
 10
187.962
 20
151.782
 30
0.00000
  70
    32
  0
VERTEX
  8
0
  5
8DB
 10
187.927
 20
151.872
 30
0.00000
  70
    32
  0
VERTEX
  8
0
  5
8DC
 10
187.892
 20
151.962
 30
0.00000
  70
    32
  0
VERTEX
  8
0
  5
8DD
 10
187.858
 20
152.052
 30
0.00000
  70
    32
  0
VERTEX
  8
0
  5
8DE
 10
187.825
 20
152.143
 30
0.00000
  70
    32
  0
VERTEX
  8
0
  5
8DF
 10
187.792
 20
152.233
 30
0.00000
  70
    32
  0
VERTEX
  8
0
  5
8E0
 10
187.759
 20
152.324
 30
0.00000
  70
    32
  0
VERTEX
  8
0
  5
8E1
 10
187.728
 20
152.414
 30
0.00000
  70
    32
  0
VERTEX
  8
0
  5
8E2
 10
187.696
 20
152.505
 30
0.00000
  70
    32
  0
VERTEX
  8
0
  5
8E3
 10
187.666
 20
152.595
 30
0.00000
  70
    32
  0
VERTEX
  8
0
  5
8E4
 10
187.635
 20
152.686
 30
0.00000
  70
    32
  0
VERTEX
  8
0
  5
8E5
 10
187.606
 20
152.777
 30
0.00000
  70
    32
  0
VERTEX
  8
0
  5
8E6
 10
187.577
 20
152.868
 30
0.00000
  70
    32
  0
VERTEX
  8
0
  5
8E7
 10
187.548
 20
152.959
 30
0.00000
  70
    32
  0
VERTEX
  8
0
  5
8E8
 10
187.520
 20
153.049
 30
0.00000
  70
    32
  0
VERTEX
  8
0
  5
8E9
 10
187.493
 20
153.140
 30
0.00000
  70
    32
  0
VERTEX
  8
0
  5
8EA
 10
187.466
 20
153.231
 30
0.00000
  70
    32
  0
VERTEX
  8
0
  5
8EB
 10
187.440
 20
153.322
 30
0.00000
  70
    32
  0
VERTEX
  8
0
  5
8EC
 10
187.414
 20
153.413
 30
0.00000
  70
    32
  0
VERTEX
  8
0
  5
8ED
 10
187.389
 20
153.504
 30
0.00000
  70
    32
  0
VERTEX
  8
0
  5
8EE
 10
187.365
 20
153.595
 30
0.00000
  70
    32
  0
VERTEX
  8
0
  5
8EF
 10
187.341
 20
153.687
 30
0.00000
  70
    32
  0
VERTEX
  8
0
  5
8F0
 10
187.317
 20
153.778
 30
0.00000
  70
    32
  0
VERTEX
  8
0
  5
8F1
 10
187.294
 20
153.869
 30
0.00000
  70
    32
  0
VERTEX
  8
0
  5
8F2
 10
187.272
 20
153.960
 30
0.00000
  70
    32
  0
VERTEX
  8
0
  5
8F3
 10
187.250
 20
154.052
 30
0.00000
  70
    32
  0
VERTEX
  8
0
  5
8F4
 10
187.229
 20
154.143
 30
0.00000
  70
    32
  0
VERTEX
  8
0
  5
8F5
 10
187.208
 20
154.234
 30
0.00000
  70
    32
  0
VERTEX
  8
0
  5
8F6
 10
187.188
 20
154.326
 30
0.00000
  70
    32
  0
VERTEX
  8
0
  5
8F7
 10
187.169
 20
154.417
 30
0.00000
  70
    32
  0
VERTEX
  8
0
  5
8F8
 10
187.150
 20
154.508
 30
0.00000
  70
    32
  0
VERTEX
  8
0
  5
8F9
 10
187.131
 20
154.600
 30
0.00000
  70
    32
  0
VERTEX
  8
0
  5
8FA
 10
187.114
 20
154.691
 30
0.00000
  70
    32
  0
VERTEX
  8
0
  5
8FB
 10
187.096
 20
154.783
 30
0.00000
  70
    32
  0
VERTEX
  8
0
  5
8FC
 10
187.080
 20
154.875
 30
0.00000
  70
    32
  0
VERTEX
  8
0
  5
8FD
 10
187.064
 20
154.966
 30
0.00000
  70
    32
  0
VERTEX
  8
0
  5
8FE
 10
187.048
 20
155.058
 30
0.00000
  70
    32
  0
VERTEX
  8
0
  5
8FF
 10
187.033
 20
155.149
 30
0.00000
  70
    32
  0
VERTEX
  8
0
  5
900
 10
187.019
 20
155.241
 30
0.00000
  70
    32
  0
VERTEX
  8
0
  5
901
 10
187.005
 20
155.333
 30
0.00000
  70
    32
  0
VERTEX
  8
0
  5
902
 10
186.991
 20
155.424
 30
0.00000
  70
    32
  0
VERTEX
  8
0
  5
903
 10
186.979
 20
155.516
 30
0.00000
  70
    32
  0
VERTEX
  8
0
  5
904
 10
186.967
 20
155.608
 30
0.00000
  70
    32
  0
VERTEX
  8
0
  5
905
 10
186.955
 20
155.700
 30
0.00000
  70
    32
  0
VERTEX
  8
0
  5
906
 10
186.944
 20
155.791
 30
0.00000
  70
    32
  0
VERTEX
  8
0
  5
907
 10
186.933
 20
155.883
 30
0.00000
  70
    32
  0
VERTEX
  8
0
  5
908
 10
186.923
 20
155.975
 30
0.00000
  70
    32
  0
VERTEX
  8
0
  5
909
 10
186.914
 20
156.067
 30
0.00000
  70
    32
  0
VERTEX
  8
0
  5
90A
 10
186.905
 20
156.159
 30
0.00000
  70
    32
  0
VERTEX
  8
0
  5
90B
 10
186.897
 20
156.250
 30
0.00000
  70
    32
  0
VERTEX
  8
0
  5
90C
 10
186.890
 20
156.342
 30
0.00000
  70
    32
  0
VERTEX
  8
0
  5
90D
 10
186.882
 20
156.434
 30
0.00000
  70
    32
  0
VERTEX
  8
0
  5
90E
 10
186.876
 20
156.526
 30
0.00000
  70
    32
  0
VERTEX
  8
0
  5
90F
 10
186.870
 20
156.618
 30
0.00000
  70
    32
  0
VERTEX
  8
0
  5
910
 10
186.865
 20
156.710
 30
0.00000
  70
    32
  0
VERTEX
  8
0
  5
911
 10
186.860
 20
156.802
 30
0.00000
  70
    32
  0
VERTEX
  8
0
  5
912
 10
186.856
 20
156.894
 30
0.00000
  70
    32
  0
VERTEX
  8
0
  5
913
 10
186.852
 20
156.985
 30
0.00000
  70
    32
  0
VERTEX
  8
0
  5
914
 10
186.849
 20
157.077
 30
0.00000
  70
    32
  0
VERTEX
  8
0
  5
915
 10
186.846
 20
157.169
 30
0.00000
  70
    32
  0
VERTEX
  8
0
  5
916
 10
186.844
 20
157.261
 30
0.00000
  70
    32
  0
VERTEX
  8
0
  5
917
 10
186.843
 20
157.353
 30
0.00000
  70
    32
  0
VERTEX
  8
0
  5
918
 10
186.842
 20
157.445
 30
0.00000
  70
    32
  0
VERTEX
  8
0
  5
919
 10
186.842
 20
157.537
 30
0.00000
  70
    32
  0
VERTEX
  8
0
  5
91A
 10
186.842
 20
157.629
 30
0.00000
  70
    32
  0
VERTEX
  8
0
  5
91B
 10
186.843
 20
157.721
 30
0.00000
  70
    32
  0
VERTEX
  8
0
  5
91C
 10
186.844
 20
157.813
 30
0.00000
  70
    32
  0
VERTEX
  8
0
  5
91D
 10
186.846
 20
157.905
 30
0.00000
  70
    32
  0
VERTEX
  8
0
  5
91E
 10
186.849
 20
157.997
 30
0.00000
  70
    32
  0
VERTEX
  8
0
  5
91F
 10
186.852
 20
158.089
 30
0.00000
  70
    32
  0
VERTEX
  8
0
  5
920
 10
186.856
 20
158.180
 30
0.00000
  70
    32
  0
VERTEX
  8
0
  5
921
 10
186.860
 20
158.272
 30
0.00000
  70
    32
  0
VERTEX
  8
0
  5
922
 10
186.865
 20
158.364
 30
0.00000
  70
    32
  0
VERTEX
  8
0
  5
923
 10
186.870
 20
158.456
 30
0.00000
  70
    32
  0
VERTEX
  8
0
  5
924
 10
186.876
 20
158.548
 30
0.00000
  70
    32
  0
VERTEX
  8
0
  5
925
 10
186.882
 20
158.640
 30
0.00000
  70
    32
  0
VERTEX
  8
0
  5
926
 10
186.890
 20
158.732
 30
0.00000
  70
    32
  0
VERTEX
  8
0
  5
927
 10
186.897
 20
158.824
 30
0.00000
  70
    32
  0
VERTEX
  8
0
  5
928
 10
186.905
 20
158.916
 30
0.00000
  70
    32
  0
VERTEX
  8
0
  5
929
 10
186.914
 20
159.007
 30
0.00000
  70
    32
  0
VERTEX
  8
0
  5
92A
 10
186.923
 20
159.099
 30
0.00000
  70
    32
  0
VERTEX
  8
0
  5
92B
 10
186.933
 20
159.191
 30
0.00000
  70
    32
  0
VERTEX
  8
0
  5
92C
 10
186.944
 20
159.283
 30
0.00000
  70
    32
  0
VERTEX
  8
0
  5
92D
 10
186.955
 20
159.375
 30
0.00000
  70
    32
  0
VERTEX
  8
0
  5
92E
 10
186.967
 20
159.466
 30
0.00000
  70
    32
  0
VERTEX
  8
0
  5
92F
 10
186.979
 20
159.558
 30
0.00000
  70
    32
  0
VERTEX
  8
0
  5
930
 10
186.991
 20
159.650
 30
0.00000
  70
    32
  0
VERTEX
  8
0
  5
931
 10
187.005
 20
159.741
 30
0.00000
  70
    32
  0
VERTEX
  8
0
  5
932
 10
187.019
 20
159.833
 30
0.00000
  70
    32
  0
VERTEX
  8
0
  5
933
 10
187.033
 20
159.925
 30
0.00000
  70
    32
  0
VERTEX
  8
0
  5
934
 10
187.048
 20
160.016
 30
0.00000
  70
    32
  0
VERTEX
  8
0
  5
935
 10
187.064
 20
160.108
 30
0.00000
  70
    32
  0
VERTEX
  8
0
  5
936
 10
187.080
 20
160.200
 30
0.00000
  70
    32
  0
VERTEX
  8
0
  5
937
 10
187.096
 20
160.291
 30
0.00000
  70
    32
  0
VERTEX
  8
0
  5
938
 10
187.114
 20
160.383
 30
0.00000
  70
    32
  0
VERTEX
  8
0
  5
939
 10
187.131
 20
160.474
 30
0.00000
  70
    32
  0
VERTEX
  8
0
  5
93A
 10
187.150
 20
160.566
 30
0.00000
  70
    32
  0
VERTEX
  8
0
  5
93B
 10
187.169
 20
160.657
 30
0.00000
  70
    32
  0
VERTEX
  8
0
  5
93C
 10
187.188
 20
160.748
 30
0.00000
  70
    32
  0
VERTEX
  8
0
  5
93D
 10
187.208
 20
160.840
 30
0.00000
  70
    32
  0
VERTEX
  8
0
  5
93E
 10
187.229
 20
160.931
 30
0.00000
  70
    32
  0
VERTEX
  8
0
  5
93F
 10
187.250
 20
161.022
 30
0.00000
  70
    32
  0
VERTEX
  8
0
  5
940
 10
187.272
 20
161.114
 30
0.00000
  70
    32
  0
VERTEX
  8
0
  5
941
 10
187.294
 20
161.205
 30
0.00000
  70
    32
  0
VERTEX
  8
0
  5
942
 10
187.317
 20
161.296
 30
0.00000
  70
    32
  0
VERTEX
  8
0
  5
943
 10
187.341
 20
161.387
 30
0.00000
  70
    32
  0
VERTEX
  8
0
  5
944
 10
187.365
 20
161.479
 30
0.00000
  70
    32
  0
VERTEX
  8
0
  5
945
 10
187.389
 20
161.570
 30
0.00000
  70
    32
  0
VERTEX
  8
0
  5
946
 10
187.414
 20
161.661
 30
0.00000
  70
    32
  0
VERTEX
  8
0
  5
947
 10
187.440
 20
161.752
 30
0.00000
  70
    32
  0
VERTEX
  8
0
  5
948
 10
187.466
 20
161.843
 30
0.00000
  70
    32
  0
VERTEX
  8
0
  5
949
 10
187.493
 20
161.934
 30
0.00000
  70
    32
  0
VERTEX
  8
0
  5
94A
 10
187.520
 20
162.025
 30
0.00000
  70
    32
  0
VERTEX
  8
0
  5
94B
 10
187.548
 20
162.116
 30
0.00000
  70
    32
  0
VERTEX
  8
0
  5
94C
 10
187.577
 20
162.206
 30
0.00000
  70
    32
  0
VERTEX
  8
0
  5
94D
 10
187.606
 20
162.297
 30
0.00000
  70
    32
  0
VERTEX
  8
0
  5
94E
 10
187.635
 20
162.388
 30
0.00000
  70
    32
  0
VERTEX
  8
0
  5
94F
 10
187.666
 20
162.479
 30
0.00000
  70
    32
  0
VERTEX
  8
0
  5
950
 10
187.696
 20
162.569
 30
0.00000
  70
    32
  0
VERTEX
  8
0
  5
951
 10
187.728
 20
162.660
 30
0.00000
  70
    32
  0
VERTEX
  8
0
  5
952
 10
187.759
 20
162.750
 30
0.00000
  70
    32
  0
VERTEX
  8
0
  5
953
 10
187.792
 20
162.841
 30
0.00000
  70
    32
  0
VERTEX
  8
0
  5
954
 10
187.825
 20
162.931
 30
0.00000
  70
    32
  0
VERTEX
  8
0
  5
955
 10
187.858
 20
163.022
 30
0.00000
  70
    32
  0
VERTEX
  8
0
  5
956
 10
187.892
 20
163.112
 30
0.00000
  70
    32
  0
VERTEX
  8
0
  5
957
 10
187.927
 20
163.202
 30
0.00000
  70
    32
  0
VERTEX
  8
0
  5
958
 10
187.962
 20
163.293
 30
0.00000
  70
    32
  0
VERTEX
  8
0
  5
959
 10
187.998
 20
163.383
 30
0.00000
  70
    32
  0
SEQEND
  8
0
  5
95A
  0
ARC
  5
70A
  8
0
 10
246.5270000000002142
 20
139.9999999999998863
 30
0.0
 40
59.6853435024044927
 50
168.703690560627706
 51
191.2963094393718961
  0
POLYLINE
  5
70B
  8
0
 10
187.9979240718768096
 20
116.6173140978202127
 30
0.0
 66
     1
 70
     8
  0
VERTEX
  8
0
  5
95B
 10
187.998
 20
116.617
 30
0.00000
  70
    32
  0
VERTEX
  8
0
  5
95C
 10
187.962
 20
116.707
 30
0.00000
  70
    32
  0
VERTEX
  8
0
  5
95D
 10
187.927
 20
116.798
 30
0.00000
  70
    32
  0
VERTEX
  8
0
  5
95E
 10
187.892
 20
116.888
 30
0.00000
  70
    32
  0
VERTEX
  8
0
  5
95F
 10
187.858
 20
116.978
 30
0.00000
  70
    32
  0
VERTEX
  8
0
  5
960
 10
187.825
 20
117.069
 30
0.00000
  70
    32
  0
VERTEX
  8
0
  5
961
 10
187.792
 20
117.159
 30
0.00000
  70
    32
  0
VERTEX
  8
0
  5
962
 10
187.759
 20
117.250
 30
0.00000
  70
    32
  0
VERTEX
  8
0
  5
963
 10
187.728
 20
117.340
 30
0.00000
  70
    32
  0
VERTEX
  8
0
  5
964
 10
187.696
 20
117.431
 30
0.00000
  70
    32
  0
VERTEX
  8
0
  5
965
 10
187.666
 20
117.521
 30
0.00000
  70
    32
  0
VERTEX
  8
0
  5
966
 10
187.635
 20
117.612
 30
0.00000
  70
    32
  0
VERTEX
  8
0
  5
967
 10
187.606
 20
117.703
 30
0.00000
  70
    32
  0
VERTEX
  8
0
  5
968
 10
187.577
 20
117.794
 30
0.00000
  70
    32
  0
VERTEX
  8
0
  5
969
 10
187.548
 20
117.884
 30
0.00000
  70
    32
  0
VERTEX
  8
0
  5
96A
 10
187.520
 20
117.975
 30
0.00000
  70
    32
  0
VERTEX
  8
0
  5
96B
 10
187.493
 20
118.066
 30
0.00000
  70
    32
  0
VERTEX
  8
0
  5
96C
 10
187.466
 20
118.157
 30
0.00000
  70
    32
  0
VERTEX
  8
0
  5
96D
 10
187.440
 20
118.248
 30
0.00000
  70
    32
  0
VERTEX
  8
0
  5
96E
 10
187.414
 20
118.339
 30
0.00000
  70
    32
  0
VERTEX
  8
0
  5
96F
 10
187.389
 20
118.430
 30
0.00000
  70
    32
  0
VERTEX
  8
0
  5
970
 10
187.365
 20
118.521
 30
0.00000
  70
    32
  0
VERTEX
  8
0
  5
971
 10
187.341
 20
118.613
 30
0.00000
  70
    32
  0
VERTEX
  8
0
  5
972
 10
187.317
 20
118.704
 30
0.00000
  70
    32
  0
VERTEX
  8
0
  5
973
 10
187.294
 20
118.795
 30
0.00000
  70
    32
  0
VERTEX
  8
0
  5
974
 10
187.272
 20
118.886
 30
0.00000
  70
    32
  0
VERTEX
  8
0
  5
975
 10
187.250
 20
118.978
 30
0.00000
  70
    32
  0
VERTEX
  8
0
  5
976
 10
187.229
 20
119.069
 30
0.00000
  70
    32
  0
VERTEX
  8
0
  5
977
 10
187.208
 20
119.160
 30
0.00000
  70
    32
  0
VERTEX
  8
0
  5
978
 10
187.188
 20
119.252
 30
0.00000
  70
    32
  0
VERTEX
  8
0
  5
979
 10
187.169
 20
119.343
 30
0.00000
  70
    32
  0
VERTEX
  8
0
  5
97A
 10
187.150
 20
119.434
 30
0.00000
  70
    32
  0
VERTEX
  8
0
  5
97B
 10
187.131
 20
119.526
 30
0.00000
  70
    32
  0
VERTEX
  8
0
  5
97C
 10
187.114
 20
119.617
 30
0.00000
  70
    32
  0
VERTEX
  8
0
  5
97D
 10
187.096
 20
119.709
 30
0.00000
  70
    32
  0
VERTEX
  8
0
  5
97E
 10
187.080
 20
119.800
 30
0.00000
  70
    32
  0
VERTEX
  8
0
  5
97F
 10
187.064
 20
119.892
 30
0.00000
  70
    32
  0
VERTEX
  8
0
  5
980
 10
187.048
 20
119.984
 30
0.00000
  70
    32
  0
VERTEX
  8
0
  5
981
 10
187.033
 20
120.075
 30
0.00000
  70
    32
  0
VERTEX
  8
0
  5
982
 10
187.019
 20
120.167
 30
0.00000
  70
    32
  0
VERTEX
  8
0
  5
983
 10
187.005
 20
120.259
 30
0.00000
  70
    32
  0
VERTEX
  8
0
  5
984
 10
186.991
 20
120.350
 30
0.00000
  70
    32
  0
VERTEX
  8
0
  5
985
 10
186.979
 20
120.442
 30
0.00000
  70
    32
  0
VERTEX
  8
0
  5
986
 10
186.967
 20
120.534
 30
0.00000
  70
    32
  0
VERTEX
  8
0
  5
987
 10
186.955
 20
120.625
 30
0.00000
  70
    32
  0
VERTEX
  8
0
  5
988
 10
186.944
 20
120.717
 30
0.00000
  70
    32
  0
VERTEX
  8
0
  5
989
 10
186.933
 20
120.809
 30
0.00000
  70
    32
  0
VERTEX
  8
0
  5
98A
 10
186.923
 20
120.901
 30
0.00000
  70
    32
  0
VERTEX
  8
0
  5
98B
 10
186.914
 20
120.993
 30
0.00000
  70
    32
  0
VERTEX
  8
0
  5
98C
 10
186.905
 20
121.084
 30
0.00000
  70
    32
  0
VERTEX
  8
0
  5
98D
 10
186.897
 20
121.176
 30
0.00000
  70
    32
  0
VERTEX
  8
0
  5
98E
 10
186.890
 20
121.268
 30
0.00000
  70
    32
  0
VERTEX
  8
0
  5
98F
 10
186.882
 20
121.360
 30
0.00000
  70
    32
  0
VERTEX
  8
0
  5
990
 10
186.876
 20
121.452
 30
0.00000
  70
    32
  0
VERTEX
  8
0
  5
991
 10
186.870
 20
121.544
 30
0.00000
  70
    32
  0
VERTEX
  8
0
  5
992
 10
186.865
 20
121.636
 30
0.00000
  70
    32
  0
VERTEX
  8
0
  5
993
 10
186.860
 20
121.728
 30
0.00000
  70
    32
  0
VERTEX
  8
0
  5
994
 10
186.856
 20
121.820
 30
0.00000
  70
    32
  0
VERTEX
  8
0
  5
995
 10
186.852
 20
121.911
 30
0.00000
  70
    32
  0
VERTEX
  8
0
  5
996
 10
186.849
 20
122.003
 30
0.00000
  70
    32
  0
VERTEX
  8
0
  5
997
 10
186.846
 20
122.095
 30
0.00000
  70
    32
  0
VERTEX
  8
0
  5
998
 10
186.844
 20
122.187
 30
0.00000
  70
    32
  0
VERTEX
  8
0
  5
999
 10
186.843
 20
122.279
 30
0.00000
  70
    32
  0
VERTEX
  8
0
  5
99A
 10
186.842
 20
122.371
 30
0.00000
  70
    32
  0
VERTEX
  8
0
  5
99B
 10
186.842
 20
122.463
 30
0.00000
  70
    32
  0
VERTEX
  8
0
  5
99C
 10
186.842
 20
122.555
 30
0.00000
  70
    32
  0
VERTEX
  8
0
  5
99D
 10
186.843
 20
122.647
 30
0.00000
  70
    32
  0
VERTEX
  8
0
  5
99E
 10
186.844
 20
122.739
 30
0.00000
  70
    32
  0
VERTEX
  8
0
  5
99F
 10
186.846
 20
122.831
 30
0.00000
  70
    32
  0
VERTEX
  8
0
  5
9A0
 10
186.849
 20
122.923
 30
0.00000
  70
    32
  0
VERTEX
  8
0
  5
9A1
 10
186.852
 20
123.015
 30
0.00000
  70
    32
  0
VERTEX
  8
0
  5
9A2
 10
186.856
 20
123.106
 30
0.00000
  70
    32
  0
VERTEX
  8
0
  5
9A3
 10
186.860
 20
123.198
 30
0.00000
  70
    32
  0
VERTEX
  8
0
  5
9A4
 10
186.865
 20
123.290
 30
0.00000
  70
    32
  0
VERTEX
  8
0
  5
9A5
 10
186.870
 20
123.382
 30
0.00000
  70
    32
  0
VERTEX
  8
0
  5
9A6
 10
186.876
 20
123.474
 30
0.00000
  70
    32
  0
VERTEX
  8
0
  5
9A7
 10
186.882
 20
123.566
 30
0.00000
  70
    32
  0
VERTEX
  8
0
  5
9A8
 10
186.890
 20
123.658
 30
0.00000
  70
    32
  0
VERTEX
  8
0
  5
9A9
 10
186.897
 20
123.750
 30
0.00000
  70
    32
  0
VERTEX
  8
0
  5
9AA
 10
186.905
 20
123.841
 30
0.00000
  70
    32
  0
VERTEX
  8
0
  5
9AB
 10
186.914
 20
123.933
 30
0.00000
  70
    32
  0
VERTEX
  8
0
  5
9AC
 10
186.923
 20
124.025
 30
0.00000
  70
    32
  0
VERTEX
  8
0
  5
9AD
 10
186.933
 20
124.117
 30
0.00000
  70
    32
  0
VERTEX
  8
0
  5
9AE
 10
186.944
 20
124.209
 30
0.00000
  70
    32
  0
VERTEX
  8
0
  5
9AF
 10
186.955
 20
124.300
 30
0.00000
  70
    32
  0
VERTEX
  8
0
  5
9B0
 10
186.967
 20
124.392
 30
0.00000
  70
    32
  0
VERTEX
  8
0
  5
9B1
 10
186.979
 20
124.484
 30
0.00000
  70
    32
  0
VERTEX
  8
0
  5
9B2
 10
186.991
 20
124.576
 30
0.00000
  70
    32
  0
VERTEX
  8
0
  5
9B3
 10
187.005
 20
124.667
 30
0.00000
  70
    32
  0
VERTEX
  8
0
  5
9B4
 10
187.019
 20
124.759
 30
0.00000
  70
    32
  0
VERTEX
  8
0
  5
9B5
 10
187.033
 20
124.851
 30
0.00000
  70
    32
  0
VERTEX
  8
0
  5
9B6
 10
187.048
 20
124.942
 30
0.00000
  70
    32
  0
VERTEX
  8
0
  5
9B7
 10
187.064
 20
125.034
 30
0.00000
  70
    32
  0
VERTEX
  8
0
  5
9B8
 10
187.080
 20
125.125
 30
0.00000
  70
    32
  0
VERTEX
  8
0
  5
9B9
 10
187.096
 20
125.217
 30
0.00000
  70
    32
  0
VERTEX
  8
0
  5
9BA
 10
187.114
 20
125.309
 30
0.00000
  70
    32
  0
VERTEX
  8
0
  5
9BB
 10
187.131
 20
125.400
 30
0.00000
  70
    32
  0
VERTEX
  8
0
  5
9BC
 10
187.150
 20
125.492
 30
0.00000
  70
    32
  0
VERTEX
  8
0
  5
9BD
 10
187.169
 20
125.583
 30
0.00000
  70
    32
  0
VERTEX
  8
0
  5
9BE
 10
187.188
 20
125.674
 30
0.00000
  70
    32
  0
VERTEX
  8
0
  5
9BF
 10
187.208
 20
125.766
 30
0.00000
  70
    32
  0
VERTEX
  8
0
  5
9C0
 10
187.229
 20
125.857
 30
0.00000
  70
    32
  0
VERTEX
  8
0
  5
9C1
 10
187.250
 20
125.948
 30
0.00000
  70
    32
  0
VERTEX
  8
0
  5
9C2
 10
187.272
 20
126.040
 30
0.00000
  70
    32
  0
VERTEX
  8
0
  5
9C3
 10
187.294
 20
126.131
 30
0.00000
  70
    32
  0
VERTEX
  8
0
  5
9C4
 10
187.317
 20
126.222
 30
0.00000
  70
    32
  0
VERTEX
  8
0
  5
9C5
 10
187.341
 20
126.313
 30
0.00000
  70
    32
  0
VERTEX
  8
0
  5
9C6
 10
187.365
 20
126.405
 30
0.00000
  70
    32
  0
VERTEX
  8
0
  5
9C7
 10
187.389
 20
126.496
 30
0.00000
  70
    32
  0
VERTEX
  8
0
  5
9C8
 10
187.414
 20
126.587
 30
0.00000
  70
    32
  0
VERTEX
  8
0
  5
9C9
 10
187.440
 20
126.678
 30
0.00000
  70
    32
  0
VERTEX
  8
0
  5
9CA
 10
187.466
 20
126.769
 30
0.00000
  70
    32
  0
VERTEX
  8
0
  5
9CB
 10
187.493
 20
126.860
 30
0.00000
  70
    32
  0
VERTEX
  8
0
  5
9CC
 10
187.520
 20
126.951
 30
0.00000
  70
    32
  0
VERTEX
  8
0
  5
9CD
 10
187.548
 20
127.041
 30
0.00000
  70
    32
  0
VERTEX
  8
0
  5
9CE
 10
187.577
 20
127.132
 30
0.00000
  70
    32
  0
VERTEX
  8
0
  5
9CF
 10
187.606
 20
127.223
 30
0.00000
  70
    32
  0
VERTEX
  8
0
  5
9D0
 10
187.635
 20
127.314
 30
0.00000
  70
    32
  0
VERTEX
  8
0
  5
9D1
 10
187.666
 20
127.405
 30
0.00000
  70
    32
  0
VERTEX
  8
0
  5
9D2
 10
187.696
 20
127.495
 30
0.00000
  70
    32
  0
VERTEX
  8
0
  5
9D3
 10
187.728
 20
127.586
 30
0.00000
  70
    32
  0
VERTEX
  8
0
  5
9D4
 10
187.759
 20
127.676
 30
0.00000
  70
    32
  0
VERTEX
  8
0
  5
9D5
 10
187.792
 20
127.767
 30
0.00000
  70
    32
  0
VERTEX
  8
0
  5
9D6
 10
187.825
 20
127.857
 30
0.00000
  70
    32
  0
VERTEX
  8
0
  5
9D7
 10
187.858
 20
127.948
 30
0.00000
  70
    32
  0
VERTEX
  8
0
  5
9D8
 10
187.892
 20
128.038
 30
0.00000
  70
    32
  0
VERTEX
  8
0
  5
9D9
 10
187.927
 20
128.128
 30
0.00000
  70
    32
  0
VERTEX
  8
0
  5
9DA
 10
187.962
 20
128.218
 30
0.00000
  70
    32
  0
VERTEX
  8
0
  5
9DB
 10
187.998
 20
128.309
 30
0.00000
  70
    32
  0
SEQEND
  8
0
  5
9DC
  0
ARC
  5
70C
  8
0
 10
246.5270000000002142
 20
140.0
 30
0.0
 40
63.0270000000001289
 50
158.2230210275652951
 51
201.7769789724347049
  0
LINE
  5
70D
  8
0
 10
207.0
 20
119.0450000000000017
 30
0.0
 11
199.286112301757413
 21
119.0450000000000017
 31
0.0
  0
LINE
  5
70E
  8
0
 10
199.286112301757413
 20
160.9550000000000125
 30
0.0
 11
207.0
 21
160.9550000000000125
 31
0.0
  0
LINE
  5
70F
  8
0
 10
207.0
 20
160.9550000000000125
 30
0.0
 11
207.0
 21
119.0450000000000017
 31
0.0
  0
LINE
  5
710
  8
0
 10
199.286112301757413
 20
117.0404999999999944
 30
0.0
 11
196.5
 21
117.0404999999999944
 31
0.0
  0
LINE
  5
711
  8
0
 10
196.5
 20
162.9594999999999914
 30
0.0
 11
199.286112301757413
 21
162.9594999999999914
 31
0.0
  0
LINE
  5
712
  8
0
 10
199.286112301757413
 20
162.9594999999999914
 30
0.0
 11
199.286112301757413
 21
117.0404999999999944
 31
0.0
  0
LINE
  5
713
  8
0
 10
196.5
 20
116.5
 30
0.0
 11
193.1563786008229897
 21
116.5
 31
0.0
  0
LINE
  5
714
  8
0
 10
193.1563786008229897
 20
163.5
 30
0.0
 11
196.5
 21
163.5
 31
0.0
  0
LINE
  5
715
  8
0
 10
193.1563786008229897
 20
163.5
 30
0.0
 11
193.1563786008229897
 21
116.5
 31
0.0
  0
LINE
  5
716
  8
0
 10
196.5
 20
163.5
 30
0.0
 11
196.5
 21
116.5
 31
0.0
  0
LINE
  5
717
  8
3
 10
207.0
 20
159.4759999999999991
 30
0.0
 11
199.286112301757413
 21
159.4759999999999991
 31
0.0
  0
LINE
  5
718
  8
3
 10
207.0
 20
120.5240000000000009
 30
0.0
 11
199.286112301757413
 21
120.5240000000000009
 31
0.0
  0
LINE
  5
752
  8
1
 10
213.0
 20
220.0
 30
0.0
 11
178.5
 21
220.0
 31
0.0
  0
LINE
  5
753
  8
0
 10
208.0
 20
238.2217391304347984
 30
0.0
 11
208.0
 21
201.7782608695652016
 31
0.0
  0
LINE
  5
754
  8
0
 10
208.0
 20
201.7782608695652016
 30
0.0
 11
207.0
 21
201.7782608695652016
 31
0.0
  0
LINE
  5
755
  8
0
 10
207.0
 20
238.2217391304347984
 30
0.0
 11
208.0
 21
238.2217391304347984
 31
0.0
  0
LINE
  5
756
  8
0
 10
207.0
 20
240.9550000000000125
 30
0.0
 11
207.0
 21
199.0449999999999875
 31
0.0
  0
LINE
  5
757
  8
0
 10
207.0
 20
199.0449999999999875
 30
0.0
 11
199.286112301757413
 21
199.0449999999999875
 31
0.0
  0
LINE
  5
758
  8
0
 10
199.286112301757413
 20
240.9550000000000125
 30
0.0
 11
207.0
 21
240.9550000000000125
 31
0.0
  0
LINE
  5
759
  8
0
 10
199.286112301757413
 20
242.9594999999999914
 30
0.0
 11
199.286112301757413
 21
197.0405000000000086
 31
0.0
  0
LINE
  5
75A
  8
0
 10
199.286112301757413
 20
197.0405000000000086
 30
0.0
 11
196.5
 21
197.0405000000000086
 31
0.0
  0
LINE
  5
75B
  8
0
 10
196.5
 20
242.9594999999999914
 30
0.0
 11
199.286112301757413
 21
242.9594999999999914
 31
0.0
  0
LINE
  5
75C
  8
0
 10
193.1563786008229897
 20
240.25
 30
0.0
 11
186.8416564975956078
 21
240.25
 31
0.0
  0
LINE
  5
75D
  8
0
 10
187.9979240718768949
 20
220.0
 30
0.0
 11
193.1563786008229897
 21
220.0
 31
0.0
  0
LINE
  5
75E
  8
0
 10
193.1563786008229897
 20
199.75
 30
0.0
 11
186.8416564975956078
 21
199.75
 31
0.0
  0
POLYLINE
  5
75F
  8
0
 10
187.9979240718768949
 20
219.9999999999998295
 30
0.0
 66
     1
 70
     8
  0
VERTEX
  8
0
  5
9DD
 10
187.998
 20
220.000
 30
0.00000
  70
    32
  0
VERTEX
  8
0
  5
9DE
 10
187.962
 20
220.156
 30
0.00000
  70
    32
  0
VERTEX
  8
0
  5
9DF
 10
187.927
 20
220.312
 30
0.00000
  70
    32
  0
VERTEX
  8
0
  5
9E0
 10
187.892
 20
220.469
 30
0.00000
  70
    32
  0
VERTEX
  8
0
  5
9E1
 10
187.858
 20
220.625
 30
0.00000
  70
    32
  0
VERTEX
  8
0
  5
9E2
 10
187.825
 20
220.782
 30
0.00000
  70
    32
  0
VERTEX
  8
0
  5
9E3
 10
187.792
 20
220.939
 30
0.00000
  70
    32
  0
VERTEX
  8
0
  5
9E4
 10
187.759
 20
221.095
 30
0.00000
  70
    32
  0
VERTEX
  8
0
  5
9E5
 10
187.728
 20
221.252
 30
0.00000
  70
    32
  0
VERTEX
  8
0
  5
9E6
 10
187.696
 20
221.409
 30
0.00000
  70
    32
  0
VERTEX
  8
0
  5
9E7
 10
187.666
 20
221.566
 30
0.00000
  70
    32
  0
VERTEX
  8
0
  5
9E8
 10
187.635
 20
221.723
 30
0.00000
  70
    32
  0
VERTEX
  8
0
  5
9E9
 10
187.606
 20
221.880
 30
0.00000
  70
    32
  0
VERTEX
  8
0
  5
9EA
 10
187.577
 20
222.037
 30
0.00000
  70
    32
  0
VERTEX
  8
0
  5
9EB
 10
187.548
 20
222.195
 30
0.00000
  70
    32
  0
VERTEX
  8
0
  5
9EC
 10
187.520
 20
222.352
 30
0.00000
  70
    32
  0
VERTEX
  8
0
  5
9ED
 10
187.493
 20
222.510
 30
0.00000
  70
    32
  0
VERTEX
  8
0
  5
9EE
 10
187.466
 20
222.667
 30
0.00000
  70
    32
  0
VERTEX
  8
0
  5
9EF
 10
187.440
 20
222.825
 30
0.00000
  70
    32
  0
VERTEX
  8
0
  5
9F0
 10
187.414
 20
222.982
 30
0.00000
  70
    32
  0
VERTEX
  8
0
  5
9F1
 10
187.389
 20
223.140
 30
0.00000
  70
    32
  0
VERTEX
  8
0
  5
9F2
 10
187.365
 20
223.298
 30
0.00000
  70
    32
  0
VERTEX
  8
0
  5
9F3
 10
187.341
 20
223.456
 30
0.00000
  70
    32
  0
VERTEX
  8
0
  5
9F4
 10
187.317
 20
223.614
 30
0.00000
  70
    32
  0
VERTEX
  8
0
  5
9F5
 10
187.294
 20
223.772
 30
0.00000
  70
    32
  0
VERTEX
  8
0
  5
9F6
 10
187.272
 20
223.930
 30
0.00000
  70
    32
  0
VERTEX
  8
0
  5
9F7
 10
187.250
 20
224.088
 30
0.00000
  70
    32
  0
VERTEX
  8
0
  5
9F8
 10
187.229
 20
224.246
 30
0.00000
  70
    32
  0
VERTEX
  8
0
  5
9F9
 10
187.208
 20
224.404
 30
0.00000
  70
    32
  0
VERTEX
  8
0
  5
9FA
 10
187.188
 20
224.563
 30
0.00000
  70
    32
  0
VERTEX
  8
0
  5
9FB
 10
187.169
 20
224.721
 30
0.00000
  70
    32
  0
VERTEX
  8
0
  5
9FC
 10
187.150
 20
224.879
 30
0.00000
  70
    32
  0
VERTEX
  8
0
  5
9FD
 10
187.131
 20
225.038
 30
0.00000
  70
    32
  0
VERTEX
  8
0
  5
9FE
 10
187.114
 20
225.196
 30
0.00000
  70
    32
  0
VERTEX
  8
0
  5
9FF
 10
187.096
 20
225.355
 30
0.00000
  70
    32
  0
VERTEX
  8
0
  5
A00
 10
187.080
 20
225.513
 30
0.00000
  70
    32
  0
VERTEX
  8
0
  5
A01
 10
187.064
 20
225.672
 30
0.00000
  70
    32
  0
VERTEX
  8
0
  5
A02
 10
187.048
 20
225.831
 30
0.00000
  70
    32
  0
VERTEX
  8
0
  5
A03
 10
187.033
 20
225.989
 30
0.00000
  70
    32
  0
VERTEX
  8
0
  5
A04
 10
187.019
 20
226.148
 30
0.00000
  70
    32
  0
VERTEX
  8
0
  5
A05
 10
187.005
 20
226.307
 30
0.00000
  70
    32
  0
VERTEX
  8
0
  5
A06
 10
186.991
 20
226.466
 30
0.00000
  70
    32
  0
VERTEX
  8
0
  5
A07
 10
186.979
 20
226.625
 30
0.00000
  70
    32
  0
VERTEX
  8
0
  5
A08
 10
186.967
 20
226.783
 30
0.00000
  70
    32
  0
VERTEX
  8
0
  5
A09
 10
186.955
 20
226.942
 30
0.00000
  70
    32
  0
VERTEX
  8
0
  5
A0A
 10
186.944
 20
227.101
 30
0.00000
  70
    32
  0
VERTEX
  8
0
  5
A0B
 10
186.933
 20
227.260
 30
0.00000
  70
    32
  0
VERTEX
  8
0
  5
A0C
 10
186.923
 20
227.419
 30
0.00000
  70
    32
  0
VERTEX
  8
0
  5
A0D
 10
186.914
 20
227.578
 30
0.00000
  70
    32
  0
VERTEX
  8
0
  5
A0E
 10
186.905
 20
227.737
 30
0.00000
  70
    32
  0
VERTEX
  8
0
  5
A0F
 10
186.897
 20
227.896
 30
0.00000
  70
    32
  0
VERTEX
  8
0
  5
A10
 10
186.890
 20
228.056
 30
0.00000
  70
    32
  0
VERTEX
  8
0
  5
A11
 10
186.882
 20
228.215
 30
0.00000
  70
    32
  0
VERTEX
  8
0
  5
A12
 10
186.876
 20
228.374
 30
0.00000
  70
    32
  0
VERTEX
  8
0
  5
A13
 10
186.870
 20
228.533
 30
0.00000
  70
    32
  0
VERTEX
  8
0
  5
A14
 10
186.865
 20
228.692
 30
0.00000
  70
    32
  0
VERTEX
  8
0
  5
A15
 10
186.860
 20
228.851
 30
0.00000
  70
    32
  0
VERTEX
  8
0
  5
A16
 10
186.856
 20
229.010
 30
0.00000
  70
    32
  0
VERTEX
  8
0
  5
A17
 10
186.852
 20
229.170
 30
0.00000
  70
    32
  0
VERTEX
  8
0
  5
A18
 10
186.849
 20
229.329
 30
0.00000
  70
    32
  0
VERTEX
  8
0
  5
A19
 10
186.846
 20
229.488
 30
0.00000
  70
    32
  0
VERTEX
  8
0
  5
A1A
 10
186.844
 20
229.647
 30
0.00000
  70
    32
  0
VERTEX
  8
0
  5
A1B
 10
186.843
 20
229.807
 30
0.00000
  70
    32
  0
VERTEX
  8
0
  5
A1C
 10
186.842
 20
229.966
 30
0.00000
  70
    32
  0
VERTEX
  8
0
  5
A1D
 10
186.842
 20
230.125
 30
0.00000
  70
    32
  0
VERTEX
  8
0
  5
A1E
 10
186.842
 20
230.284
 30
0.00000
  70
    32
  0
VERTEX
  8
0
  5
A1F
 10
186.843
 20
230.443
 30
0.00000
  70
    32
  0
VERTEX
  8
0
  5
A20
 10
186.844
 20
230.603
 30
0.00000
  70
    32
  0
VERTEX
  8
0
  5
A21
 10
186.846
 20
230.762
 30
0.00000
  70
    32
  0
VERTEX
  8
0
  5
A22
 10
186.849
 20
230.921
 30
0.00000
  70
    32
  0
VERTEX
  8
0
  5
A23
 10
186.852
 20
231.080
 30
0.00000
  70
    32
  0
VERTEX
  8
0
  5
A24
 10
186.856
 20
231.240
 30
0.00000
  70
    32
  0
VERTEX
  8
0
  5
A25
 10
186.860
 20
231.399
 30
0.00000
  70
    32
  0
VERTEX
  8
0
  5
A26
 10
186.865
 20
231.558
 30
0.00000
  70
    32
  0
VERTEX
  8
0
  5
A27
 10
186.870
 20
231.717
 30
0.00000
  70
    32
  0
VERTEX
  8
0
  5
A28
 10
186.876
 20
231.876
 30
0.00000
  70
    32
  0
VERTEX
  8
0
  5
A29
 10
186.882
 20
232.035
 30
0.00000
  70
    32
  0
VERTEX
  8
0
  5
A2A
 10
186.890
 20
232.194
 30
0.00000
  70
    32
  0
VERTEX
  8
0
  5
A2B
 10
186.897
 20
232.354
 30
0.00000
  70
    32
  0
VERTEX
  8
0
  5
A2C
 10
186.905
 20
232.513
 30
0.00000
  70
    32
  0
VERTEX
  8
0
  5
A2D
 10
186.914
 20
232.672
 30
0.00000
  70
    32
  0
VERTEX
  8
0
  5
A2E
 10
186.923
 20
232.831
 30
0.00000
  70
    32
  0
VERTEX
  8
0
  5
A2F
 10
186.933
 20
232.990
 30
0.00000
  70
    32
  0
VERTEX
  8
0
  5
A30
 10
186.944
 20
233.149
 30
0.00000
  70
    32
  0
VERTEX
  8
0
  5
A31
 10
186.955
 20
233.308
 30
0.00000
  70
    32
  0
VERTEX
  8
0
  5
A32
 10
186.967
 20
233.467
 30
0.00000
  70
    32
  0
VERTEX
  8
0
  5
A33
 10
186.979
 20
233.625
 30
0.00000
  70
    32
  0
VERTEX
  8
0
  5
A34
 10
186.991
 20
233.784
 30
0.00000
  70
    32
  0
VERTEX
  8
0
  5
A35
 10
187.005
 20
233.943
 30
0.00000
  70
    32
  0
VERTEX
  8
0
  5
A36
 10
187.019
 20
234.102
 30
0.00000
  70
    32
  0
VERTEX
  8
0
  5
A37
 10
187.033
 20
234.261
 30
0.00000
  70
    32
  0
VERTEX
  8
0
  5
A38
 10
187.048
 20
234.419
 30
0.00000
  70
    32
  0
VERTEX
  8
0
  5
A39
 10
187.064
 20
234.578
 30
0.00000
  70
    32
  0
VERTEX
  8
0
  5
A3A
 10
187.080
 20
234.737
 30
0.00000
  70
    32
  0
VERTEX
  8
0
  5
A3B
 10
187.096
 20
234.895
 30
0.00000
  70
    32
  0
VERTEX
  8
0
  5
A3C
 10
187.114
 20
235.054
 30
0.00000
  70
    32
  0
VERTEX
  8
0
  5
A3D
 10
187.131
 20
235.212
 30
0.00000
  70
    32
  0
VERTEX
  8
0
  5
A3E
 10
187.150
 20
235.371
 30
0.00000
  70
    32
  0
VERTEX
  8
0
  5
A3F
 10
187.169
 20
235.529
 30
0.00000
  70
    32
  0
VERTEX
  8
0
  5
A40
 10
187.188
 20
235.687
 30
0.00000
  70
    32
  0
VERTEX
  8
0
  5
A41
 10
187.208
 20
235.846
 30
0.00000
  70
    32
  0
VERTEX
  8
0
  5
A42
 10
187.229
 20
236.004
 30
0.00000
  70
    32
  0
VERTEX
  8
0
  5
A43
 10
187.250
 20
236.162
 30
0.00000
  70
    32
  0
VERTEX
  8
0
  5
A44
 10
187.272
 20
236.320
 30
0.00000
  70
    32
  0
VERTEX
  8
0
  5
A45
 10
187.294
 20
236.478
 30
0.00000
  70
    32
  0
VERTEX
  8
0
  5
A46
 10
187.317
 20
236.636
 30
0.00000
  70
    32
  0
VERTEX
  8
0
  5
A47
 10
187.341
 20
236.794
 30
0.00000
  70
    32
  0
VERTEX
  8
0
  5
A48
 10
187.365
 20
236.952
 30
0.00000
  70
    32
  0
VERTEX
  8
0
  5
A49
 10
187.389
 20
237.110
 30
0.00000
  70
    32
  0
VERTEX
  8
0
  5
A4A
 10
187.414
 20
237.268
 30
0.00000
  70
    32
  0
VERTEX
  8
0
  5
A4B
 10
187.440
 20
237.425
 30
0.00000
  70
    32
  0
VERTEX
  8
0
  5
A4C
 10
187.466
 20
237.583
 30
0.00000
  70
    32
  0
VERTEX
  8
0
  5
A4D
 10
187.493
 20
237.740
 30
0.00000
  70
    32
  0
VERTEX
  8
0
  5
A4E
 10
187.520
 20
237.898
 30
0.00000
  70
    32
  0
VERTEX
  8
0
  5
A4F
 10
187.548
 20
238.055
 30
0.00000
  70
    32
  0
VERTEX
  8
0
  5
A50
 10
187.577
 20
238.213
 30
0.00000
  70
    32
  0
VERTEX
  8
0
  5
A51
 10
187.606
 20
238.370
 30
0.00000
  70
    32
  0
VERTEX
  8
0
  5
A52
 10
187.635
 20
238.527
 30
0.00000
  70
    32
  0
VERTEX
  8
0
  5
A53
 10
187.666
 20
238.684
 30
0.00000
  70
    32
  0
VERTEX
  8
0
  5
A54
 10
187.696
 20
238.841
 30
0.00000
  70
    32
  0
VERTEX
  8
0
  5
A55
 10
187.728
 20
238.998
 30
0.00000
  70
    32
  0
VERTEX
  8
0
  5
A56
 10
187.759
 20
239.155
 30
0.00000
  70
    32
  0
VERTEX
  8
0
  5
A57
 10
187.792
 20
239.311
 30
0.00000
  70
    32
  0
VERTEX
  8
0
  5
A58
 10
187.825
 20
239.468
 30
0.00000
  70
    32
  0
VERTEX
  8
0
  5
A59
 10
187.858
 20
239.625
 30
0.00000
  70
    32
  0
VERTEX
  8
0
  5
A5A
 10
187.892
 20
239.781
 30
0.00000
  70
    32
  0
VERTEX
  8
0
  5
A5B
 10
187.927
 20
239.938
 30
0.00000
  70
    32
  0
VERTEX
  8
0
  5
A5C
 10
187.962
 20
240.094
 30
0.00000
  70
    32
  0
VERTEX
  8
0
  5
A5D
 10
187.998
 20
240.250
 30
0.00000
  70
    32
  0
SEQEND
  8
0
  5
A5E
  0
POLYLINE
  5
760
  8
0
 10
187.9979240718768096
 20
199.75
 30
0.0
 66
     1
 70
     8
  0
VERTEX
  8
0
  5
A5F
 10
187.998
 20
199.750
 30
0.00000
  70
    32
  0
VERTEX
  8
0
  5
A60
 10
187.962
 20
199.906
 30
0.00000
  70
    32
  0
VERTEX
  8
0
  5
A61
 10
187.927
 20
200.062
 30
0.00000
  70
    32
  0
VERTEX
  8
0
  5
A62
 10
187.892
 20
200.219
 30
0.00000
  70
    32
  0
VERTEX
  8
0
  5
A63
 10
187.858
 20
200.375
 30
0.00000
  70
    32
  0
VERTEX
  8
0
  5
A64
 10
187.825
 20
200.532
 30
0.00000
  70
    32
  0
VERTEX
  8
0
  5
A65
 10
187.792
 20
200.689
 30
0.00000
  70
    32
  0
VERTEX
  8
0
  5
A66
 10
187.759
 20
200.845
 30
0.00000
  70
    32
  0
VERTEX
  8
0
  5
A67
 10
187.728
 20
201.002
 30
0.00000
  70
    32
  0
VERTEX
  8
0
  5
A68
 10
187.696
 20
201.159
 30
0.00000
  70
    32
  0
VERTEX
  8
0
  5
A69
 10
187.666
 20
201.316
 30
0.00000
  70
    32
  0
VERTEX
  8
0
  5
A6A
 10
187.635
 20
201.473
 30
0.00000
  70
    32
  0
VERTEX
  8
0
  5
A6B
 10
187.606
 20
201.630
 30
0.00000
  70
    32
  0
VERTEX
  8
0
  5
A6C
 10
187.577
 20
201.787
 30
0.00000
  70
    32
  0
VERTEX
  8
0
  5
A6D
 10
187.548
 20
201.945
 30
0.00000
  70
    32
  0
VERTEX
  8
0
  5
A6E
 10
187.520
 20
202.102
 30
0.00000
  70
    32
  0
VERTEX
  8
0
  5
A6F
 10
187.493
 20
202.260
 30
0.00000
  70
    32
  0
VERTEX
  8
0
  5
A70
 10
187.466
 20
202.417
 30
0.00000
  70
    32
  0
VERTEX
  8
0
  5
A71
 10
187.440
 20
202.575
 30
0.00000
  70
    32
  0
VERTEX
  8
0
  5
A72
 10
187.414
 20
202.732
 30
0.00000
  70
    32
  0
VERTEX
  8
0
  5
A73
 10
187.389
 20
202.890
 30
0.00000
  70
    32
  0
VERTEX
  8
0
  5
A74
 10
187.365
 20
203.048
 30
0.00000
  70
    32
  0
VERTEX
  8
0
  5
A75
 10
187.341
 20
203.206
 30
0.00000
  70
    32
  0
VERTEX
  8
0
  5
A76
 10
187.317
 20
203.364
 30
0.00000
  70
    32
  0
VERTEX
  8
0
  5
A77
 10
187.294
 20
203.522
 30
0.00000
  70
    32
  0
VERTEX
  8
0
  5
A78
 10
187.272
 20
203.680
 30
0.00000
  70
    32
  0
VERTEX
  8
0
  5
A79
 10
187.250
 20
203.838
 30
0.00000
  70
    32
  0
VERTEX
  8
0
  5
A7A
 10
187.229
 20
203.996
 30
0.00000
  70
    32
  0
VERTEX
  8
0
  5
A7B
 10
187.208
 20
204.154
 30
0.00000
  70
    32
  0
VERTEX
  8
0
  5
A7C
 10
187.188
 20
204.313
 30
0.00000
  70
    32
  0
VERTEX
  8
0
  5
A7D
 10
187.169
 20
204.471
 30
0.00000
  70
    32
  0
VERTEX
  8
0
  5
A7E
 10
187.150
 20
204.629
 30
0.00000
  70
    32
  0
VERTEX
  8
0
  5
A7F
 10
187.131
 20
204.788
 30
0.00000
  70
    32
  0
VERTEX
  8
0
  5
A80
 10
187.114
 20
204.946
 30
0.00000
  70
    32
  0
VERTEX
  8
0
  5
A81
 10
187.096
 20
205.105
 30
0.00000
  70
    32
  0
VERTEX
  8
0
  5
A82
 10
187.080
 20
205.263
 30
0.00000
  70
    32
  0
VERTEX
  8
0
  5
A83
 10
187.064
 20
205.422
 30
0.00000
  70
    32
  0
VERTEX
  8
0
  5
A84
 10
187.048
 20
205.581
 30
0.00000
  70
    32
  0
VERTEX
  8
0
  5
A85
 10
187.033
 20
205.739
 30
0.00000
  70
    32
  0
VERTEX
  8
0
  5
A86
 10
187.019
 20
205.898
 30
0.00000
  70
    32
  0
VERTEX
  8
0
  5
A87
 10
187.005
 20
206.057
 30
0.00000
  70
    32
  0
VERTEX
  8
0
  5
A88
 10
186.991
 20
206.216
 30
0.00000
  70
    32
  0
VERTEX
  8
0
  5
A89
 10
186.979
 20
206.375
 30
0.00000
  70
    32
  0
VERTEX
  8
0
  5
A8A
 10
186.967
 20
206.533
 30
0.00000
  70
    32
  0
VERTEX
  8
0
  5
A8B
 10
186.955
 20
206.692
 30
0.00000
  70
    32
  0
VERTEX
  8
0
  5
A8C
 10
186.944
 20
206.851
 30
0.00000
  70
    32
  0
VERTEX
  8
0
  5
A8D
 10
186.933
 20
207.010
 30
0.00000
  70
    32
  0
VERTEX
  8
0
  5
A8E
 10
186.923
 20
207.169
 30
0.00000
  70
    32
  0
VERTEX
  8
0
  5
A8F
 10
186.914
 20
207.328
 30
0.00000
  70
    32
  0
VERTEX
  8
0
  5
A90
 10
186.905
 20
207.487
 30
0.00000
  70
    32
  0
VERTEX
  8
0
  5
A91
 10
186.897
 20
207.646
 30
0.00000
  70
    32
  0
VERTEX
  8
0
  5
A92
 10
186.890
 20
207.806
 30
0.00000
  70
    32
  0
VERTEX
  8
0
  5
A93
 10
186.882
 20
207.965
 30
0.00000
  70
    32
  0
VERTEX
  8
0
  5
A94
 10
186.876
 20
208.124
 30
0.00000
  70
    32
  0
VERTEX
  8
0
  5
A95
 10
186.870
 20
208.283
 30
0.00000
  70
    32
  0
VERTEX
  8
0
  5
A96
 10
186.865
 20
208.442
 30
0.00000
  70
    32
  0
VERTEX
  8
0
  5
A97
 10
186.860
 20
208.601
 30
0.00000
  70
    32
  0
VERTEX
  8
0
  5
A98
 10
186.856
 20
208.760
 30
0.00000
  70
    32
  0
VERTEX
  8
0
  5
A99
 10
186.852
 20
208.920
 30
0.00000
  70
    32
  0
VERTEX
  8
0
  5
A9A
 10
186.849
 20
209.079
 30
0.00000
  70
    32
  0
VERTEX
  8
0
  5
A9B
 10
186.846
 20
209.238
 30
0.00000
  70
    32
  0
VERTEX
  8
0
  5
A9C
 10
186.844
 20
209.397
 30
0.00000
  70
    32
  0
VERTEX
  8
0
  5
A9D
 10
186.843
 20
209.557
 30
0.00000
  70
    32
  0
VERTEX
  8
0
  5
A9E
 10
186.842
 20
209.716
 30
0.00000
  70
    32
  0
VERTEX
  8
0
  5
A9F
 10
186.842
 20
209.875
 30
0.00000
  70
    32
  0
VERTEX
  8
0
  5
AA0
 10
186.842
 20
210.034
 30
0.00000
  70
    32
  0
VERTEX
  8
0
  5
AA1
 10
186.843
 20
210.193
 30
0.00000
  70
    32
  0
VERTEX
  8
0
  5
AA2
 10
186.844
 20
210.353
 30
0.00000
  70
    32
  0
VERTEX
  8
0
  5
AA3
 10
186.846
 20
210.512
 30
0.00000
  70
    32
  0
VERTEX
  8
0
  5
AA4
 10
186.849
 20
210.671
 30
0.00000
  70
    32
  0
VERTEX
  8
0
  5
AA5
 10
186.852
 20
210.830
 30
0.00000
  70
    32
  0
VERTEX
  8
0
  5
AA6
 10
186.856
 20
210.990
 30
0.00000
  70
    32
  0
VERTEX
  8
0
  5
AA7
 10
186.860
 20
211.149
 30
0.00000
  70
    32
  0
VERTEX
  8
0
  5
AA8
 10
186.865
 20
211.308
 30
0.00000
  70
    32
  0
VERTEX
  8
0
  5
AA9
 10
186.870
 20
211.467
 30
0.00000
  70
    32
  0
VERTEX
  8
0
  5
AAA
 10
186.876
 20
211.626
 30
0.00000
  70
    32
  0
VERTEX
  8
0
  5
AAB
 10
186.882
 20
211.785
 30
0.00000
  70
    32
  0
VERTEX
  8
0
  5
AAC
 10
186.890
 20
211.944
 30
0.00000
  70
    32
  0
VERTEX
  8
0
  5
AAD
 10
186.897
 20
212.104
 30
0.00000
  70
    32
  0
VERTEX
  8
0
  5
AAE
 10
186.905
 20
212.263
 30
0.00000
  70
    32
  0
VERTEX
  8
0
  5
AAF
 10
186.914
 20
212.422
 30
0.00000
  70
    32
  0
VERTEX
  8
0
  5
AB0
 10
186.923
 20
212.581
 30
0.00000
  70
    32
  0
VERTEX
  8
0
  5
AB1
 10
186.933
 20
212.740
 30
0.00000
  70
    32
  0
VERTEX
  8
0
  5
AB2
 10
186.944
 20
212.899
 30
0.00000
  70
    32
  0
VERTEX
  8
0
  5
AB3
 10
186.955
 20
213.058
 30
0.00000
  70
    32
  0
VERTEX
  8
0
  5
AB4
 10
186.967
 20
213.217
 30
0.00000
  70
    32
  0
VERTEX
  8
0
  5
AB5
 10
186.979
 20
213.375
 30
0.00000
  70
    32
  0
VERTEX
  8
0
  5
AB6
 10
186.991
 20
213.534
 30
0.00000
  70
    32
  0
VERTEX
  8
0
  5
AB7
 10
187.005
 20
213.693
 30
0.00000
  70
    32
  0
VERTEX
  8
0
  5
AB8
 10
187.019
 20
213.852
 30
0.00000
  70
    32
  0
VERTEX
  8
0
  5
AB9
 10
187.033
 20
214.011
 30
0.00000
  70
    32
  0
VERTEX
  8
0
  5
ABA
 10
187.048
 20
214.169
 30
0.00000
  70
    32
  0
VERTEX
  8
0
  5
ABB
 10
187.064
 20
214.328
 30
0.00000
  70
    32
  0
VERTEX
  8
0
  5
ABC
 10
187.080
 20
214.487
 30
0.00000
  70
    32
  0
VERTEX
  8
0
  5
ABD
 10
187.096
 20
214.645
 30
0.00000
  70
    32
  0
VERTEX
  8
0
  5
ABE
 10
187.114
 20
214.804
 30
0.00000
  70
    32
  0
VERTEX
  8
0
  5
ABF
 10
187.131
 20
214.962
 30
0.00000
  70
    32
  0
VERTEX
  8
0
  5
AC0
 10
187.150
 20
215.121
 30
0.00000
  70
    32
  0
VERTEX
  8
0
  5
AC1
 10
187.169
 20
215.279
 30
0.00000
  70
    32
  0
VERTEX
  8
0
  5
AC2
 10
187.188
 20
215.437
 30
0.00000
  70
    32
  0
VERTEX
  8
0
  5
AC3
 10
187.208
 20
215.596
 30
0.00000
  70
    32
  0
VERTEX
  8
0
  5
AC4
 10
187.229
 20
215.754
 30
0.00000
  70
    32
  0
VERTEX
  8
0
  5
AC5
 10
187.250
 20
215.912
 30
0.00000
  70
    32
  0
VERTEX
  8
0
  5
AC6
 10
187.272
 20
216.070
 30
0.00000
  70
    32
  0
VERTEX
  8
0
  5
AC7
 10
187.294
 20
216.228
 30
0.00000
  70
    32
  0
VERTEX
  8
0
  5
AC8
 10
187.317
 20
216.386
 30
0.00000
  70
    32
  0
VERTEX
  8
0
  5
AC9
 10
187.341
 20
216.544
 30
0.00000
  70
    32
  0
VERTEX
  8
0
  5
ACA
 10
187.365
 20
216.702
 30
0.00000
  70
    32
  0
VERTEX
  8
0
  5
ACB
 10
187.389
 20
216.860
 30
0.00000
  70
    32
  0
VERTEX
  8
0
  5
ACC
 10
187.414
 20
217.018
 30
0.00000
  70
    32
  0
VERTEX
  8
0
  5
ACD
 10
187.440
 20
217.175
 30
0.00000
  70
    32
  0
VERTEX
  8
0
  5
ACE
 10
187.466
 20
217.333
 30
0.00000
  70
    32
  0
VERTEX
  8
0
  5
ACF
 10
187.493
 20
217.490
 30
0.00000
  70
    32
  0
VERTEX
  8
0
  5
AD0
 10
187.520
 20
217.648
 30
0.00000
  70
    32
  0
VERTEX
  8
0
  5
AD1
 10
187.548
 20
217.805
 30
0.00000
  70
    32
  0
VERTEX
  8
0
  5
AD2
 10
187.577
 20
217.963
 30
0.00000
  70
    32
  0
VERTEX
  8
0
  5
AD3
 10
187.606
 20
218.120
 30
0.00000
  70
    32
  0
VERTEX
  8
0
  5
AD4
 10
187.635
 20
218.277
 30
0.00000
  70
    32
  0
VERTEX
  8
0
  5
AD5
 10
187.666
 20
218.434
 30
0.00000
  70
    32
  0
VERTEX
  8
0
  5
AD6
 10
187.696
 20
218.591
 30
0.00000
  70
    32
  0
VERTEX
  8
0
  5
AD7
 10
187.728
 20
218.748
 30
0.00000
  70
    32
  0
VERTEX
  8
0
  5
AD8
 10
187.759
 20
218.905
 30
0.00000
  70
    32
  0
VERTEX
  8
0
  5
AD9
 10
187.792
 20
219.061
 30
0.00000
  70
    32
  0
VERTEX
  8
0
  5
ADA
 10
187.825
 20
219.218
 30
0.00000
  70
    32
  0
VERTEX
  8
0
  5
ADB
 10
187.858
 20
219.375
 30
0.00000
  70
    32
  0
VERTEX
  8
0
  5
ADC
 10
187.892
 20
219.531
 30
0.00000
  70
    32
  0
VERTEX
  8
0
  5
ADD
 10
187.927
 20
219.688
 30
0.00000
  70
    32
  0
VERTEX
  8
0
  5
ADE
 10
187.962
 20
219.844
 30
0.00000
  70
    32
  0
VERTEX
  8
0
  5
ADF
 10
187.998
 20
220.000
 30
0.00000
  70
    32
  0
SEQEND
  8
0
  5
AE0
  0
ARC
  5
761
  8
0
 10
246.5270000000002142
 20
220.0
 30
0.0
 40
63.0270000000001289
 50
161.2589904744328919
 51
198.7410095255669944
  0
LINE
  5
762
  8
0
 10
193.1563786008229897
 20
243.5
 30
0.0
 11
193.1563786008229897
 21
196.5
 31
0.0
  0
LINE
  5
763
  8
0
 10
196.5
 20
243.5
 30
0.0
 11
196.5
 21
196.5
 31
0.0
  0
LINE
  5
764
  8
0
 10
196.5
 20
196.5
 30
0.0
 11
193.1563786008229897
 21
196.5
 31
0.0
  0
LINE
  5
765
  8
0
 10
193.1563786008229897
 20
243.5
 30
0.0
 11
196.5
 21
243.5
 31
0.0
  0
LINE
  5
766
  8
3
 10
207.0
 20
200.5240000000000009
 30
0.0
 11
199.286112301757413
 21
200.5240000000000009
 31
0.0
  0
LINE
  5
767
  8
3
 10
207.0
 20
239.4759999999999991
 30
0.0
 11
199.286112301757413
 21
239.4759999999999991
 31
0.0
  0
CIRCLE
  5
797
  8
0
 10
291.5
 20
140.0
 30
0.0
 40
15.9788259998745996
  0
CIRCLE
  5
798
  8
0
 10
291.5
 20
140.0
 30
0.0
 40
18.2217391304347807
  0
CIRCLE
  5
79B
  8
0
 10
291.5
 20
140.0
 30
0.0
 40
20.9549999999999983
  0
CIRCLE
  5
79C
  8
0
 10
291.5
 20
140.0
 30
0.0
 40
22.9594999999999985
  0
ARC
  5
79D
  8
0
 10
291.5
 20
140.0
 30
0.0
 40
15.0
 50
96.1808006929369981
 51
155.8191993070635988
  0
LINE
  5
79F
  8
1
 10
263.0
 20
140.0
 30
0.0
 11
320.0
 21
140.0
 31
0.0
  0
LINE
  5
7A0
  8
1
 10
291.5
 20
111.5
 30
0.0
 11
291.5
 21
168.5
 31
0.0
  0
CIRCLE
  5
7A1
  8
0
 10
291.5
 20
140.0
 30
0.0
 40
23.5
  0
ARC
  5
7CB
  8
0
 10
275.9216682354057752
 20
134.9382931752325874
 30
0.0
 40
8.1833060556464812
 50
312.2846597205988246
 51
83.7153402794032928
  0
LINE
  5
7CC
  8
0
 10
281.4275148946213108
 20
128.8841912132909044
 30
0.0
 11
280.7706195328627246
 21
128.1592536077457112
 31
0.0
  0
LINE
  5
7CE
  8
0
 10
298.9591933073400014
 20
126.9855235839281988
 30
0.0
 11
299.4456581106917952
 21
126.1367609296288066
 31
0.0
  0
LINE
  5
7D0
  8
0
 10
302.2293804671372186
 20
128.1592536077457112
 30
0.0
 11
301.5724851053786892
 21
128.8841912132909044
 31
0.0
  0
ARC
  5
7D1
  8
0
 10
307.0783317645942248
 20
134.9382931752325874
 30
0.0
 40
8.1833060556464812
 50
96.284659720596693
 51
227.7153402794012038
  0
ARC
  5
7D2
  8
0
 10
291.5
 20
123.6199726328781026
 30
0.0
 40
8.1833060556464776
 50
24.2846597205951191
 51
155.7153402794048986
  0
LINE
  5
7D3
  8
0
 10
306.1825200979707233
 20
143.072420015792801
 30
0.0
 11
307.1400672425310177
 21
143.2727934525993874
 31
0.0
  0
LINE
  5
7D5
  8
0
 10
306.0767799176117023
 20
146.5452553477904019
 30
0.0
 11
305.1843314536412208
 21
146.1445287734408964
 31
0.0
  0
ARC
  5
7D6
  8
0
 10
301.1279385185413275
 20
153.2517205083283045
 30
0.0
 40
8.1833060556464812
 50
168.2846597205966077
 51
299.7153402794050976
  0
LINE
  5
7D7
  8
0
 10
293.1151031537091853
 20
154.913336413547313
 30
0.0
 11
293.2204350315261081
 21
155.8859366622357072
 31
0.0
  0
LINE
  5
7D9
  8
0
 10
289.7795649684737782
 20
155.8859366622357072
 30
0.0
 11
289.8848968462908147
 21
154.913336413547313
 31
0.0
  0
ARC
  5
7DA
  8
0
 10
281.8720614814586725
 20
153.2517205083283045
 30
0.0
 40
8.1833060556464812
 50
240.2846597205947887
 51
11.7153402794034101
  0
LINE
  5
7DB
  8
0
 10
277.8156685463587792
 20
146.1445287734408964
 30
0.0
 11
276.9232200823882977
 21
146.5452553477904019
 31
0.0
  0
LINE
  5
7DD
  8
0
 10
275.8599327574689823
 20
143.2727934525993874
 30
0.0
 11
276.8174799020293904
 21
143.072420015792801
 31
0.0
  0
LINE
  5
7DE
  8
0
 10
283.5543418893083185
 20
126.1367609296288066
 30
0.0
 11
284.0408066926599986
 21
126.9855235839281988
 31
0.0
  0
ARC
  5
7DF
  8
0
 10
291.5
 20
140.0
 30
0.0
 40
15.0
 50
24.1808006929363195
 51
83.8191993070630161
  0
ARC
  5
7E0
  8
0
 10
291.5
 20
140.0
 30
0.0
 40
15.0
 50
168.1808006929356907
 51
227.8191993070637977
  0
ARC
  5
7E1
  8
0
 10
291.5
 20
140.0
 30
0.0
 40
15.0
 50
240.1808006929360886
 51
299.8191993070637977
  0
ARC
  5
7E2
  8
0
 10
291.5
 20
140.0
 30
0.0
 40
15.0
 50
312.1808006929362023
 51
11.8191993070642791
  0
CIRCLE
  5
7F1
  8
3
 10
291.5
 20
140.0
 30
0.0
 40
19.4759999999999813
  0
LINE
  5
844
  8
1
 10
213.0
 20
60.0
 30
0.0
 11
178.5
 21
60.0
 31
0.0
  0
LINE
  5
845
  8
0
 10
208.0
 20
78.22173913043477
 30
0.0
 11
208.0
 21
41.77826086956523
 31
0.0
  0
LINE
  5
846
  8
0
 10
208.0
 20
41.77826086956523
 30
0.0
 11
207.0
 21
41.77826086956523
 31
0.0
  0
LINE
  5
847
  8
0
 10
207.0
 20
78.22173913043477
 30
0.0
 11
208.0
 21
78.22173913043477
 31
0.0
  0
LINE
  5
848
  8
0
 10
207.0
 20
80.9550000000000125
 30
0.0
 11
207.0
 21
39.0449999999999875
 31
0.0
  0
LINE
  5
849
  8
0
 10
207.0
 20
39.0449999999999875
 30
0.0
 11
199.286112301757413
 21
39.0449999999999875
 31
0.0
  0
LINE
  5
84A
  8
0
 10
199.286112301757413
 20
80.9550000000000125
 30
0.0
 11
207.0
 21
80.9550000000000125
 31
0.0
  0
LINE
  5
84B
  8
0
 10
199.286112301757413
 20
82.9594999999999914
 30
0.0
 11
199.286112301757413
 21
37.0405000000000086
 31
0.0
  0
LINE
  5
84C
  8
0
 10
199.286112301757413
 20
37.0405000000000086
 30
0.0
 11
196.5
 21
37.0405000000000086
 31
0.0
  0
LINE
  5
84D
  8
0
 10
196.5
 20
82.9594999999999914
 30
0.0
 11
199.286112301757413
 21
82.9594999999999914
 31
0.0
  0
LINE
  5
84E
  8
0
 10
193.1563786008229897
 20
80.25
 30
0.0
 11
186.8416564975956078
 21
80.25
 31
0.0
  0
LINE
  5
84F
  8
0
 10
187.9979240718768949
 20
60.0
 30
0.0
 11
193.1563786008229897
 21
60.0
 31
0.0
  0
LINE
  5
850
  8
0
 10
193.1563786008229897
 20
39.75
 30
0.0
 11
186.8416564975956078
 21
39.75
 31
0.0
  0
POLYLINE
  5
851
  8
0
 10
187.9979240718768949
 20
59.9999999999998721
 30
0.0
 66
     1
 70
     8
  0
VERTEX
  8
0
  5
AE1
 10
187.998
 20
60.0000
 30
0.00000
  70
    32
  0
VERTEX
  8
0
  5
AE2
 10
187.962
 20
60.1562
 30
0.00000
  70
    32
  0
VERTEX
  8
0
  5
AE3
 10
187.927
 20
60.3125
 30
0.00000
  70
    32
  0
VERTEX
  8
0
  5
AE4
 10
187.892
 20
60.4689
 30
0.00000
  70
    32
  0
VERTEX
  8
0
  5
AE5
 10
187.858
 20
60.6253
 30
0.00000
  70
    32
  0
VERTEX
  8
0
  5
AE6
 10
187.825
 20
60.7819
 30
0.00000
  70
    32
  0
VERTEX
  8
0
  5
AE7
 10
187.792
 20
60.9386
 30
0.00000
  70
    32
  0
VERTEX
  8
0
  5
AE8
 10
187.759
 20
61.0953
 30
0.00000
  70
    32
  0
VERTEX
  8
0
  5
AE9
 10
187.728
 20
61.2521
 30
0.00000
  70
    32
  0
VERTEX
  8
0
  5
AEA
 10
187.696
 20
61.4090
 30
0.00000
  70
    32
  0
VERTEX
  8
0
  5
AEB
 10
187.666
 20
61.5660
 30
0.00000
  70
    32
  0
VERTEX
  8
0
  5
AEC
 10
187.635
 20
61.7231
 30
0.00000
  70
    32
  0
VERTEX
  8
0
  5
AED
 10
187.606
 20
61.8803
 30
0.00000
  70
    32
  0
VERTEX
  8
0
  5
AEE
 10
187.577
 20
62.0375
 30
0.00000
  70
    32
  0
VERTEX
  8
0
  5
AEF
 10
187.548
 20
62.1948
 30
0.00000
  70
    32
  0
VERTEX
  8
0
  5
AF0
 10
187.520
 20
62.3522
 30
0.00000
  70
    32
  0
VERTEX
  8
0
  5
AF1
 10
187.493
 20
62.5097
 30
0.00000
  70
    32
  0
VERTEX
  8
0
  5
AF2
 10
187.466
 20
62.6672
 30
0.00000
  70
    32
  0
VERTEX
  8
0
  5
AF3
 10
187.440
 20
62.8248
 30
0.00000
  70
    32
  0
VERTEX
  8
0
  5
AF4
 10
187.414
 20
62.9825
 30
0.00000
  70
    32
  0
VERTEX
  8
0
  5
AF5
 10
187.389
 20
63.1402
 30
0.00000
  70
    32
  0
VERTEX
  8
0
  5
AF6
 10
187.365
 20
63.2980
 30
0.00000
  70
    32
  0
VERTEX
  8
0
  5
AF7
 10
187.341
 20
63.4559
 30
0.00000
  70
    32
  0
VERTEX
  8
0
  5
AF8
 10
187.317
 20
63.6138
 30
0.00000
  70
    32
  0
VERTEX
  8
0
  5
AF9
 10
187.294
 20
63.7718
 30
0.00000
  70
    32
  0
VERTEX
  8
0
  5
AFA
 10
187.272
 20
63.9299
 30
0.00000
  70
    32
  0
VERTEX
  8
0
  5
AFB
 10
187.250
 20
64.0880
 30
0.00000
  70
    32
  0
VERTEX
  8
0
  5
AFC
 10
187.229
 20
64.2461
 30
0.00000
  70
    32
  0
VERTEX
  8
0
  5
AFD
 10
187.208
 20
64.4044
 30
0.00000
  70
    32
  0
VERTEX
  8
0
  5
AFE
 10
187.188
 20
64.5626
 30
0.00000
  70
    32
  0
VERTEX
  8
0
  5
AFF
 10
187.169
 20
64.7210
 30
0.00000
  70
    32
  0
VERTEX
  8
0
  5
B00
 10
187.150
 20
64.8794
 30
0.00000
  70
    32
  0
VERTEX
  8
0
  5
B01
 10
187.131
 20
65.0378
 30
0.00000
  70
    32
  0
VERTEX
  8
0
  5
B02
 10
187.114
 20
65.1963
 30
0.00000
  70
    32
  0
VERTEX
  8
0
  5
B03
 10
187.096
 20
65.3548
 30
0.00000
  70
    32
  0
VERTEX
  8
0
  5
B04
 10
187.080
 20
65.5134
 30
0.00000
  70
    32
  0
VERTEX
  8
0
  5
B05
 10
187.064
 20
65.6720
 30
0.00000
  70
    32
  0
VERTEX
  8
0
  5
B06
 10
187.048
 20
65.8307
 30
0.00000
  70
    32
  0
VERTEX
  8
0
  5
B07
 10
187.033
 20
65.9894
 30
0.00000
  70
    32
  0
VERTEX
  8
0
  5
B08
 10
187.019
 20
66.1481
 30
0.00000
  70
    32
  0
VERTEX
  8
0
  5
B09
 10
187.005
 20
66.3069
 30
0.00000
  70
    32
  0
VERTEX
  8
0
  5
B0A
 10
186.991
 20
66.4657
 30
0.00000
  70
    32
  0
VERTEX
  8
0
  5
B0B
 10
186.979
 20
66.6246
 30
0.00000
  70
    32
  0
VERTEX
  8
0
  5
B0C
 10
186.967
 20
66.7834
 30
0.00000
  70
    32
  0
VERTEX
  8
0
  5
B0D
 10
186.955
 20
66.9424
 30
0.00000
  70
    32
  0
VERTEX
  8
0
  5
B0E
 10
186.944
 20
67.1013
 30
0.00000
  70
    32
  0
VERTEX
  8
0
  5
B0F
 10
186.933
 20
67.2603
 30
0.00000
  70
    32
  0
VERTEX
  8
0
  5
B10
 10
186.923
 20
67.4193
 30
0.00000
  70
    32
  0
VERTEX
  8
0
  5
B11
 10
186.914
 20
67.5783
 30
0.00000
  70
    32
  0
VERTEX
  8
0
  5
B12
 10
186.905
 20
67.7374
 30
0.00000
  70
    32
  0
VERTEX
  8
0
  5
B13
 10
186.897
 20
67.8964
 30
0.00000
  70
    32
  0
VERTEX
  8
0
  5
B14
 10
186.890
 20
68.0555
 30
0.00000
  70
    32
  0
VERTEX
  8
0
  5
B15
 10
186.882
 20
68.2146
 30
0.00000
  70
    32
  0
VERTEX
  8
0
  5
B16
 10
186.876
 20
68.3738
 30
0.00000
  70
    32
  0
VERTEX
  8
0
  5
B17
 10
186.870
 20
68.5329
 30
0.00000
  70
    32
  0
VERTEX
  8
0
  5
B18
 10
186.865
 20
68.6921
 30
0.00000
  70
    32
  0
VERTEX
  8
0
  5
B19
 10
186.860
 20
68.8513
 30
0.00000
  70
    32
  0
VERTEX
  8
0
  5
B1A
 10
186.856
 20
69.0105
 30
0.00000
  70
    32
  0
VERTEX
  8
0
  5
B1B
 10
186.852
 20
69.1697
 30
0.00000
  70
    32
  0
VERTEX
  8
0
  5
B1C
 10
186.849
 20
69.3289
 30
0.00000
  70
    32
  0
VERTEX
  8
0
  5
B1D
 10
186.846
 20
69.4881
 30
0.00000
  70
    32
  0
VERTEX
  8
0
  5
B1E
 10
186.844
 20
69.6473
 30
0.00000
  70
    32
  0
VERTEX
  8
0
  5
B1F
 10
186.843
 20
69.8065
 30
0.00000
  70
    32
  0
VERTEX
  8
0
  5
B20
 10
186.842
 20
69.9658
 30
0.00000
  70
    32
  0
VERTEX
  8
0
  5
B21
 10
186.842
 20
70.1250
 30
0.00000
  70
    32
  0
VERTEX
  8
0
  5
B22
 10
186.842
 20
70.2842
 30
0.00000
  70
    32
  0
VERTEX
  8
0
  5
B23
 10
186.843
 20
70.4435
 30
0.00000
  70
    32
  0
VERTEX
  8
0
  5
B24
 10
186.844
 20
70.6027
 30
0.00000
  70
    32
  0
VERTEX
  8
0
  5
B25
 10
186.846
 20
70.7619
 30
0.00000
  70
    32
  0
VERTEX
  8
0
  5
B26
 10
186.849
 20
70.9211
 30
0.00000
  70
    32
  0
VERTEX
  8
0
  5
B27
 10
186.852
 20
71.0803
 30
0.00000
  70
    32
  0
VERTEX
  8
0
  5
B28
 10
186.856
 20
71.2395
 30
0.00000
  70
    32
  0
VERTEX
  8
0
  5
B29
 10
186.860
 20
71.3987
 30
0.00000
  70
    32
  0
VERTEX
  8
0
  5
B2A
 10
186.865
 20
71.5579
 30
0.00000
  70
    32
  0
VERTEX
  8
0
  5
B2B
 10
186.870
 20
71.7171
 30
0.00000
  70
    32
  0
VERTEX
  8
0
  5
B2C
 10
186.876
 20
71.8762
 30
0.00000
  70
    32
  0
VERTEX
  8
0
  5
B2D
 10
186.882
 20
72.0354
 30
0.00000
  70
    32
  0
VERTEX
  8
0
  5
B2E
 10
186.890
 20
72.1945
 30
0.00000
  70
    32
  0
VERTEX
  8
0
  5
B2F
 10
186.897
 20
72.3536
 30
0.00000
  70
    32
  0
VERTEX
  8
0
  5
B30
 10
186.905
 20
72.5126
 30
0.00000
  70
    32
  0
VERTEX
  8
0
  5
B31
 10
186.914
 20
72.6717
 30
0.00000
  70
    32
  0
VERTEX
  8
0
  5
B32
 10
186.923
 20
72.8307
 30
0.00000
  70
    32
  0
VERTEX
  8
0
  5
B33
 10
186.933
 20
72.9897
 30
0.00000
  70
    32
  0
VERTEX
  8
0
  5
B34
 10
186.944
 20
73.1487
 30
0.00000
  70
    32
  0
VERTEX
  8
0
  5
B35
 10
186.955
 20
73.3076
 30
0.00000
  70
    32
  0
VERTEX
  8
0
  5
B36
 10
186.967
 20
73.4666
 30
0.00000
  70
    32
  0
VERTEX
  8
0
  5
B37
 10
186.979
 20
73.6254
 30
0.00000
  70
    32
  0
VERTEX
  8
0
  5
B38
 10
186.991
 20
73.7843
 30
0.00000
  70
    32
  0
VERTEX
  8
0
  5
B39
 10
187.005
 20
73.9431
 30
0.00000
  70
    32
  0
VERTEX
  8
0
  5
B3A
 10
187.019
 20
74.1019
 30
0.00000
  70
    32
  0
VERTEX
  8
0
  5
B3B
 10
187.033
 20
74.2606
 30
0.00000
  70
    32
  0
VERTEX
  8
0
  5
B3C
 10
187.048
 20
74.4193
 30
0.00000
  70
    32
  0
VERTEX
  8
0
  5
B3D
 10
187.064
 20
74.5780
 30
0.00000
  70
    32
  0
VERTEX
  8
0
  5
B3E
 10
187.080
 20
74.7366
 30
0.00000
  70
    32
  0
VERTEX
  8
0
  5
B3F
 10
187.096
 20
74.8952
 30
0.00000
  70
    32
  0
VERTEX
  8
0
  5
B40
 10
187.114
 20
75.0537
 30
0.00000
  70
    32
  0
VERTEX
  8
0
  5
B41
 10
187.131
 20
75.2122
 30
0.00000
  70
    32
  0
VERTEX
  8
0
  5
B42
 10
187.150
 20
75.3706
 30
0.00000
  70
    32
  0
VERTEX
  8
0
  5
B43
 10
187.169
 20
75.5290
 30
0.00000
  70
    32
  0
VERTEX
  8
0
  5
B44
 10
187.188
 20
75.6874
 30
0.00000
  70
    32
  0
VERTEX
  8
0
  5
B45
 10
187.208
 20
75.8456
 30
0.00000
  70
    32
  0
VERTEX
  8
0
  5
B46
 10
187.229
 20
76.0039
 30
0.00000
  70
    32
  0
VERTEX
  8
0
  5
B47
 10
187.250
 20
76.1620
 30
0.00000
  70
    32
  0
VERTEX
  8
0
  5
B48
 10
187.272
 20
76.3201
 30
0.00000
  70
    32
  0
VERTEX
  8
0
  5
B49
 10
187.294
 20
76.4782
 30
0.00000
  70
    32
  0
VERTEX
  8
0
  5
B4A
 10
187.317
 20
76.6362
 30
0.00000
  70
    32
  0
VERTEX
  8
0
  5
B4B
 10
187.341
 20
76.7941
 30
0.00000
  70
    32
  0
VERTEX
  8
0
  5
B4C
 10
187.365
 20
76.9520
 30
0.00000
  70
    32
  0
VERTEX
  8
0
  5
B4D
 10
187.389
 20
77.1098
 30
0.00000
  70
    32
  0
VERTEX
  8
0
  5
B4E
 10
187.414
 20
77.2675
 30
0.00000
  70
    32
  0
VERTEX
  8
0
  5
B4F
 10
187.440
 20
77.4252
 30
0.00000
  70
    32
  0
VERTEX
  8
0
  5
B50
 10
187.466
 20
77.5828
 30
0.00000
  70
    32
  0
VERTEX
  8
0
  5
B51
 10
187.493
 20
77.7403
 30
0.00000
  70
    32
  0
VERTEX
  8
0
  5
B52
 10
187.520
 20
77.8978
 30
0.00000
  70
    32
  0
VERTEX
  8
0
  5
B53
 10
187.548
 20
78.0552
 30
0.00000
  70
    32
  0
VERTEX
  8
0
  5
B54
 10
187.577
 20
78.2125
 30
0.00000
  70
    32
  0
VERTEX
  8
0
  5
B55
 10
187.606
 20
78.3697
 30
0.00000
  70
    32
  0
VERTEX
  8
0
  5
B56
 10
187.635
 20
78.5269
 30
0.00000
  70
    32
  0
VERTEX
  8
0
  5
B57
 10
187.666
 20
78.6840
 30
0.00000
  70
    32
  0
VERTEX
  8
0
  5
B58
 10
187.696
 20
78.8410
 30
0.00000
  70
    32
  0
VERTEX
  8
0
  5
B59
 10
187.728
 20
78.9979
 30
0.00000
  70
    32
  0
VERTEX
  8
0
  5
B5A
 10
187.759
 20
79.1547
 30
0.00000
  70
    32
  0
VERTEX
  8
0
  5
B5B
 10
187.792
 20
79.3114
 30
0.00000
  70
    32
  0
VERTEX
  8
0
  5
B5C
 10
187.825
 20
79.4681
 30
0.00000
  70
    32
  0
VERTEX
  8
0
  5
B5D
 10
187.858
 20
79.6247
 30
0.00000
  70
    32
  0
VERTEX
  8
0
  5
B5E
 10
187.892
 20
79.7811
 30
0.00000
  70
    32
  0
VERTEX
  8
0
  5
B5F
 10
187.927
 20
79.9375
 30
0.00000
  70
    32
  0
VERTEX
  8
0
  5
B60
 10
187.962
 20
80.0938
 30
0.00000
  70
    32
  0
VERTEX
  8
0
  5
B61
 10
187.998
 20
80.2500
 30
0.00000
  70
    32
  0
SEQEND
  8
0
  5
B62
  0
POLYLINE
  5
852
  8
0
 10
187.9979240718768096
 20
39.75
 30
0.0
 66
     1
 70
     8
  0
VERTEX
  8
0
  5
B63
 10
187.998
 20
39.7500
 30
0.00000
  70
    32
  0
VERTEX
  8
0
  5
B64
 10
187.962
 20
39.9062
 30
0.00000
  70
    32
  0
VERTEX
  8
0
  5
B65
 10
187.927
 20
40.0625
 30
0.00000
  70
    32
  0
VERTEX
  8
0
  5
B66
 10
187.892
 20
40.2189
 30
0.00000
  70
    32
  0
VERTEX
  8
0
  5
B67
 10
187.858
 20
40.3753
 30
0.00000
  70
    32
  0
VERTEX
  8
0
  5
B68
 10
187.825
 20
40.5319
 30
0.00000
  70
    32
  0
VERTEX
  8
0
  5
B69
 10
187.792
 20
40.6886
 30
0.00000
  70
    32
  0
VERTEX
  8
0
  5
B6A
 10
187.759
 20
40.8453
 30
0.00000
  70
    32
  0
VERTEX
  8
0
  5
B6B
 10
187.728
 20
41.0021
 30
0.00000
  70
    32
  0
VERTEX
  8
0
  5
B6C
 10
187.696
 20
41.1590
 30
0.00000
  70
    32
  0
VERTEX
  8
0
  5
B6D
 10
187.666
 20
41.3160
 30
0.00000
  70
    32
  0
VERTEX
  8
0
  5
B6E
 10
187.635
 20
41.4731
 30
0.00000
  70
    32
  0
VERTEX
  8
0
  5
B6F
 10
187.606
 20
41.6303
 30
0.00000
  70
    32
  0
VERTEX
  8
0
  5
B70
 10
187.577
 20
41.7875
 30
0.00000
  70
    32
  0
VERTEX
  8
0
  5
B71
 10
187.548
 20
41.9448
 30
0.00000
  70
    32
  0
VERTEX
  8
0
  5
B72
 10
187.520
 20
42.1022
 30
0.00000
  70
    32
  0
VERTEX
  8
0
  5
B73
 10
187.493
 20
42.2597
 30
0.00000
  70
    32
  0
VERTEX
  8
0
  5
B74
 10
187.466
 20
42.4172
 30
0.00000
  70
    32
  0
VERTEX
  8
0
  5
B75
 10
187.440
 20
42.5748
 30
0.00000
  70
    32
  0
VERTEX
  8
0
  5
B76
 10
187.414
 20
42.7325
 30
0.00000
  70
    32
  0
VERTEX
  8
0
  5
B77
 10
187.389
 20
42.8902
 30
0.00000
  70
    32
  0
VERTEX
  8
0
  5
B78
 10
187.365
 20
43.0480
 30
0.00000
  70
    32
  0
VERTEX
  8
0
  5
B79
 10
187.341
 20
43.2059
 30
0.00000
  70
    32
  0
VERTEX
  8
0
  5
B7A
 10
187.317
 20
43.3638
 30
0.00000
  70
    32
  0
VERTEX
  8
0
  5
B7B
 10
187.294
 20
43.5218
 30
0.00000
  70
    32
  0
VERTEX
  8
0
  5
B7C
 10
187.272
 20
43.6799
 30
0.00000
  70
    32
  0
VERTEX
  8
0
  5
B7D
 10
187.250
 20
43.8380
 30
0.00000
  70
    32
  0
VERTEX
  8
0
  5
B7E
 10
187.229
 20
43.9961
 30
0.00000
  70
    32
  0
VERTEX
  8
0
  5
B7F
 10
187.208
 20
44.1544
 30
0.00000
  70
    32
  0
VERTEX
  8
0
  5
B80
 10
187.188
 20
44.3126
 30
0.00000
  70
    32
  0
VERTEX
  8
0
  5
B81
 10
187.169
 20
44.4710
 30
0.00000
  70
    32
  0
VERTEX
  8
0
  5
B82
 10
187.150
 20
44.6294
 30
0.00000
  70
    32
  0
VERTEX
  8
0
  5
B83
 10
187.131
 20
44.7878
 30
0.00000
  70
    32
  0
VERTEX
  8
0
  5
B84
 10
187.114
 20
44.9463
 30
0.00000
  70
    32
  0
VERTEX
  8
0
  5
B85
 10
187.096
 20
45.1048
 30
0.00000
  70
    32
  0
VERTEX
  8
0
  5
B86
 10
187.080
 20
45.2634
 30
0.00000
  70
    32
  0
VERTEX
  8
0
  5
B87
 10
187.064
 20
45.4220
 30
0.00000
  70
    32
  0
VERTEX
  8
0
  5
B88
 10
187.048
 20
45.5807
 30
0.00000
  70
    32
  0
VERTEX
  8
0
  5
B89
 10
187.033
 20
45.7394
 30
0.00000
  70
    32
  0
VERTEX
  8
0
  5
B8A
 10
187.019
 20
45.8981
 30
0.00000
  70
    32
  0
VERTEX
  8
0
  5
B8B
 10
187.005
 20
46.0569
 30
0.00000
  70
    32
  0
VERTEX
  8
0
  5
B8C
 10
186.991
 20
46.2157
 30
0.00000
  70
    32
  0
VERTEX
  8
0
  5
B8D
 10
186.979
 20
46.3746
 30
0.00000
  70
    32
  0
VERTEX
  8
0
  5
B8E
 10
186.967
 20
46.5334
 30
0.00000
  70
    32
  0
VERTEX
  8
0
  5
B8F
 10
186.955
 20
46.6924
 30
0.00000
  70
    32
  0
VERTEX
  8
0
  5
B90
 10
186.944
 20
46.8513
 30
0.00000
  70
    32
  0
VERTEX
  8
0
  5
B91
 10
186.933
 20
47.0103
 30
0.00000
  70
    32
  0
VERTEX
  8
0
  5
B92
 10
186.923
 20
47.1693
 30
0.00000
  70
    32
  0
VERTEX
  8
0
  5
B93
 10
186.914
 20
47.3283
 30
0.00000
  70
    32
  0
VERTEX
  8
0
  5
B94
 10
186.905
 20
47.4874
 30
0.00000
  70
    32
  0
VERTEX
  8
0
  5
B95
 10
186.897
 20
47.6464
 30
0.00000
  70
    32
  0
VERTEX
  8
0
  5
B96
 10
186.890
 20
47.8055
 30
0.00000
  70
    32
  0
VERTEX
  8
0
  5
B97
 10
186.882
 20
47.9646
 30
0.00000
  70
    32
  0
VERTEX
  8
0
  5
B98
 10
186.876
 20
48.1238
 30
0.00000
  70
    32
  0
VERTEX
  8
0
  5
B99
 10
186.870
 20
48.2829
 30
0.00000
  70
    32
  0
VERTEX
  8
0
  5
B9A
 10
186.865
 20
48.4421
 30
0.00000
  70
    32
  0
VERTEX
  8
0
  5
B9B
 10
186.860
 20
48.6013
 30
0.00000
  70
    32
  0
VERTEX
  8
0
  5
B9C
 10
186.856
 20
48.7605
 30
0.00000
  70
    32
  0
VERTEX
  8
0
  5
B9D
 10
186.852
 20
48.9197
 30
0.00000
  70
    32
  0
VERTEX
  8
0
  5
B9E
 10
186.849
 20
49.0789
 30
0.00000
  70
    32
  0
VERTEX
  8
0
  5
B9F
 10
186.846
 20
49.2381
 30
0.00000
  70
    32
  0
VERTEX
  8
0
  5
BA0
 10
186.844
 20
49.3973
 30
0.00000
  70
    32
  0
VERTEX
  8
0
  5
BA1
 10
186.843
 20
49.5565
 30
0.00000
  70
    32
  0
VERTEX
  8
0
  5
BA2
 10
186.842
 20
49.7158
 30
0.00000
  70
    32
  0
VERTEX
  8
0
  5
BA3
 10
186.842
 20
49.8750
 30
0.00000
  70
    32
  0
VERTEX
  8
0
  5
BA4
 10
186.842
 20
50.0342
 30
0.00000
  70
    32
  0
VERTEX
  8
0
  5
BA5
 10
186.843
 20
50.1935
 30
0.00000
  70
    32
  0
VERTEX
  8
0
  5
BA6
 10
186.844
 20
50.3527
 30
0.00000
  70
    32
  0
VERTEX
  8
0
  5
BA7
 10
186.846
 20
50.5119
 30
0.00000
  70
    32
  0
VERTEX
  8
0
  5
BA8
 10
186.849
 20
50.6711
 30
0.00000
  70
    32
  0
VERTEX
  8
0
  5
BA9
 10
186.852
 20
50.8303
 30
0.00000
  70
    32
  0
VERTEX
  8
0
  5
BAA
 10
186.856
 20
50.9895
 30
0.00000
  70
    32
  0
VERTEX
  8
0
  5
BAB
 10
186.860
 20
51.1487
 30
0.00000
  70
    32
  0
VERTEX
  8
0
  5
BAC
 10
186.865
 20
51.3079
 30
0.00000
  70
    32
  0
VERTEX
  8
0
  5
BAD
 10
186.870
 20
51.4671
 30
0.00000
  70
    32
  0
VERTEX
  8
0
  5
BAE
 10
186.876
 20
51.6262
 30
0.00000
  70
    32
  0
VERTEX
  8
0
  5
BAF
 10
186.882
 20
51.7854
 30
0.00000
  70
    32
  0
VERTEX
  8
0
  5
BB0
 10
186.890
 20
51.9445
 30
0.00000
  70
    32
  0
VERTEX
  8
0
  5
BB1
 10
186.897
 20
52.1036
 30
0.00000
  70
    32
  0
VERTEX
  8
0
  5
BB2
 10
186.905
 20
52.2626
 30
0.00000
  70
    32
  0
VERTEX
  8
0
  5
BB3
 10
186.914
 20
52.4217
 30
0.00000
  70
    32
  0
VERTEX
  8
0
  5
BB4
 10
186.923
 20
52.5807
 30
0.00000
  70
    32
  0
VERTEX
  8
0
  5
BB5
 10
186.933
 20
52.7397
 30
0.00000
  70
    32
  0
VERTEX
  8
0
  5
BB6
 10
186.944
 20
52.8987
 30
0.00000
  70
    32
  0
VERTEX
  8
0
  5
BB7
 10
186.955
 20
53.0576
 30
0.00000
  70
    32
  0
VERTEX
  8
0
  5
BB8
 10
186.967
 20
53.2166
 30
0.00000
  70
    32
  0
VERTEX
  8
0
  5
BB9
 10
186.979
 20
53.3754
 30
0.00000
  70
    32
  0
VERTEX
  8
0
  5
BBA
 10
186.991
 20
53.5343
 30
0.00000
  70
    32
  0
VERTEX
  8
0
  5
BBB
 10
187.005
 20
53.6931
 30
0.00000
  70
    32
  0
VERTEX
  8
0
  5
BBC
 10
187.019
 20
53.8519
 30
0.00000
  70
    32
  0
VERTEX
  8
0
  5
BBD
 10
187.033
 20
54.0106
 30
0.00000
  70
    32
  0
VERTEX
  8
0
  5
BBE
 10
187.048
 20
54.1693
 30
0.00000
  70
    32
  0
VERTEX
  8
0
  5
BBF
 10
187.064
 20
54.3280
 30
0.00000
  70
    32
  0
VERTEX
  8
0
  5
BC0
 10
187.080
 20
54.4866
 30
0.00000
  70
    32
  0
VERTEX
  8
0
  5
BC1
 10
187.096
 20
54.6452
 30
0.00000
  70
    32
  0
VERTEX
  8
0
  5
BC2
 10
187.114
 20
54.8037
 30
0.00000
  70
    32
  0
VERTEX
  8
0
  5
BC3
 10
187.131
 20
54.9622
 30
0.00000
  70
    32
  0
VERTEX
  8
0
  5
BC4
 10
187.150
 20
55.1206
 30
0.00000
  70
    32
  0
VERTEX
  8
0
  5
BC5
 10
187.169
 20
55.2790
 30
0.00000
  70
    32
  0
VERTEX
  8
0
  5
BC6
 10
187.188
 20
55.4374
 30
0.00000
  70
    32
  0
VERTEX
  8
0
  5
BC7
 10
187.208
 20
55.5956
 30
0.00000
  70
    32
  0
VERTEX
  8
0
  5
BC8
 10
187.229
 20
55.7539
 30
0.00000
  70
    32
  0
VERTEX
  8
0
  5
BC9
 10
187.250
 20
55.9120
 30
0.00000
  70
    32
  0
VERTEX
  8
0
  5
BCA
 10
187.272
 20
56.0701
 30
0.00000
  70
    32
  0
VERTEX
  8
0
  5
BCB
 10
187.294
 20
56.2282
 30
0.00000
  70
    32
  0
VERTEX
  8
0
  5
BCC
 10
187.317
 20
56.3862
 30
0.00000
  70
    32
  0
VERTEX
  8
0
  5
BCD
 10
187.341
 20
56.5441
 30
0.00000
  70
    32
  0
VERTEX
  8
0
  5
BCE
 10
187.365
 20
56.7020
 30
0.00000
  70
    32
  0
VERTEX
  8
0
  5
BCF
 10
187.389
 20
56.8598
 30
0.00000
  70
    32
  0
VERTEX
  8
0
  5
BD0
 10
187.414
 20
57.0175
 30
0.00000
  70
    32
  0
VERTEX
  8
0
  5
BD1
 10
187.440
 20
57.1752
 30
0.00000
  70
    32
  0
VERTEX
  8
0
  5
BD2
 10
187.466
 20
57.3328
 30
0.00000
  70
    32
  0
VERTEX
  8
0
  5
BD3
 10
187.493
 20
57.4903
 30
0.00000
  70
    32
  0
VERTEX
  8
0
  5
BD4
 10
187.520
 20
57.6478
 30
0.00000
  70
    32
  0
VERTEX
  8
0
  5
BD5
 10
187.548
 20
57.8052
 30
0.00000
  70
    32
  0
VERTEX
  8
0
  5
BD6
 10
187.577
 20
57.9625
 30
0.00000
  70
    32
  0
VERTEX
  8
0
  5
BD7
 10
187.606
 20
58.1197
 30
0.00000
  70
    32
  0
VERTEX
  8
0
  5
BD8
 10
187.635
 20
58.2769
 30
0.00000
  70
    32
  0
VERTEX
  8
0
  5
BD9
 10
187.666
 20
58.4340
 30
0.00000
  70
    32
  0
VERTEX
  8
0
  5
BDA
 10
187.696
 20
58.5910
 30
0.00000
  70
    32
  0
VERTEX
  8
0
  5
BDB
 10
187.728
 20
58.7479
 30
0.00000
  70
    32
  0
VERTEX
  8
0
  5
BDC
 10
187.759
 20
58.9047
 30
0.00000
  70
    32
  0
VERTEX
  8
0
  5
BDD
 10
187.792
 20
59.0614
 30
0.00000
  70
    32
  0
VERTEX
  8
0
  5
BDE
 10
187.825
 20
59.2181
 30
0.00000
  70
    32
  0
VERTEX
  8
0
  5
BDF
 10
187.858
 20
59.3747
 30
0.00000
  70
    32
  0
VERTEX
  8
0
  5
BE0
 10
187.892
 20
59.5311
 30
0.00000
  70
    32
  0
VERTEX
  8
0
  5
BE1
 10
187.927
 20
59.6875
 30
0.00000
  70
    32
  0
VERTEX
  8
0
  5
BE2
 10
187.962
 20
59.8438
 30
0.00000
  70
    32
  0
VERTEX
  8
0
  5
BE3
 10
187.998
 20
60.0000
 30
0.00000
  70
    32
  0
SEQEND
  8
0
  5
BE4
  0
ARC
  5
853
  8
0
 10
246.5270000000002142
 20
60.0
 30
0.0
 40
63.0270000000001289
 50
161.2589904744322098
 51
198.7410095255677902
  0
LINE
  5
854
  8
0
 10
193.1563786008229897
 20
83.4999999999999858
 30
0.0
 11
193.1563786008229897
 21
36.5
 31
0.0
  0
LINE
  5
855
  8
0
 10
196.5
 20
83.4999999999999858
 30
0.0
 11
196.5
 21
36.5
 31
0.0
  0
LINE
  5
856
  8
0
 10
196.5
 20
36.5
 30
0.0
 11
193.1563786008229897
 21
36.5
 31
0.0
  0
LINE
  5
857
  8
0
 10
193.1563786008229897
 20
83.4999999999999858
 30
0.0
 11
196.5
 21
83.4999999999999858
 31
0.0
  0
LINE
  5
858
  8
3
 10
207.0
 20
40.5240000000000009
 30
0.0
 11
199.286112301757413
 21
40.5240000000000009
 31
0.0
  0
LINE
  5
859
  8
3
 10
207.0
 20
79.4759999999999991
 30
0.0
 11
199.286112301757413
 21
79.4759999999999991
 31
0.0
  0
ENDSEC
  0
EOF
