  0
SECTION
  2
HEADER
  9
$ACADVER
  1
AC1009
  9
$INSBASE
 10
0.0
 20
0.0
 30
0.0
  9
$EXTMIN
 10
0.0
 20
-2.960436562073669
 30
0.0
  9
$EXTMAX
 10
302.49638100982929
 20
243.97736810551541
 30
0.0
  9
$LIMMIN
 10
0.0
 20
0.0
  9
$LIMMAX
 10
375.0
 20
270.0
  9
$ORTHOMODE
 70
     1
  9
$REGENMODE
 70
     1
  9
$FILLMODE
 70
     1
  9
$QTEXTMODE
 70
     0
  9
$MIRRTEXT
 70
     0
  9
$DRAGMODE
 70
     2
  9
$LTSCALE
 40
10.0
  9
$OSMODE
 70
    55
  9
$ATTMODE
 70
     1
  9
$TEXTSIZE
 40
0.2
  9
$TRACEWID
 40
0.05
  9
$TEXTSTYLE
  7
STANDARD
  9
$CLAYER
  8
0
  9
$CELTYPE
  6
BYLAYER
  9
$CECOLOR
 62
   256
  9
$DIMSCALE
 40
1.0
  9
$DIMASZ
 40
3.0
  9
$DIMEXO
 40
2.0
  9
$DIMDLI
 40
0.38
  9
$DIMRND
 40
0.0
  9
$DIMDLE
 40
0.0
  9
$DIMEXE
 40
2.0
  9
$DIMTP
 40
0.0
  9
$DIMTM
 40
0.0
  9
$DIMTXT
 40
3.2000000000000002
  9
$DIMCEN
 40
0.0
  9
$DIMTSZ
 40
0.0
  9
$DIMTOL
 70
     0
  9
$DIMLIM
 70
     0
  9
$DIMTIH
 70
     0
  9
$DIMTOH
 70
     0
  9
$DIMSE1
 70
     0
  9
$DIMSE2
 70
     0
  9
$DIMTAD
 70
     1
  9
$DIMZIN
 70
     0
  9
$DIMBLK
  1

  9
$DIMASO
 70
     1
  9
$DIMSHO
 70
     0
  9
$DIMPOST
  1

  9
$DIMAPOST
  1

  9
$DIMALT
 70
     0
  9
$DIMALTD
 70
     2
  9
$DIMALTF
 40
25.399999999999999
  9
$DIMLFAC
 40
1.0
  9
$DIMTOFL
 70
     1
  9
$DIMTVP
 40
1.6000000000000001
  9
$DIMTIX
 70
     1
  9
$DIMSOXD
 70
     0
  9
$DIMSAH
 70
     0
  9
$DIMBLK1
  1

  9
$DIMBLK2
  1

  9
$DIMSTYLE
  2
STANDARD
  9
$DIMCLRD
 70
     0
  9
$DIMCLRE
 70
     0
  9
$DIMCLRT
 70
     0
  9
$DIMTFAC
 40
1.0
  9
$DIMGAP
 40
0.09
  9
$LUNITS
 70
     2
  9
$LUPREC
 70
     4
  9
$SKETCHINC
 40
0.1
  9
$FILLETRAD
 40
0.0
  9
$AUNITS
 70
     0
  9
$AUPREC
 70
     4
  9
$MENU
  1
E:\r13\win\SUPPORT\ACAD
  9
$ELEVATION
 40
0.0
  9
$PELEVATION
 40
0.0
  9
$THICKNESS
 40
0.0
  9
$LIMCHECK
 70
     0
  9
$BLIPMODE
 70
     0
  9
$CHAMFERA
 40
0.0
  9
$CHAMFERB
 40
0.0
  9
$SKPOLY
 70
     0
  9
$TDCREATE
 40
2449839.7945370371
  9
$TDUPDATE
 40
2456598.6402764348
  9
$TDINDWG
 40
0.0016535764
  9
$TDUSRTIMER
 40
0.0016535764
  9
$USRTIMER
 70
     1
  9
$ANGBASE
 50
0.0
  9
$ANGDIR
 70
     0
  9
$PDMODE
 70
     0
  9
$PDSIZE
 40
0.0
  9
$PLINEWID
 40
0.0
  9
$COORDS
 70
     1
  9
$SPLFRAME
 70
     0
  9
$SPLINETYPE
 70
     6
  9
$SPLINESEGS
 70
     8
  9
$ATTDIA
 70
     0
  9
$ATTREQ
 70
     1
  9
$HANDLING
 70
     1
  9
$HANDSEED
  5
2B1
  9
$SURFTAB1
 70
     6
  9
$SURFTAB2
 70
     6
  9
$SURFTYPE
 70
     6
  9
$SURFU
 70
     6
  9
$SURFV
 70
     6
  9
$UCSNAME
  2

  9
$UCSORG
 10
0.0
 20
0.0
 30
0.0
  9
$UCSXDIR
 10
1.0
 20
0.0
 30
0.0
  9
$UCSYDIR
 10
0.0
 20
1.0
 30
0.0
  9
$PUCSNAME
  2

  9
$PUCSORG
 10
0.0
 20
0.0
 30
0.0
  9
$PUCSXDIR
 10
1.0
 20
0.0
 30
0.0
  9
$PUCSYDIR
 10
0.0
 20
1.0
 30
0.0
  9
$USERI1
 70
     0
  9
$USERI2
 70
     1
  9
$USERI3
 70
     1
  9
$USERI4
 70
     0
  9
$USERI5
 70
     0
  9
$USERR1
 40
0.0
  9
$USERR2
 40
0.0
  9
$USERR3
 40
0.0
  9
$USERR4
 40
0.0
  9
$USERR5
 40
0.0
  9
$WORLDVIEW
 70
     1
  9
$SHADEDGE
 70
     3
  9
$SHADEDIF
 70
    70
  9
$TILEMODE
 70
     1
  9
$MAXACTVP
 70
    16
  9
$PLIMCHECK
 70
     0
  9
$PEXTMIN
 10
1.0000000000000000E+020
 20
1.0000000000000000E+020
 30
1.0000000000000000E+020
  9
$PEXTMAX
 10
-1.0000000000000000E+020
 20
-1.0000000000000000E+020
 30
-1.0000000000000000E+020
  9
$PLIMMIN
 10
0.0
 20
0.0
  9
$PLIMMAX
 10
12.0
 20
9.0
  9
$UNITMODE
 70
     0
  9
$VISRETAIN
 70
     0
  9
$PLINEGEN
 70
     0
  9
$PSLTSCALE
 70
     0
  0
ENDSEC
  0
SECTION
  2
TABLES
  0
TABLE
  2
VPORT
 70
     1
  0
VPORT
  2
*ACTIVE
 70
     0
 10
0.0
 20
0.0
 11
1.0
 21
1.0
 12
187.49427839065231
 22
174.91677254346851
 13
0.0
 23
0.0
 14
10.0
 24
10.0
 15
10.0
 25
10.0
 16
0.0
 26
0.0
 36
1.0
 17
0.0
 27
0.0
 37
0.0
 40
358.92027899574339
 41
1.7807262569832401
 42
50.0
 43
0.0
 44
0.0
 50
0.0
 51
0.0
 71
     0
 72
   500
 73
     1
 74
     0
 75
     0
 76
     0
 77
     0
 78
     2
  0
ENDTAB
  0
TABLE
  2
LTYPE
 70
     3
  0
LTYPE
  2
CONTINUOUS
 70
     0
  3
Solid Line
 72
    65
 73
     0
 40
0.0
  0
LTYPE
  2
CENTER
 70
     0
  3
____ _ ____ _ ____ _ ____ _ ____ _ ____ _ ____
 72
    65
 73
     4
 40
2.0
 49
1.25
 49
-0.25
 49
0.25
 49
-0.25
  0
LTYPE
  2
PHANTOM2
 70
     0
  3
___ _ _ ___ _ _ ___ _ _ ___ _ _
 72
    65
 73
     6
 40
1.25
 49
0.625
 49
-0.125
 49
0.125
 49
-0.125
 49
0.125
 49
-0.125
  0
ENDTAB
  0
TABLE
  2
LAYER
 70
     3
  0
LAYER
  2
0
 70
     0
 62
     7
  6
CONTINUOUS
  0
LAYER
  2
1
 70
     0
 62
     1
  6
CENTER
  0
LAYER
  2
3
 70
     0
 62
     3
  6
CONTINUOUS
  0
ENDTAB
  0
TABLE
  2
STYLE
 70
     3
  0
STYLE
  2
STANDARD
 70
     0
 40
0.0
 41
1.0
 50
0.0
 71
     0
 42
0.2
  3
TXT
  4
BIGFONT
  0
STYLE
  2
SIM080
 70
     0
 40
0.0
 41
0.8
 50
0.0
 71
     0
 42
1.5
  3
SIMPLEX
  4

  0
STYLE
  2
STANDARD1
 70
     0
 40
0.0
 41
1.0
 50
0.0
 71
     0
 42
3.0
  3
txt
  4

  0
ENDTAB
  0
TABLE
  2
VIEW
 70
     1
  0
VIEW
  2
ALL
 70
     0
 40
270.0
 10
220.99159663865549
 20
135.0
 41
0.0
 11
0.0
 21
0.0
 31
1.0
 12
0.0
 22
0.0
 32
0.0
 42
0.0
 43
0.0
 44
0.0
 50
0.0
 71
     0
  0
ENDTAB
  0
TABLE
  2
UCS
 70
     0
  0
ENDTAB
  0
TABLE
  2
APPID
 70
     3
  0
APPID
  2
ACAD
 70
     0
  0
APPID
  2
ACAD_MLEADERVER
 70
     0
  0
APPID
  2
ACAD_NAV_VCDISPLAY
 70
     0
  0
ENDTAB
  0
TABLE
  2
DIMSTYLE
 70
     1
  0
DIMSTYLE
  2
STANDARD
 70
     0
  3

  4

  5

  6

  7

 40
1.0
 41
0.18
 42
0.0625
 43
0.38
 44
0.18
 45
0.0
 46
0.0
 47
0.0
 48
0.0
140
0.18
141
0.09
142
0.0
143
25.399999999999999
144
1.0
145
0.0
146
1.0
147
0.09
 71
     0
 72
     0
 73
     1
 74
     1
 75
     0
 76
     0
 77
     0
 78
     0
170
     0
171
     2
172
     0
173
     0
174
     0
175
     0
176
     0
177
     0
178
     0
  0
ENDTAB
  0
ENDSEC
  0
SECTION
  2
BLOCKS
  0
BLOCK
  8
0
  2
$MODEL_SPACE
 70
     0
 10
0.0
 20
0.0
 30
0.0
  3
$MODEL_SPACE
  1

  0
ENDBLK
  5
127
  8
0
  0
BLOCK
 67
     1
  8
0
  2
$PAPER_SPACE
 70
     0
 10
0.0
 20
0.0
 30
0.0
  3
$PAPER_SPACE
  1

  0
ENDBLK
  5
125
 67
     1
  8
0
  0
ENDSEC
  0
SECTION
  2
ENTITIES
  0
ARC
  5
3E
  8
0
 10
277.49638100982929
 20
124.5000000000001
 30
0.0
 40
8.0
 50
46.897714534601597
 51
133.1022854653983
  0
LINE
  5
3F
  8
0
 10
284.029273767012
 20
129.3430158007483
 30
0.0
 11
282.96280419786473
 21
130.34108016802631
 31
0.0
  0
LINE
  5
40
  8
0
 10
285.6130003921844
 20
130.49366054666831
 30
0.0
 11
284.99334199285221
 21
131.8163522308073
 31
0.0
  0
LINE
  5
41
  8
0
 10
289.04562041905501
 20
144.7817433084999
 30
0.0
 11
287.59618089770453
 21
144.60114735865531
 31
0.0
  0
LINE
  5
42
  8
0
 10
289.65055016098057
 20
142.91996100062201
 30
0.0
 11
288.37177731994871
 21
142.21410701842291
 31
0.0
  0
ARC
  5
43
  8
0
 10
292.2377570124043
 20
135.2102365871884
 30
0.0
 40
8.0
 50
118.8977145346016
 51
205.10228546539841
  0
LINE
  5
44
  8
0
 10
276.5175841265854
 20
152.4616193434621
 30
0.0
 11
276.24143963708559
 21
151.0273132240886
 31
0.0
  0
LINE
  5
45
  8
0
 10
278.47517789307358
 20
152.46161934346031
 30
0.0
 11
278.75132238257288
 21
151.02731322408891
 31
0.0
  0
ARC
  5
46
  8
0
 10
286.60705242036261
 20
152.53976341281179
 30
0.0
 40
8.0
 50
190.89771453460159
 51
277.10228546539838
  0
LINE
  5
47
  8
0
 10
265.34221185867648
 20
142.919961000623
 30
0.0
 11
266.62098469971022
 21
142.21410701842271
 31
0.0
  0
LINE
  5
48
  8
0
 10
265.94714160060551
 20
144.7817433084997
 30
0.0
 11
267.396581121954
 21
144.60114735865531
 31
0.0
  0
ARC
  5
49
  8
0
 10
268.38570959929598
 20
152.53976341281171
 30
0.0
 40
8.0
 50
262.89771453460162
 51
349.10228546539838
  0
LINE
  5
4A
  8
0
 10
270.96348825264522
 20
129.34301580074711
 30
0.0
 11
272.02995782179408
 21
130.34108016802651
 31
0.0
  0
LINE
  5
4B
  8
0
 10
269.37976162747492
 20
130.49366054666999
 30
0.0
 11
269.99942002680632
 21
131.81635223080701
 31
0.0
  0
ARC
  5
4C
  8
0
 10
262.75500500725451
 20
135.2102365871884
 30
0.0
 40
8.0
 50
334.89771453460162
 51
61.10228546539836
  0
CIRCLE
  5
4D
  8
0
 10
277.49638100982929
 20
140.00000000000011
 30
0.0
 40
12.5
  0
CIRCLE
  5
4E
  8
0
 10
277.49638100982929
 20
140.00000000000011
 30
0.0
 40
14.0
  0
CIRCLE
  5
4F
  8
3
 10
277.49638100982929
 20
140.00000000000011
 30
0.0
 40
15.14549999999991
  0
CIRCLE
  5
50
  8
0
 10
277.49638100982929
 20
140.00000000000011
 30
0.0
 40
16.624500000000008
  0
LINE
  5
51
  8
1
 10
277.49638100982929
 20
165.00000000000011
 30
0.0
 11
277.49638100982929
 21
115.0000000000001
 31
0.0
  0
LINE
  5
52
  8
1
 10
302.49638100982929
 20
140.00000000000011
 30
0.0
 11
252.49638100982929
 21
140.00000000000011
 31
0.0
  0
CIRCLE
  5
53
  8
0
 10
277.49638100982929
 20
140.00000000000011
 30
0.0
 40
20.0
  0
LINE
  5
54
  8
0
 10
188.82019384492401
 20
160.0
 30
0.0
 11
188.82019384492401
 21
120.0
 31
0.0
  0
LINE
  5
55
  8
0
 10
188.82019384492389
 20
43.977368105515417
 30
0.0
 11
188.82019384492389
 21
83.977368105515353
 31
0.0
  0
ARC
  5
56
  8
0
 10
218.8596344936407
 20
55.477368112434469
 30
0.0
 40
39.346227975702348
 50
167.5239866021424
 51
192.476013397858
  0
LINE
  5
57
  8
0
 10
180.44250737521131
 20
63.977368105516057
 30
0.0
 11
184.82019384492389
 21
63.977368105516028
 31
0.0
  0
ARC
  5
58
  8
0
 10
218.8596344936407
 20
72.477368098596173
 30
0.0
 40
39.346227975702348
 50
167.523986602142
 51
192.4760133978576
  0
LINE
  5
59
  8
0
 10
180.44250737521151
 20
159.62990914446419
 30
0.0
 11
184.82019384492409
 21
159.62990914446411
 31
0.0
  0
ARC
  5
5A
  8
0
 10
192.93851615003859
 20
154.72243185635031
 30
0.0
 40
13.425109632100041
 50
159.96306133522489
 51
201.44110654724651
  0
ARC
  5
5B
  8
0
 10
192.93851615003859
 20
125.2775681436499
 30
0.0
 40
13.425109632100041
 50
158.55889345275349
 51
200.03693866477499
  0
ARC
  5
5C
  8
0
 10
231.82019367605409
 20
140.00000000000179
 30
0.0
 40
52.306787158115448
 50
169.18478918902829
 51
190.81521081097259
  0
LINE
  5
5D
  8
0
 10
180.44250737521139
 20
149.81495456824049
 30
0.0
 11
184.82019384492409
 21
149.81495456824049
 31
0.0
  0
LINE
  5
5E
  8
0
 10
180.44250737521139
 20
130.18504543176209
 30
0.0
 11
184.82019384492401
 21
130.18504543176209
 31
0.0
  0
LINE
  5
5F
  8
0
 10
180.44250737521139
 20
120.37009085553611
 30
0.0
 11
184.82019384492401
 21
120.37009085553611
 31
0.0
  0
ARC
  5
60
  8
0
 10
231.8201938449242
 20
140.00000000000011
 30
0.0
 40
55.0
 50
159.08960772021101
 51
200.91039227978911
  0
LINE
  5
61
  8
1
 10
171.82019384492429
 20
140.00000000000011
 30
0.0
 11
202.82019384492409
 21
140.00000000000011
 31
0.0
  0
LINE
  5
62
  8
0
 10
197.82019384492401
 20
124.8545000000001
 30
0.0
 11
197.82019384492401
 21
155.14550000000011
 31
0.0
  0
LINE
  5
63
  8
0
 10
188.82019384492389
 20
156.6245000000001
 30
0.0
 11
197.32019384492409
 21
156.6245000000001
 31
0.0
  0
LINE
  5
64
  8
3
 10
188.82019384492401
 20
155.14550000000011
 30
0.0
 11
197.32019384492409
 21
155.14550000000011
 31
0.0
  0
LINE
  5
65
  8
3
 10
188.82019384492401
 20
124.8545000000002
 30
0.0
 11
197.32019384492409
 21
124.8545000000001
 31
0.0
  0
LINE
  5
66
  8
0
 10
188.82019384492401
 20
123.3755000000001
 30
0.0
 11
197.32019384492409
 21
123.3755000000001
 31
0.0
  0
LINE
  5
67
  8
0
 10
186.82019384492401
 20
120.0000000000001
 30
0.0
 11
186.82019384492401
 21
160.0
 31
0.0
  0
LINE
  5
68
  8
0
 10
184.82019384492401
 20
120.0000000000001
 30
0.0
 11
184.82019384492409
 21
160.0
 31
0.0
  0
LINE
  5
69
  8
0
 10
184.82019384492401
 20
120.0000000000001
 30
0.0
 11
188.82019384492401
 21
120.0000000000001
 31
0.0
  0
LINE
  5
6A
  8
0
 10
184.82019384492409
 20
160.0
 30
0.0
 11
188.82019384492401
 21
160.0
 31
0.0
  0
LINE
  5
6B
  8
0
 10
197.32019384492409
 20
123.3755000000001
 30
0.0
 11
197.32019384492409
 21
156.6245000000001
 31
0.0
  0
LINE
  5
6C
  8
0
 10
197.32019384492409
 20
124.8545000000001
 30
0.0
 11
197.82019384492401
 21
124.8545000000001
 31
0.0
  0
LINE
  5
6D
  8
0
 10
197.32019384492409
 20
155.14550000000011
 30
0.0
 11
197.82019384492401
 21
155.14550000000011
 31
0.0
  0
ARC
  5
6E
  8
0
 10
231.82019384492409
 20
63.977368105515382
 30
0.0
 40
55.0
 50
161.99554701507489
 51
198.004452984925
  0
POLYLINE
  5
6F
  8
3
 66
     1
 10
0.0
 20
0.0
 30
0.0
 70
     1
 40
1.25
 41
1.25
  0
VERTEX
  5
70
  8
3
 10
99.375
 20
140.0
 30
0.0
 42
1.0
  0
VERTEX
  5
71
  8
3
 10
100.625
 20
140.0
 30
0.0
 42
1.0
  0
SEQEND
  5
72
  8
3
  0
TEXT
  5
73
  8
3
 10
98.041444409067751
 20
136.1447387132566
 30
0.0
 40
1.5
  1
A
 50
147.0
 41
0.8
  7
SIM080
 72
     1
 11
97.658052149435534
 21
136.39371655783481
 31
0.0
  0
TEXT
  5
74
  8
3
 10
99.162261911720606
 20
135.76346900218539
 30
0.0
 40
1.5
  1
S
 50
163.50000000000011
 41
0.8
  7
SIM080
 72
     1
 11
98.778734017773345
 21
135.87707514006701
 31
0.0
  0
TEXT
  5
75
  8
3
 10
100.37142857142869
 20
135.7000000000003
 30
0.0
 40
1.5
  1
E
 50
180.0
 41
0.8
  7
SIM080
 72
     1
 11
100.0000000000001
 21
135.7000000000003
 31
0.0
  0
TEXT
  5
76
  8
3
 10
101.5500041770388
 20
135.97445182967979
 30
0.0
 40
1.5
  1
L
 50
196.5
 41
0.8
  7
SIM080
 72
     1
 11
101.2212659822269
 21
135.87707514006701
 31
0.0
  0
TEXT
  5
77
  8
3
 10
102.6534540615157
 20
136.5960110565548
 30
0.0
 40
1.5
  1
E
 50
213.0
 41
0.8
  7
SIM080
 72
     1
 11
102.34194785056449
 21
136.39371655783489
 31
0.0
  0
TEXT
  5
78
  8
3
 10
101.95855559093221
 20
143.85526128674351
 30
0.0
 40
1.5
  1
A
 50
327.0
 41
0.8
  7
SIM080
 72
     1
 11
102.3419478505644
 21
143.60628344216519
 31
0.0
  0
TEXT
  5
79
  8
3
 10
100.83773808827949
 20
144.23653099781461
 30
0.0
 40
1.5
  1
S
 50
343.5
 41
0.8
  7
SIM080
 72
     1
 11
101.2212659822268
 21
144.12292485993299
 31
0.0
  0
TEXT
  5
7A
  8
3
 10
99.628571428571433
 20
144.2999999999997
 30
0.0
 40
1.5
  1
E
 50
0.0000000000000191
 41
0.8
  7
SIM080
 72
     1
 11
100.0
 21
144.2999999999997
 31
0.0
  0
TEXT
  5
7B
  8
3
 10
98.44999582296127
 20
144.02554817032021
 30
0.0
 40
1.5
  1
L
 50
16.500000000000021
 41
0.8
  7
SIM080
 72
     1
 11
98.778734017773203
 21
144.12292485993299
 31
0.0
  0
TEXT
  5
7C
  8
3
 10
97.346545938484397
 20
143.4039889434452
 30
0.0
 40
1.5
  1
E
 50
33.000000000000021
 41
0.8
  7
SIM080
 72
     1
 11
97.658052149435534
 21
143.60628344216511
 31
0.0
  0
LINE
  5
7D
  8
3
 10
95.689760012230295
 20
143.88095751688209
 30
0.0
 11
96.804477250437913
 21
142.8772616073515
 31
0.0
  0
LINE
  5
7E
  8
3
 10
94.878903961417677
 20
142.72293506415841
 30
0.0
 11
96.203325350703963
 21
142.01872771998069
 31
0.0
  0
LINE
  5
7F
  8
3
 10
94.372284787598005
 20
141.40314699447839
 30
0.0
 11
95.827728377009066
 21
141.04026415107961
 31
0.0
  0
LINE
  5
80
  8
3
 10
94.199999999998795
 20
139.99999999999989
 30
0.0
 11
95.699999999997644
 21
139.99999999999989
 31
0.0
  0
LINE
  5
81
  8
3
 10
94.372284787597906
 20
138.59685300552161
 30
0.0
 11
95.827728377013614
 21
138.9597358489215
 31
0.0
  0
LINE
  5
82
  8
3
 10
94.878903961415972
 20
137.27706493584071
 30
0.0
 11
96.203325350703963
 21
137.98127228001931
 31
0.0
  0
LINE
  5
83
  8
3
 10
95.689760012232
 20
136.1190424831195
 30
0.0
 11
96.804477250448826
 21
137.12273839265839
 31
0.0
  0
LINE
  5
84
  8
3
 10
104.31023998777211
 20
136.11904248311581
 30
0.0
 11
103.1955227495568
 21
137.12273839265339
 31
0.0
  0
LINE
  5
85
  8
3
 10
105.12109603858239
 20
137.27706493584151
 30
0.0
 11
103.79667464929381
 21
137.98127228002051
 31
0.0
  0
LINE
  5
86
  8
3
 10
105.62771521240209
 20
138.59685300552161
 30
0.0
 11
104.17227162298801
 21
138.9597358489211
 31
0.0
  0
LINE
  5
87
  8
3
 10
105.80000000000121
 20
139.99999999999989
 30
0.0
 11
104.3000000000023
 21
139.99999999999989
 31
0.0
  0
LINE
  5
88
  8
3
 10
105.62771521240219
 20
141.40314699447839
 30
0.0
 11
104.17227162298801
 21
141.04026415107879
 31
0.0
  0
LINE
  5
89
  8
3
 10
105.121096038584
 20
142.72293506415929
 30
0.0
 11
103.79667464929361
 21
142.01872771997941
 31
0.0
  0
LINE
  5
8A
  8
3
 10
104.3102399877678
 20
143.88095751688039
 30
0.0
 11
103.1955227495539
 21
142.877261607344
 31
0.0
  0
LINE
  5
8B
  8
0
 10
197.32019384492381
 20
79.122868105515323
 30
0.0
 11
197.82019384492381
 21
79.122868105515323
 31
0.0
  0
LINE
  5
8C
  8
0
 10
197.32019384492389
 20
48.83186810551539
 30
0.0
 11
197.82019384492381
 21
48.83186810551539
 31
0.0
  0
LINE
  5
8D
  8
0
 10
197.32019384492389
 20
47.352868105515341
 30
0.0
 11
197.32019384492389
 21
80.601868105515365
 31
0.0
  0
LINE
  5
8E
  8
0
 10
184.82019384492389
 20
83.977368105515239
 30
0.0
 11
188.82019384492389
 21
83.977368105515239
 31
0.0
  0
LINE
  5
8F
  8
0
 10
184.82019384492381
 20
43.977368105515367
 30
0.0
 11
188.82019384492389
 21
43.977368105515367
 31
0.0
  0
LINE
  5
90
  8
0
 10
179.51340651793851
 20
80.977368091677405
 30
0.0
 11
184.82019384492389
 21
80.977368091677405
 31
0.0
  0
LINE
  5
91
  8
0
 10
184.82019384492381
 20
46.977368119353201
 30
0.0
 11
179.51340651793851
 21
46.97736811935323
 31
0.0
  0
LINE
  5
92
  8
0
 10
184.82019384492381
 20
43.977368105515367
 30
0.0
 11
184.82019384492389
 21
83.977368105515239
 31
0.0
  0
LINE
  5
93
  8
0
 10
186.82019384492381
 20
43.977368105515367
 30
0.0
 11
186.82019384492389
 21
83.977368105515239
 31
0.0
  0
LINE
  5
94
  8
0
 10
188.82019384492389
 20
47.352868105515341
 30
0.0
 11
197.32019384492389
 21
47.352868105515341
 31
0.0
  0
LINE
  5
95
  8
3
 10
188.82019384492389
 20
48.83186810551544
 30
0.0
 11
197.32019384492389
 21
48.83186810551539
 31
0.0
  0
LINE
  5
96
  8
3
 10
188.82019384492389
 20
79.12286810551538
 30
0.0
 11
197.32019384492381
 21
79.122868105515323
 31
0.0
  0
LINE
  5
97
  8
0
 10
188.82019384492389
 20
80.601868105515365
 30
0.0
 11
197.32019384492389
 21
80.601868105515365
 31
0.0
  0
LINE
  5
98
  8
0
 10
197.82019384492381
 20
48.83186810551539
 30
0.0
 11
197.82019384492381
 21
79.122868105515323
 31
0.0
  0
ARC
  5
99
  8
0
 10
85.258623997425161
 20
135.21023658718829
 30
0.0
 40
8.0
 50
334.89771453460162
 51
61.10228546539836
  0
LINE
  5
9A
  8
0
 10
91.883380617645571
 20
130.4936605466699
 30
0.0
 11
92.503039016977027
 21
131.8163522308069
 31
0.0
  0
LINE
  5
9B
  8
0
 10
93.467107242815914
 20
129.343015800747
 30
0.0
 11
94.533576811964835
 21
130.34108016802639
 31
0.0
  0
ARC
  5
9C
  8
0
 10
90.889328589466686
 20
152.5397634128116
 30
0.0
 40
8.0
 50
262.89771453460162
 51
349.10228546539838
  0
LINE
  5
9D
  8
0
 10
88.450760590776213
 20
144.78174330849961
 30
0.0
 11
89.900200112124693
 21
144.6011473586552
 31
0.0
  0
LINE
  5
9E
  8
0
 10
87.845830848847186
 20
142.91996100062289
 30
0.0
 11
89.124603689880914
 21
142.21410701842271
 31
0.0
  0
ARC
  5
9F
  8
0
 10
109.1106714105333
 20
152.53976341281171
 30
0.0
 40
8.0
 50
190.89771453460159
 51
277.10228546539838
  0
LINE
  5
A0
  8
0
 10
100.9787968832443
 20
152.4616193434602
 30
0.0
 11
101.2549413727436
 21
151.0273132240888
 31
0.0
  0
LINE
  5
A1
  8
0
 10
99.021203116756155
 20
152.46161934346199
 30
0.0
 11
98.745058627256299
 21
151.02731322408849
 31
0.0
  0
ARC
  5
A2
  8
0
 10
114.7413760025749
 20
135.21023658718829
 30
0.0
 40
8.0
 50
118.8977145346016
 51
205.10228546539841
  0
LINE
  5
A3
  8
0
 10
112.15416915115129
 20
142.9199610006219
 30
0.0
 11
110.8753963101194
 21
142.21410701842279
 31
0.0
  0
LINE
  5
A4
  8
0
 10
111.54923940922571
 20
144.78174330849981
 30
0.0
 11
110.09979988787509
 21
144.6011473586552
 31
0.0
  0
LINE
  5
A5
  8
0
 10
108.1166193823551
 20
130.4936605466682
 30
0.0
 11
107.4969609830228
 21
131.81635223080721
 31
0.0
  0
LINE
  5
A6
  8
0
 10
106.53289275718269
 20
129.34301580074819
 30
0.0
 11
105.46642318803541
 21
130.3410801680262
 31
0.0
  0
ARC
  5
A7
  8
0
 10
100.0
 20
124.5
 30
0.0
 40
8.0
 50
46.897714534601597
 51
133.1022854653983
  0
CIRCLE
  5
A8
  8
0
 10
100.0
 20
140.0
 30
0.0
 40
12.5
  0
LINE
  5
A9
  8
0
 10
99.999999999999886
 20
159.62990913646331
 30
0.0
 11
116.9999999999999
 21
149.81495456024311
 31
0.0
  0
LINE
  5
AA
  8
0
 10
83.000000013837834
 20
149.81495456823859
 30
0.0
 11
100.00000001383781
 21
159.62990914446459
 31
0.0
  0
LINE
  5
AB
  8
0
 10
83.000000013837834
 20
130.1850454317717
 30
0.0
 11
83.000000013837834
 21
149.8149545842179
 31
0.0
  0
LINE
  5
AC
  8
0
 10
99.999999999999886
 20
120.3700908635374
 30
0.0
 11
82.999999999999886
 21
130.18504543975749
 31
0.0
  0
LINE
  5
AD
  8
0
 10
116.99999998614641
 20
130.18504543176209
 30
0.0
 11
99.999999986161924
 21
120.37009085553611
 31
0.0
  0
LINE
  5
AE
  8
0
 10
116.9999999861619
 20
149.81495456824049
 30
0.0
 11
116.9999999861619
 21
130.18504541579429
 31
0.0
  0
LINE
  5
AF
  8
1
 10
100.0
 20
165.0
 30
0.0
 11
100.0
 21
115.0
 31
0.0
  0
LINE
  5
B0
  8
1
 10
125.0
 20
140.0
 30
0.0
 11
74.999999999999972
 21
140.0
 31
0.0
  0
CIRCLE
  5
B1
  8
0
 10
100.0
 20
140.0
 30
0.0
 40
20.0
  0
LINE
  5
B2
  8
1
 10
171.82019384492409
 20
63.977368105515382
 30
0.0
 11
202.82019384492381
 21
63.977368105515353
 31
0.0
  0
LINE
  5
B3
  8
1
 10
171.82019384492409
 20
223.97736810551541
 30
0.0
 11
202.82019384492381
 21
223.97736810551541
 31
0.0
  0
LINE
  5
B4
  8
0
 10
197.82019384492381
 20
208.83186810551541
 30
0.0
 11
197.82019384492381
 21
239.12286810551529
 31
0.0
  0
LINE
  5
B5
  8
0
 10
188.82019384492389
 20
240.60186810551539
 30
0.0
 11
197.32019384492389
 21
240.60186810551539
 31
0.0
  0
LINE
  5
B6
  8
3
 10
188.82019384492389
 20
239.12286810551541
 30
0.0
 11
197.32019384492381
 21
239.12286810551529
 31
0.0
  0
LINE
  5
B7
  8
3
 10
188.82019384492389
 20
208.8318681055155
 30
0.0
 11
197.32019384492389
 21
208.83186810551541
 31
0.0
  0
LINE
  5
B8
  8
0
 10
188.82019384492389
 20
207.3528681055154
 30
0.0
 11
197.32019384492389
 21
207.3528681055154
 31
0.0
  0
LINE
  5
B9
  8
0
 10
186.82019384492381
 20
203.97736810551541
 30
0.0
 11
186.82019384492389
 21
243.97736810551521
 31
0.0
  0
LINE
  5
BA
  8
0
 10
184.82019384492381
 20
203.97736810551541
 30
0.0
 11
184.82019384492389
 21
243.97736810551521
 31
0.0
  0
LINE
  5
BB
  8
0
 10
184.82019384492381
 20
206.9773681193532
 30
0.0
 11
179.51340651793851
 21
206.9773681193532
 31
0.0
  0
LINE
  5
BC
  8
0
 10
179.51340651793851
 20
240.97736809167739
 30
0.0
 11
184.82019384492389
 21
240.97736809167739
 31
0.0
  0
LINE
  5
BD
  8
0
 10
184.82019384492381
 20
203.97736810551541
 30
0.0
 11
188.82019384492389
 21
203.97736810551541
 31
0.0
  0
LINE
  5
BE
  8
0
 10
184.82019384492389
 20
243.97736810551521
 30
0.0
 11
188.82019384492389
 21
243.97736810551521
 31
0.0
  0
LINE
  5
BF
  8
0
 10
197.32019384492389
 20
207.3528681055154
 30
0.0
 11
197.32019384492389
 21
240.60186810551539
 31
0.0
  0
LINE
  5
C0
  8
0
 10
197.32019384492389
 20
208.83186810551541
 30
0.0
 11
197.82019384492381
 21
208.83186810551541
 31
0.0
  0
LINE
  5
C1
  8
0
 10
197.32019384492381
 20
239.12286810551529
 30
0.0
 11
197.82019384492381
 21
239.12286810551529
 31
0.0
  0
ARC
  5
C2
  8
0
 10
231.82019384492409
 20
223.97736810551541
 30
0.0
 40
55.0
 50
161.99554701507489
 51
198.004452984925
  0
ARC
  5
C3
  8
0
 10
218.8596344936407
 20
232.4773680985962
 30
0.0
 40
39.346227975702348
 50
167.523986602142
 51
192.4760133978576
  0
LINE
  5
C4
  8
0
 10
180.44250737521131
 20
223.97736810551609
 30
0.0
 11
184.82019384492389
 21
223.97736810551601
 31
0.0
  0
ARC
  5
C5
  8
0
 10
218.8596344936407
 20
215.4773681124345
 30
0.0
 40
39.346227975702348
 50
167.5239866021424
 51
192.476013397858
  0
LINE
  5
C6
  8
0
 10
188.82019384492389
 20
203.97736810551541
 30
0.0
 11
188.82019384492389
 21
243.97736810551541
 31
0.0
  0
TEXT
  5
24B
  8
0
 62
     3
 10
0.0
 20
0.0
 30
0.0
 40
10.0
  1
FE-24
  7
STANDARD1
  0
ENDSEC
  0
EOF
