  0
SECTION
  2
HEADER
  9
$ACADVER
  1
AC1009
  9
$INSBASE
 10
0.0
 20
0.0
 30
0.0
  9
$EXTMIN
 10
0.0
 20
-2.960436562073669
 30
0.0
  9
$EXTMAX
 10
281.75
 20
215.75
 30
0.0
  9
$LIMMIN
 10
0.0
 20
0.0
  9
$LIMMAX
 10
375.0
 20
270.0
  9
$ORTHOMODE
 70
     1
  9
$REGENMODE
 70
     1
  9
$FILLMODE
 70
     1
  9
$QTEXTMODE
 70
     0
  9
$MIRRTEXT
 70
     0
  9
$DRAGMODE
 70
     2
  9
$LTSCALE
 40
10.0
  9
$OSMODE
 70
    37
  9
$ATTMODE
 70
     1
  9
$TEXTSIZE
 40
0.2
  9
$TRACEWID
 40
0.05
  9
$TEXTSTYLE
  7
STANDARD
  9
$CLAYER
  8
0
  9
$CELTYPE
  6
BYLAYER
  9
$CECOLOR
 62
   256
  9
$DIMSCALE
 40
1.0
  9
$DIMASZ
 40
3.0
  9
$DIMEXO
 40
2.0
  9
$DIMDLI
 40
0.38
  9
$DIMRND
 40
0.0
  9
$DIMDLE
 40
0.0
  9
$DIMEXE
 40
2.0
  9
$DIMTP
 40
0.0
  9
$DIMTM
 40
0.0
  9
$DIMTXT
 40
3.2000000000000002
  9
$DIMCEN
 40
0.0
  9
$DIMTSZ
 40
0.0
  9
$DIMTOL
 70
     0
  9
$DIMLIM
 70
     0
  9
$DIMTIH
 70
     0
  9
$DIMTOH
 70
     0
  9
$DIMSE1
 70
     0
  9
$DIMSE2
 70
     0
  9
$DIMTAD
 70
     1
  9
$DIMZIN
 70
     0
  9
$DIMBLK
  1

  9
$DIMASO
 70
     1
  9
$DIMSHO
 70
     0
  9
$DIMPOST
  1

  9
$DIMAPOST
  1

  9
$DIMALT
 70
     0
  9
$DIMALTD
 70
     2
  9
$DIMALTF
 40
25.3999999999999986
  9
$DIMLFAC
 40
1.0
  9
$DIMTOFL
 70
     1
  9
$DIMTVP
 40
1.6000000000000001
  9
$DIMTIX
 70
     1
  9
$DIMSOXD
 70
     0
  9
$DIMSAH
 70
     0
  9
$DIMBLK1
  1

  9
$DIMBLK2
  1

  9
$DIMSTYLE
  2
STANDARD
  9
$DIMCLRD
 70
     0
  9
$DIMCLRE
 70
     0
  9
$DIMCLRT
 70
     0
  9
$DIMTFAC
 40
1.0
  9
$DIMGAP
 40
0.09
  9
$LUNITS
 70
     2
  9
$LUPREC
 70
     4
  9
$SKETCHINC
 40
0.1
  9
$FILLETRAD
 40
0.0
  9
$AUNITS
 70
     0
  9
$AUPREC
 70
     4
  9
$MENU
  1
E:\r13\win\SUPPORT\ACAD
  9
$ELEVATION
 40
0.0
  9
$PELEVATION
 40
0.0
  9
$THICKNESS
 40
0.0
  9
$LIMCHECK
 70
     0
  9
$BLIPMODE
 70
     0
  9
$CHAMFERA
 40
0.0
  9
$CHAMFERB
 40
0.0
  9
$SKPOLY
 70
     0
  9
$TDCREATE
 40
2449839.7945138891227543
  9
$TDUPDATE
 40
2460095.580729166045785
  9
$TDINDWG
 40
0.0210118171
  9
$TDUSRTIMER
 40
0.0210118171
  9
$USRTIMER
 70
     1
  9
$ANGBASE
 50
0.0
  9
$ANGDIR
 70
     0
  9
$PDMODE
 70
     0
  9
$PDSIZE
 40
0.0
  9
$PLINEWID
 40
0.0
  9
$COORDS
 70
     1
  9
$SPLFRAME
 70
     0
  9
$SPLINETYPE
 70
     6
  9
$SPLINESEGS
 70
     8
  9
$ATTDIA
 70
     1
  9
$ATTREQ
 70
     1
  9
$HANDLING
 70
     1
  9
$HANDSEED
  5
B4F
  9
$SURFTAB1
 70
     6
  9
$SURFTAB2
 70
     6
  9
$SURFTYPE
 70
     6
  9
$SURFU
 70
     6
  9
$SURFV
 70
     6
  9
$UCSNAME
  2

  9
$UCSORG
 10
0.0
 20
0.0
 30
0.0
  9
$UCSXDIR
 10
1.0
 20
0.0
 30
0.0
  9
$UCSYDIR
 10
0.0
 20
1.0
 30
0.0
  9
$PUCSNAME
  2

  9
$PUCSORG
 10
0.0
 20
0.0
 30
0.0
  9
$PUCSXDIR
 10
1.0
 20
0.0
 30
0.0
  9
$PUCSYDIR
 10
0.0
 20
1.0
 30
0.0
  9
$USERI1
 70
     0
  9
$USERI2
 70
     1
  9
$USERI3
 70
     1
  9
$USERI4
 70
     0
  9
$USERI5
 70
     0
  9
$USERR1
 40
0.0
  9
$USERR2
 40
0.0
  9
$USERR3
 40
0.0
  9
$USERR4
 40
0.0
  9
$USERR5
 40
0.0
  9
$WORLDVIEW
 70
     1
  9
$SHADEDGE
 70
     3
  9
$SHADEDIF
 70
    70
  9
$TILEMODE
 70
     1
  9
$MAXACTVP
 70
    16
  9
$PLIMCHECK
 70
     0
  9
$PEXTMIN
 10
1.0000000000000000E+20
 20
1.0000000000000000E+20
 30
1.0000000000000000E+20
  9
$PEXTMAX
 10
-1.0000000000000000E+20
 20
-1.0000000000000000E+20
 30
-1.0000000000000000E+20
  9
$PLIMMIN
 10
0.0
 20
0.0
  9
$PLIMMAX
 10
12.0
 20
9.0
  9
$UNITMODE
 70
     0
  9
$VISRETAIN
 70
     0
  9
$PLINEGEN
 70
     0
  9
$PSLTSCALE
 70
     0
  0
ENDSEC
  0
SECTION
  2
TABLES
  0
TABLE
  2
VPORT
 70
     1
  0
VPORT
  2
*ACTIVE
 70
     0
 10
0.0
 20
0.0
 11
1.0
 21
1.0
 12
267.4451219512195053
 22
115.0
 13
0.0
 23
0.0
 14
10.0
 24
10.0
 15
10.0
 25
10.0
 16
0.0
 26
0.0
 36
1.0
 17
0.0
 27
0.0
 37
0.0
 40
230.0
 41
2.325609756097561
 42
50.0
 43
0.0
 44
0.0
 50
0.0
 51
0.0
 71
     0
 72
   500
 73
     1
 74
     0
 75
     0
 76
     0
 77
     0
 78
     2
  0
ENDTAB
  0
TABLE
  2
LTYPE
 70
     2
  0
LTYPE
  2
CONTINUOUS
 70
     0
  3
Solid Line
 72
    65
 73
     0
 40
0.0
  0
LTYPE
  2
CENTER
 70
     0
  3
____ _ ____ _ ____ _ ____ _ ____ _ ____ _ ____
 72
    65
 73
     4
 40
2.0
 49
1.25
 49
-0.25
 49
0.25
 49
-0.25
  0
ENDTAB
  0
TABLE
  2
LAYER
 70
     4
  0
LAYER
  2
0
 70
     0
 62
     7
  6
CONTINUOUS
  0
LAYER
  2
1
 70
     0
 62
     1
  6
CENTER
  0
LAYER
  2
3
 70
     0
 62
     3
  6
CONTINUOUS
  0
LAYER
  2
DEFPOINTS
 70
     0
 62
     7
  6
CONTINUOUS
  0
ENDTAB
  0
TABLE
  2
STYLE
 70
     3
  0
STYLE
  2
STANDARD
 70
     0
 40
0.0
 41
1.0
 50
0.0
 71
     0
 42
0.2
  3
TXT
  4
BIGFONT
  0
STYLE
  2
SIM080
 70
     0
 40
0.0
 41
0.8
 50
0.0
 71
     0
 42
1.5
  3
SIMPLEX
  4

  0
STYLE
  2
STANDARD1
 70
     0
 40
0.0
 41
1.0
 50
0.0
 71
     0
 42
3.0
  3
txt
  4

  0
ENDTAB
  0
TABLE
  2
VIEW
 70
     1
  0
VIEW
  2
ALL
 70
     0
 40
270.0
 10
220.9915966386554942
 20
135.0
 41
0.0
 11
0.0
 21
0.0
 31
1.0
 12
0.0
 22
0.0
 32
0.0
 42
0.0
 43
0.0
 44
0.0
 50
0.0
 71
     0
  0
ENDTAB
  0
TABLE
  2
UCS
 70
     0
  0
ENDTAB
  0
TABLE
  2
APPID
 70
     6
  0
APPID
  2
ACAD
 70
     0
  0
APPID
  2
ACAD_MLEADERVER
 70
     0
  0
APPID
  2
ACAD_NAV_VCDISPLAY
 70
     0
  0
APPID
  2
ACAD_TC
 70
     0
  0
APPID
  2
ACAD_DSTYLE_DIMRADIAL_EXTENSION
 70
     0
  0
APPID
  2
ACAD_EXEMPT_FROM_CAD_STANDARDS
 70
     0
  0
ENDTAB
  0
TABLE
  2
DIMSTYLE
 70
     1
  0
DIMSTYLE
  2
STANDARD
 70
     0
  3

  4

  5

  6

  7

 40
1.0
 41
0.18
 42
0.0625
 43
0.38
 44
0.18
 45
0.0
 46
0.0
 47
0.0
 48
0.0
140
0.18
141
0.09
142
0.0
143
25.3999999999999986
144
1.0
145
0.0
146
1.0
147
0.09
 71
     0
 72
     0
 73
     1
 74
     1
 75
     0
 76
     0
 77
     0
 78
     0
170
     0
171
     2
172
     0
173
     0
174
     0
175
     0
176
     0
177
     0
178
     0
  0
ENDTAB
  0
ENDSEC
  0
SECTION
  2
BLOCKS
  0
BLOCK
  8
0
  2
$MODEL_SPACE
 70
     0
 10
0.0
 20
0.0
 30
0.0
  3
$MODEL_SPACE
  1

  0
ENDBLK
  5
125
  8
0
  0
BLOCK
 67
     1
  8
0
  2
$PAPER_SPACE
 70
     0
 10
0.0
 20
0.0
 30
0.0
  3
$PAPER_SPACE
  1

  0
ENDBLK
  5
123
 67
     1
  8
0
  0
ENDSEC
  0
SECTION
  2
ENTITIES
  0
TEXT
  5
250
  8
0
 62
     3
 10
0.0
 20
0.0
 30
0.0
 40
10.0
  1
FE-20
  7
STANDARD1
  0
LINE
  5
5B7
  8
3
 10
113.2326799908260995
 20
142.9107181376604956
 30
0.0
 11
112.3037489589791988
 21
142.0743048797116899
 31
0.0
  0
LINE
  5
5B8
  8
3
 10
113.8408220289357047
 20
142.0422012981181865
 30
0.0
 11
112.7371375378616989
 21
141.4553618446356893
 31
0.0
  0
LINE
  5
5B9
  8
3
 10
114.2207864092998051
 20
141.0523602458582957
 30
0.0
 11
113.007916751454502
 21
140.7499578763587067
 31
0.0
  0
LINE
  5
5BA
  8
3
 10
114.3499999999991985
 20
139.9999999999998863
 30
0.0
 11
113.0999999999989001
 21
139.9999999999998863
 31
0.0
  0
LINE
  5
5BB
  8
3
 10
114.2207864092998051
 20
138.9476397541415906
 30
0.0
 11
113.007916751454502
 21
139.250042123641208
 31
0.0
  0
LINE
  5
5BC
  8
3
 10
113.8408220289357047
 20
137.9577987018816998
 30
0.0
 11
112.7371375378616989
 21
138.544638155364197
 31
0.0
  0
LINE
  5
5BD
  8
3
 10
113.2326799908260995
 20
137.0892818623395044
 30
0.0
 11
112.3037489589790994
 21
137.9256951202881964
 31
0.0
  0
LINE
  5
5BE
  8
3
 10
106.7673200091739005
 20
137.0892818623395044
 30
0.0
 11
107.6962510410209006
 21
137.9256951202881964
 31
0.0
  0
LINE
  5
5BF
  8
3
 10
106.1591779710643948
 20
137.9577987018816998
 30
0.0
 11
107.2628624621383011
 21
138.544638155364197
 31
0.0
  0
LINE
  5
5C0
  8
3
 10
105.7792135907000954
 20
138.9476397541415906
 30
0.0
 11
106.9920832485453985
 21
139.250042123641208
 31
0.0
  0
LINE
  5
5C1
  8
3
 10
105.650000000000702
 20
139.9999999999998863
 30
0.0
 11
106.9000000000010999
 21
139.9999999999998863
 31
0.0
  0
LINE
  5
5C2
  8
3
 10
105.7792135907000954
 20
141.0523602458582957
 30
0.0
 11
106.9920832485453985
 21
140.7499578763587067
 31
0.0
  0
LINE
  5
5C3
  8
3
 10
106.1591779710643948
 20
142.0422012981181865
 30
0.0
 11
107.2628624621383011
 21
141.4553618446356893
 31
0.0
  0
LINE
  5
5C4
  8
3
 10
106.7673200091739005
 20
142.9107181376604956
 30
0.0
 11
107.6962510410209006
 21
142.0743048797116899
 31
0.0
  0
TEXT
  5
5C5
  8
3
 10
111.9052407965035059
 20
137.5350735313224959
 30
0.0
 40
1.25
  1
E
 50
212.0
 41
0.8
  7
SIM080
 72
     1
 11
111.6427497191216958
 21
137.3710509019169876
 31
0.0
  0
TEXT
  5
5C6
  8
3
 10
111.1291220018715933
 20
137.0988422728268006
 30
0.0
 40
1.25
  1
L
 50
196.0
 41
0.8
  7
SIM080
 72
     1
 11
110.854475803032102
 21
137.0200887425934013
 31
0.0
  0
TEXT
  5
5C7
  8
3
 10
110.309523809523796
 20
136.9000000000023078
 30
0.0
 40
1.25
  1
E
 50
180.0
 41
0.8
  7
SIM080
 72
     1
 11
110.0
 21
136.9000000000023078
 31
0.0
  0
TEXT
  5
5C8
  8
3
 10
109.4659447622806994
 20
136.9282096239876978
 30
0.0
 40
1.25
  1
S
 50
163.9999999999998863
 41
0.8
  7
SIM080
 72
     1
 11
109.1455241969679975
 21
137.0200887425934013
 31
0.0
  0
TEXT
  5
5C9
  8
3
 10
108.6803162222712018
 20
137.1691768964948039
 30
0.0
 40
1.25
  1
A
 50
148.0
 41
0.8
  7
SIM080
 72
     1
 11
108.3572502808783042
 21
137.3710509019169876
 31
0.0
  0
TEXT
  5
5CA
  8
3
 10
111.3196837777287982
 20
142.8308231035051961
 30
0.0
 40
1.25
  1
A
 50
328.0000000000001137
 41
0.8
  7
SIM080
 72
     1
 11
111.6427497191216958
 21
142.6289490980830124
 31
0.0
  0
TEXT
  5
5CB
  8
3
 10
110.5340552377193006
 20
143.0717903760121885
 30
0.0
 40
1.25
  1
S
 50
344.0
 41
0.8
  7
SIM080
 72
     1
 11
110.8544758030320025
 21
142.9799112574065134
 31
0.0
  0
TEXT
  5
5CC
  8
3
 10
109.690476190476204
 20
143.0999999999976922
 30
0.0
 40
1.25
  1
E
 50
0.0000000000000318
 41
0.8
  7
SIM080
 72
     1
 11
110.0
 21
143.0999999999976922
 31
0.0
  0
TEXT
  5
5CD
  8
3
 10
108.8708779981284067
 20
142.9011577271731142
 30
0.0
 40
1.25
  1
L
 50
16.0000000000000284
 41
0.8
  7
SIM080
 72
     1
 11
109.145524196967898
 21
142.9799112574065987
 31
0.0
  0
TEXT
  5
5CE
  8
3
 10
108.0947592034964941
 20
142.4649264686775041
 30
0.0
 40
1.25
  1
E
 50
32.0000000000000426
 41
0.8
  7
SIM080
 72
     1
 11
108.3572502808783042
 21
142.6289490980830124
 31
0.0
  0
CIRCLE
  5
5CF
  8
3
 10
110.0
 20
140.0
 30
0.0
 40
1.149999999999999
  0
ARC
  5
5D0
  8
0
 10
98.8250859335331597
 20
136.3690503160947003
 30
0.0
 40
6.0
 50
334.0836623284716893
 51
61.9163376715284386
  0
LINE
  5
5D1
  8
0
 10
103.5478468805359
 20
132.3599921385535936
 30
0.0
 11
104.2216850737332976
 21
133.7467006597765931
 31
0.0
  0
LINE
  5
5D2
  8
0
 10
104.7277457030478018
 20
131.5027454652532128
 30
0.0
 11
105.8383564252034006
 21
132.5721201691258102
 31
0.0
  0
ARC
  5
5D3
  8
0
 10
103.0935232855642028
 20
149.5059496839045892
 30
0.0
 40
6.0
 50
262.0836623284723146
 51
349.9163376715268896
  0
LINE
  5
5D4
  8
0
 10
100.7400957746014996
 20
143.7754700020553003
 30
0.0
 11
102.2671614030695935
 21
143.5631282967889035
 31
0.0
  0
LINE
  5
5D5
  8
0
 10
100.2894145276860058
 20
142.3884157479151895
 30
0.0
 11
101.649647895446293
 21
141.6626171403931096
 31
0.0
  0
ARC
  5
5D6
  8
0
 10
116.9064767144358967
 20
149.5059496839045892
 30
0.0
 40
6.0
 50
190.0836623284729967
 51
277.9163376715277991
  0
LINE
  5
5D7
  8
0
 10
110.7292175755990939
 20
149.973376646222107
 30
0.0
 11
110.999157843846703
 21
148.4554337339154131
 31
0.0
  0
LINE
  5
5D8
  8
0
 10
109.270782424401304
 20
149.9733766462238123
 30
0.0
 11
109.000842156153297
 21
148.4554337339152141
 31
0.0
  0
ARC
  5
5D9
  8
0
 10
121.1749140664668971
 20
136.369050316094814
 30
0.0
 40
6.0
 50
118.0836623284715046
 51
205.916337671528197
  0
LINE
  5
5DA
  8
0
 10
119.710585472312502
 20
142.3884157479143937
 30
0.0
 11
118.3503521045538065
 21
141.6626171403931949
 31
0.0
  0
LINE
  5
5DB
  8
0
 10
119.2599042254002057
 20
143.7754700020554992
 30
0.0
 11
117.7328385969301934
 21
143.5631282967889035
 31
0.0
  0
LINE
  5
5DC
  8
0
 10
116.4521531194647963
 20
132.3599921385520872
 30
0.0
 11
115.7783149262667024
 21
133.746700659776792
 31
0.0
  0
LINE
  5
5DD
  8
0
 10
115.2722542969510044
 20
131.5027454652544066
 30
0.0
 11
114.1616435747966989
 21
132.5721201691258102
 31
0.0
  0
ARC
  5
5DE
  8
0
 10
110.0
 20
128.2500000000011937
 30
0.0
 40
6.0
 50
46.0836623284730109
 51
133.9163376715270033
  0
CIRCLE
  5
5DF
  8
0
 10
110.0
 20
140.0
 30
0.0
 40
10.0
  0
LINE
  5
5E0
  8
0
 10
109.999999999992994
 20
155.5884572554267891
 30
0.0
 11
123.499999999992994
 21
147.7942286213695979
 31
0.0
  0
LINE
  5
5E1
  8
0
 10
96.5000000109820348
 20
147.7942286277190078
 30
0.0
 11
110.0000000109820064
 21
155.5884572617808033
 31
0.0
  0
LINE
  5
5E2
  8
0
 10
96.5000000109820348
 20
132.205771372289405
 30
0.0
 11
96.5000000109820348
 21
147.7942286404085053
 31
0.0
  0
LINE
  5
5E3
  8
0
 10
109.999999999992994
 20
124.4115427445738931
 30
0.0
 11
96.4999999999930651
 21
132.2057713786311126
 31
0.0
  0
LINE
  5
5E4
  8
0
 10
123.499999988991803
 20
132.205771372281788
 30
0.0
 11
109.9999999890040954
 21
124.4115427382198931
 31
0.0
  0
LINE
  5
5E5
  8
0
 10
123.4999999890040954
 20
147.7942286277205142
 30
0.0
 11
123.4999999890040954
 21
132.2057713596014992
 31
0.0
  0
LINE
  5
5E6
  8
1
 10
110.0
 20
160.75
 30
0.0
 11
110.0
 21
119.25
 31
0.0
  0
LINE
  5
5E7
  8
1
 10
130.75
 20
140.0
 30
0.0
 11
89.25
 21
140.0
 31
0.0
  0
CIRCLE
  5
5E8
  8
0
 10
110.0
 20
140.0
 30
0.0
 40
15.75
  0
LINE
  5
639
  8
1
 10
200.2499999999998863
 20
140.0
 30
0.0
 11
170.75
 21
140.0
 31
0.0
  0
LINE
  5
63A
  8
0
 10
195.25
 20
127.7001525000000015
 30
0.0
 11
194.25
 21
127.7001525000000015
 31
0.0
  0
LINE
  5
63B
  8
0
 10
194.25
 20
152.2998474999999985
 30
0.0
 11
195.25
 21
152.2998474999999985
 31
0.0
  0
LINE
  5
63C
  8
0
 10
195.25
 20
152.2998474999999985
 30
0.0
 11
195.25
 21
127.7001525000000015
 31
0.0
  0
LINE
  5
63D
  8
0
 10
194.25
 20
126.7800000000000011
 30
0.0
 11
186.6788469781396884
 21
126.7800000000000011
 31
0.0
  0
LINE
  5
63E
  8
0
 10
186.6788469781396884
 20
153.2199999999999989
 30
0.0
 11
194.25
 21
153.2199999999999989
 31
0.0
  0
LINE
  5
63F
  8
0
 10
194.25
 20
153.2199999999999989
 30
0.0
 11
194.25
 21
126.7800000000000011
 31
0.0
  0
ARC
  5
640
  8
0
 10
217.9914999999996894
 20
140.0
 30
0.0
 40
42.2414999999996681
 50
158.3440810141784141
 51
201.6559189858215859
  0
LINE
  5
641
  8
0
 10
182.4351851851851052
 20
124.4115427318801039
 30
0.0
 11
178.7315417441637919
 21
124.4115427318801039
 31
0.0
  0
POLYLINE
  5
642
  8
0
 10
178.7315417441638203
 20
124.4115427318800329
 30
0.0
 66
     1
 70
     8
  0
VERTEX
  8
0
  5
843
 10
178.732
 20
124.412
 30
0.00000
  70
    32
  0
VERTEX
  8
0
  5
844
 10
178.708
 20
124.472
 30
0.00000
  70
    32
  0
VERTEX
  8
0
  5
845
 10
178.685
 20
124.532
 30
0.00000
  70
    32
  0
VERTEX
  8
0
  5
846
 10
178.662
 20
124.592
 30
0.00000
  70
    32
  0
VERTEX
  8
0
  5
847
 10
178.639
 20
124.652
 30
0.00000
  70
    32
  0
VERTEX
  8
0
  5
848
 10
178.617
 20
124.713
 30
0.00000
  70
    32
  0
VERTEX
  8
0
  5
849
 10
178.595
 20
124.773
 30
0.00000
  70
    32
  0
VERTEX
  8
0
  5
84A
 10
178.574
 20
124.833
 30
0.00000
  70
    32
  0
VERTEX
  8
0
  5
84B
 10
178.552
 20
124.894
 30
0.00000
  70
    32
  0
VERTEX
  8
0
  5
84C
 10
178.532
 20
124.954
 30
0.00000
  70
    32
  0
VERTEX
  8
0
  5
84D
 10
178.511
 20
125.014
 30
0.00000
  70
    32
  0
VERTEX
  8
0
  5
84E
 10
178.491
 20
125.075
 30
0.00000
  70
    32
  0
VERTEX
  8
0
  5
84F
 10
178.472
 20
125.135
 30
0.00000
  70
    32
  0
VERTEX
  8
0
  5
850
 10
178.452
 20
125.196
 30
0.00000
  70
    32
  0
VERTEX
  8
0
  5
851
 10
178.434
 20
125.256
 30
0.00000
  70
    32
  0
VERTEX
  8
0
  5
852
 10
178.415
 20
125.317
 30
0.00000
  70
    32
  0
VERTEX
  8
0
  5
853
 10
178.397
 20
125.378
 30
0.00000
  70
    32
  0
VERTEX
  8
0
  5
854
 10
178.379
 20
125.438
 30
0.00000
  70
    32
  0
VERTEX
  8
0
  5
855
 10
178.362
 20
125.499
 30
0.00000
  70
    32
  0
VERTEX
  8
0
  5
856
 10
178.345
 20
125.560
 30
0.00000
  70
    32
  0
VERTEX
  8
0
  5
857
 10
178.328
 20
125.620
 30
0.00000
  70
    32
  0
VERTEX
  8
0
  5
858
 10
178.312
 20
125.681
 30
0.00000
  70
    32
  0
VERTEX
  8
0
  5
859
 10
178.296
 20
125.742
 30
0.00000
  70
    32
  0
VERTEX
  8
0
  5
85A
 10
178.280
 20
125.803
 30
0.00000
  70
    32
  0
VERTEX
  8
0
  5
85B
 10
178.265
 20
125.863
 30
0.00000
  70
    32
  0
VERTEX
  8
0
  5
85C
 10
178.250
 20
125.924
 30
0.00000
  70
    32
  0
VERTEX
  8
0
  5
85D
 10
178.236
 20
125.985
 30
0.00000
  70
    32
  0
VERTEX
  8
0
  5
85E
 10
178.222
 20
126.046
 30
0.00000
  70
    32
  0
VERTEX
  8
0
  5
85F
 10
178.208
 20
126.107
 30
0.00000
  70
    32
  0
VERTEX
  8
0
  5
860
 10
178.195
 20
126.168
 30
0.00000
  70
    32
  0
VERTEX
  8
0
  5
861
 10
178.182
 20
126.229
 30
0.00000
  70
    32
  0
VERTEX
  8
0
  5
862
 10
178.170
 20
126.290
 30
0.00000
  70
    32
  0
VERTEX
  8
0
  5
863
 10
178.157
 20
126.351
 30
0.00000
  70
    32
  0
VERTEX
  8
0
  5
864
 10
178.146
 20
126.412
 30
0.00000
  70
    32
  0
VERTEX
  8
0
  5
865
 10
178.134
 20
126.473
 30
0.00000
  70
    32
  0
VERTEX
  8
0
  5
866
 10
178.123
 20
126.534
 30
0.00000
  70
    32
  0
VERTEX
  8
0
  5
867
 10
178.112
 20
126.595
 30
0.00000
  70
    32
  0
VERTEX
  8
0
  5
868
 10
178.102
 20
126.656
 30
0.00000
  70
    32
  0
VERTEX
  8
0
  5
869
 10
178.092
 20
126.717
 30
0.00000
  70
    32
  0
VERTEX
  8
0
  5
86A
 10
178.083
 20
126.778
 30
0.00000
  70
    32
  0
VERTEX
  8
0
  5
86B
 10
178.073
 20
126.839
 30
0.00000
  70
    32
  0
VERTEX
  8
0
  5
86C
 10
178.065
 20
126.900
 30
0.00000
  70
    32
  0
VERTEX
  8
0
  5
86D
 10
178.056
 20
126.961
 30
0.00000
  70
    32
  0
VERTEX
  8
0
  5
86E
 10
178.048
 20
127.023
 30
0.00000
  70
    32
  0
VERTEX
  8
0
  5
86F
 10
178.040
 20
127.084
 30
0.00000
  70
    32
  0
VERTEX
  8
0
  5
870
 10
178.033
 20
127.145
 30
0.00000
  70
    32
  0
VERTEX
  8
0
  5
871
 10
178.026
 20
127.206
 30
0.00000
  70
    32
  0
VERTEX
  8
0
  5
872
 10
178.020
 20
127.267
 30
0.00000
  70
    32
  0
VERTEX
  8
0
  5
873
 10
178.013
 20
127.329
 30
0.00000
  70
    32
  0
VERTEX
  8
0
  5
874
 10
178.008
 20
127.390
 30
0.00000
  70
    32
  0
VERTEX
  8
0
  5
875
 10
178.002
 20
127.451
 30
0.00000
  70
    32
  0
VERTEX
  8
0
  5
876
 10
177.997
 20
127.512
 30
0.00000
  70
    32
  0
VERTEX
  8
0
  5
877
 10
177.992
 20
127.573
 30
0.00000
  70
    32
  0
VERTEX
  8
0
  5
878
 10
177.988
 20
127.635
 30
0.00000
  70
    32
  0
VERTEX
  8
0
  5
879
 10
177.984
 20
127.696
 30
0.00000
  70
    32
  0
VERTEX
  8
0
  5
87A
 10
177.981
 20
127.757
 30
0.00000
  70
    32
  0
VERTEX
  8
0
  5
87B
 10
177.977
 20
127.818
 30
0.00000
  70
    32
  0
VERTEX
  8
0
  5
87C
 10
177.975
 20
127.880
 30
0.00000
  70
    32
  0
VERTEX
  8
0
  5
87D
 10
177.972
 20
127.941
 30
0.00000
  70
    32
  0
VERTEX
  8
0
  5
87E
 10
177.970
 20
128.002
 30
0.00000
  70
    32
  0
VERTEX
  8
0
  5
87F
 10
177.968
 20
128.064
 30
0.00000
  70
    32
  0
VERTEX
  8
0
  5
880
 10
177.967
 20
128.125
 30
0.00000
  70
    32
  0
VERTEX
  8
0
  5
881
 10
177.966
 20
128.186
 30
0.00000
  70
    32
  0
VERTEX
  8
0
  5
882
 10
177.966
 20
128.247
 30
0.00000
  70
    32
  0
VERTEX
  8
0
  5
883
 10
177.965
 20
128.309
 30
0.00000
  70
    32
  0
VERTEX
  8
0
  5
884
 10
177.966
 20
128.370
 30
0.00000
  70
    32
  0
VERTEX
  8
0
  5
885
 10
177.966
 20
128.431
 30
0.00000
  70
    32
  0
VERTEX
  8
0
  5
886
 10
177.967
 20
128.493
 30
0.00000
  70
    32
  0
VERTEX
  8
0
  5
887
 10
177.968
 20
128.554
 30
0.00000
  70
    32
  0
VERTEX
  8
0
  5
888
 10
177.970
 20
128.615
 30
0.00000
  70
    32
  0
VERTEX
  8
0
  5
889
 10
177.972
 20
128.676
 30
0.00000
  70
    32
  0
VERTEX
  8
0
  5
88A
 10
177.975
 20
128.738
 30
0.00000
  70
    32
  0
VERTEX
  8
0
  5
88B
 10
177.977
 20
128.799
 30
0.00000
  70
    32
  0
VERTEX
  8
0
  5
88C
 10
177.981
 20
128.860
 30
0.00000
  70
    32
  0
VERTEX
  8
0
  5
88D
 10
177.984
 20
128.921
 30
0.00000
  70
    32
  0
VERTEX
  8
0
  5
88E
 10
177.988
 20
128.983
 30
0.00000
  70
    32
  0
VERTEX
  8
0
  5
88F
 10
177.992
 20
129.044
 30
0.00000
  70
    32
  0
VERTEX
  8
0
  5
890
 10
177.997
 20
129.105
 30
0.00000
  70
    32
  0
VERTEX
  8
0
  5
891
 10
178.002
 20
129.166
 30
0.00000
  70
    32
  0
VERTEX
  8
0
  5
892
 10
178.008
 20
129.228
 30
0.00000
  70
    32
  0
VERTEX
  8
0
  5
893
 10
178.013
 20
129.289
 30
0.00000
  70
    32
  0
VERTEX
  8
0
  5
894
 10
178.020
 20
129.350
 30
0.00000
  70
    32
  0
VERTEX
  8
0
  5
895
 10
178.026
 20
129.411
 30
0.00000
  70
    32
  0
VERTEX
  8
0
  5
896
 10
178.033
 20
129.472
 30
0.00000
  70
    32
  0
VERTEX
  8
0
  5
897
 10
178.040
 20
129.534
 30
0.00000
  70
    32
  0
VERTEX
  8
0
  5
898
 10
178.048
 20
129.595
 30
0.00000
  70
    32
  0
VERTEX
  8
0
  5
899
 10
178.056
 20
129.656
 30
0.00000
  70
    32
  0
VERTEX
  8
0
  5
89A
 10
178.065
 20
129.717
 30
0.00000
  70
    32
  0
VERTEX
  8
0
  5
89B
 10
178.073
 20
129.778
 30
0.00000
  70
    32
  0
VERTEX
  8
0
  5
89C
 10
178.083
 20
129.839
 30
0.00000
  70
    32
  0
VERTEX
  8
0
  5
89D
 10
178.092
 20
129.900
 30
0.00000
  70
    32
  0
VERTEX
  8
0
  5
89E
 10
178.102
 20
129.961
 30
0.00000
  70
    32
  0
VERTEX
  8
0
  5
89F
 10
178.112
 20
130.023
 30
0.00000
  70
    32
  0
VERTEX
  8
0
  5
8A0
 10
178.123
 20
130.084
 30
0.00000
  70
    32
  0
VERTEX
  8
0
  5
8A1
 10
178.134
 20
130.145
 30
0.00000
  70
    32
  0
VERTEX
  8
0
  5
8A2
 10
178.146
 20
130.206
 30
0.00000
  70
    32
  0
VERTEX
  8
0
  5
8A3
 10
178.157
 20
130.267
 30
0.00000
  70
    32
  0
VERTEX
  8
0
  5
8A4
 10
178.170
 20
130.328
 30
0.00000
  70
    32
  0
VERTEX
  8
0
  5
8A5
 10
178.182
 20
130.389
 30
0.00000
  70
    32
  0
VERTEX
  8
0
  5
8A6
 10
178.195
 20
130.449
 30
0.00000
  70
    32
  0
VERTEX
  8
0
  5
8A7
 10
178.208
 20
130.510
 30
0.00000
  70
    32
  0
VERTEX
  8
0
  5
8A8
 10
178.222
 20
130.571
 30
0.00000
  70
    32
  0
VERTEX
  8
0
  5
8A9
 10
178.236
 20
130.632
 30
0.00000
  70
    32
  0
VERTEX
  8
0
  5
8AA
 10
178.250
 20
130.693
 30
0.00000
  70
    32
  0
VERTEX
  8
0
  5
8AB
 10
178.265
 20
130.754
 30
0.00000
  70
    32
  0
VERTEX
  8
0
  5
8AC
 10
178.280
 20
130.815
 30
0.00000
  70
    32
  0
VERTEX
  8
0
  5
8AD
 10
178.296
 20
130.875
 30
0.00000
  70
    32
  0
VERTEX
  8
0
  5
8AE
 10
178.312
 20
130.936
 30
0.00000
  70
    32
  0
VERTEX
  8
0
  5
8AF
 10
178.328
 20
130.997
 30
0.00000
  70
    32
  0
VERTEX
  8
0
  5
8B0
 10
178.345
 20
131.058
 30
0.00000
  70
    32
  0
VERTEX
  8
0
  5
8B1
 10
178.362
 20
131.118
 30
0.00000
  70
    32
  0
VERTEX
  8
0
  5
8B2
 10
178.379
 20
131.179
 30
0.00000
  70
    32
  0
VERTEX
  8
0
  5
8B3
 10
178.397
 20
131.240
 30
0.00000
  70
    32
  0
VERTEX
  8
0
  5
8B4
 10
178.415
 20
131.300
 30
0.00000
  70
    32
  0
VERTEX
  8
0
  5
8B5
 10
178.434
 20
131.361
 30
0.00000
  70
    32
  0
VERTEX
  8
0
  5
8B6
 10
178.452
 20
131.421
 30
0.00000
  70
    32
  0
VERTEX
  8
0
  5
8B7
 10
178.472
 20
131.482
 30
0.00000
  70
    32
  0
VERTEX
  8
0
  5
8B8
 10
178.491
 20
131.542
 30
0.00000
  70
    32
  0
VERTEX
  8
0
  5
8B9
 10
178.511
 20
131.603
 30
0.00000
  70
    32
  0
VERTEX
  8
0
  5
8BA
 10
178.532
 20
131.663
 30
0.00000
  70
    32
  0
VERTEX
  8
0
  5
8BB
 10
178.552
 20
131.724
 30
0.00000
  70
    32
  0
VERTEX
  8
0
  5
8BC
 10
178.574
 20
131.784
 30
0.00000
  70
    32
  0
VERTEX
  8
0
  5
8BD
 10
178.595
 20
131.844
 30
0.00000
  70
    32
  0
VERTEX
  8
0
  5
8BE
 10
178.617
 20
131.905
 30
0.00000
  70
    32
  0
VERTEX
  8
0
  5
8BF
 10
178.639
 20
131.965
 30
0.00000
  70
    32
  0
VERTEX
  8
0
  5
8C0
 10
178.662
 20
132.025
 30
0.00000
  70
    32
  0
VERTEX
  8
0
  5
8C1
 10
178.685
 20
132.085
 30
0.00000
  70
    32
  0
VERTEX
  8
0
  5
8C2
 10
178.708
 20
132.146
 30
0.00000
  70
    32
  0
VERTEX
  8
0
  5
8C3
 10
178.732
 20
132.206
 30
0.00000
  70
    32
  0
SEQEND
  8
0
  5
8C4
  0
ARC
  5
643
  8
0
 10
217.9914999999996041
 20
140.0
 30
0.0
 40
40.0261704669578577
 50
168.7711471892746999
 51
191.2288528107253001
  0
LINE
  5
644
  8
0
 10
182.4351851851851052
 20
132.2057713659399951
 30
0.0
 11
178.7315417441637919
 21
132.2057713659399951
 31
0.0
  0
POLYLINE
  5
645
  8
0
 10
178.7315417441638488
 20
147.7942286340599765
 30
0.0
 66
     1
 70
     8
  0
VERTEX
  8
0
  5
8C5
 10
178.732
 20
147.794
 30
0.00000
  70
    32
  0
VERTEX
  8
0
  5
8C6
 10
178.708
 20
147.854
 30
0.00000
  70
    32
  0
VERTEX
  8
0
  5
8C7
 10
178.685
 20
147.915
 30
0.00000
  70
    32
  0
VERTEX
  8
0
  5
8C8
 10
178.662
 20
147.975
 30
0.00000
  70
    32
  0
VERTEX
  8
0
  5
8C9
 10
178.639
 20
148.035
 30
0.00000
  70
    32
  0
VERTEX
  8
0
  5
8CA
 10
178.617
 20
148.095
 30
0.00000
  70
    32
  0
VERTEX
  8
0
  5
8CB
 10
178.595
 20
148.156
 30
0.00000
  70
    32
  0
VERTEX
  8
0
  5
8CC
 10
178.574
 20
148.216
 30
0.00000
  70
    32
  0
VERTEX
  8
0
  5
8CD
 10
178.552
 20
148.276
 30
0.00000
  70
    32
  0
VERTEX
  8
0
  5
8CE
 10
178.532
 20
148.337
 30
0.00000
  70
    32
  0
VERTEX
  8
0
  5
8CF
 10
178.511
 20
148.397
 30
0.00000
  70
    32
  0
VERTEX
  8
0
  5
8D0
 10
178.491
 20
148.458
 30
0.00000
  70
    32
  0
VERTEX
  8
0
  5
8D1
 10
178.472
 20
148.518
 30
0.00000
  70
    32
  0
VERTEX
  8
0
  5
8D2
 10
178.452
 20
148.579
 30
0.00000
  70
    32
  0
VERTEX
  8
0
  5
8D3
 10
178.434
 20
148.639
 30
0.00000
  70
    32
  0
VERTEX
  8
0
  5
8D4
 10
178.415
 20
148.700
 30
0.00000
  70
    32
  0
VERTEX
  8
0
  5
8D5
 10
178.397
 20
148.760
 30
0.00000
  70
    32
  0
VERTEX
  8
0
  5
8D6
 10
178.379
 20
148.821
 30
0.00000
  70
    32
  0
VERTEX
  8
0
  5
8D7
 10
178.362
 20
148.882
 30
0.00000
  70
    32
  0
VERTEX
  8
0
  5
8D8
 10
178.345
 20
148.942
 30
0.00000
  70
    32
  0
VERTEX
  8
0
  5
8D9
 10
178.328
 20
149.003
 30
0.00000
  70
    32
  0
VERTEX
  8
0
  5
8DA
 10
178.312
 20
149.064
 30
0.00000
  70
    32
  0
VERTEX
  8
0
  5
8DB
 10
178.296
 20
149.125
 30
0.00000
  70
    32
  0
VERTEX
  8
0
  5
8DC
 10
178.280
 20
149.185
 30
0.00000
  70
    32
  0
VERTEX
  8
0
  5
8DD
 10
178.265
 20
149.246
 30
0.00000
  70
    32
  0
VERTEX
  8
0
  5
8DE
 10
178.250
 20
149.307
 30
0.00000
  70
    32
  0
VERTEX
  8
0
  5
8DF
 10
178.236
 20
149.368
 30
0.00000
  70
    32
  0
VERTEX
  8
0
  5
8E0
 10
178.222
 20
149.429
 30
0.00000
  70
    32
  0
VERTEX
  8
0
  5
8E1
 10
178.208
 20
149.490
 30
0.00000
  70
    32
  0
VERTEX
  8
0
  5
8E2
 10
178.195
 20
149.551
 30
0.00000
  70
    32
  0
VERTEX
  8
0
  5
8E3
 10
178.182
 20
149.611
 30
0.00000
  70
    32
  0
VERTEX
  8
0
  5
8E4
 10
178.170
 20
149.672
 30
0.00000
  70
    32
  0
VERTEX
  8
0
  5
8E5
 10
178.157
 20
149.733
 30
0.00000
  70
    32
  0
VERTEX
  8
0
  5
8E6
 10
178.146
 20
149.794
 30
0.00000
  70
    32
  0
VERTEX
  8
0
  5
8E7
 10
178.134
 20
149.855
 30
0.00000
  70
    32
  0
VERTEX
  8
0
  5
8E8
 10
178.123
 20
149.916
 30
0.00000
  70
    32
  0
VERTEX
  8
0
  5
8E9
 10
178.112
 20
149.977
 30
0.00000
  70
    32
  0
VERTEX
  8
0
  5
8EA
 10
178.102
 20
150.039
 30
0.00000
  70
    32
  0
VERTEX
  8
0
  5
8EB
 10
178.092
 20
150.100
 30
0.00000
  70
    32
  0
VERTEX
  8
0
  5
8EC
 10
178.083
 20
150.161
 30
0.00000
  70
    32
  0
VERTEX
  8
0
  5
8ED
 10
178.073
 20
150.222
 30
0.00000
  70
    32
  0
VERTEX
  8
0
  5
8EE
 10
178.065
 20
150.283
 30
0.00000
  70
    32
  0
VERTEX
  8
0
  5
8EF
 10
178.056
 20
150.344
 30
0.00000
  70
    32
  0
VERTEX
  8
0
  5
8F0
 10
178.048
 20
150.405
 30
0.00000
  70
    32
  0
VERTEX
  8
0
  5
8F1
 10
178.040
 20
150.466
 30
0.00000
  70
    32
  0
VERTEX
  8
0
  5
8F2
 10
178.033
 20
150.528
 30
0.00000
  70
    32
  0
VERTEX
  8
0
  5
8F3
 10
178.026
 20
150.589
 30
0.00000
  70
    32
  0
VERTEX
  8
0
  5
8F4
 10
178.020
 20
150.650
 30
0.00000
  70
    32
  0
VERTEX
  8
0
  5
8F5
 10
178.013
 20
150.711
 30
0.00000
  70
    32
  0
VERTEX
  8
0
  5
8F6
 10
178.008
 20
150.772
 30
0.00000
  70
    32
  0
VERTEX
  8
0
  5
8F7
 10
178.002
 20
150.834
 30
0.00000
  70
    32
  0
VERTEX
  8
0
  5
8F8
 10
177.997
 20
150.895
 30
0.00000
  70
    32
  0
VERTEX
  8
0
  5
8F9
 10
177.992
 20
150.956
 30
0.00000
  70
    32
  0
VERTEX
  8
0
  5
8FA
 10
177.988
 20
151.017
 30
0.00000
  70
    32
  0
VERTEX
  8
0
  5
8FB
 10
177.984
 20
151.079
 30
0.00000
  70
    32
  0
VERTEX
  8
0
  5
8FC
 10
177.981
 20
151.140
 30
0.00000
  70
    32
  0
VERTEX
  8
0
  5
8FD
 10
177.977
 20
151.201
 30
0.00000
  70
    32
  0
VERTEX
  8
0
  5
8FE
 10
177.975
 20
151.262
 30
0.00000
  70
    32
  0
VERTEX
  8
0
  5
8FF
 10
177.972
 20
151.324
 30
0.00000
  70
    32
  0
VERTEX
  8
0
  5
900
 10
177.970
 20
151.385
 30
0.00000
  70
    32
  0
VERTEX
  8
0
  5
901
 10
177.968
 20
151.446
 30
0.00000
  70
    32
  0
VERTEX
  8
0
  5
902
 10
177.967
 20
151.507
 30
0.00000
  70
    32
  0
VERTEX
  8
0
  5
903
 10
177.966
 20
151.569
 30
0.00000
  70
    32
  0
VERTEX
  8
0
  5
904
 10
177.966
 20
151.630
 30
0.00000
  70
    32
  0
VERTEX
  8
0
  5
905
 10
177.965
 20
151.691
 30
0.00000
  70
    32
  0
VERTEX
  8
0
  5
906
 10
177.966
 20
151.753
 30
0.00000
  70
    32
  0
VERTEX
  8
0
  5
907
 10
177.966
 20
151.814
 30
0.00000
  70
    32
  0
VERTEX
  8
0
  5
908
 10
177.967
 20
151.875
 30
0.00000
  70
    32
  0
VERTEX
  8
0
  5
909
 10
177.968
 20
151.936
 30
0.00000
  70
    32
  0
VERTEX
  8
0
  5
90A
 10
177.970
 20
151.998
 30
0.00000
  70
    32
  0
VERTEX
  8
0
  5
90B
 10
177.972
 20
152.059
 30
0.00000
  70
    32
  0
VERTEX
  8
0
  5
90C
 10
177.975
 20
152.120
 30
0.00000
  70
    32
  0
VERTEX
  8
0
  5
90D
 10
177.977
 20
152.182
 30
0.00000
  70
    32
  0
VERTEX
  8
0
  5
90E
 10
177.981
 20
152.243
 30
0.00000
  70
    32
  0
VERTEX
  8
0
  5
90F
 10
177.984
 20
152.304
 30
0.00000
  70
    32
  0
VERTEX
  8
0
  5
910
 10
177.988
 20
152.365
 30
0.00000
  70
    32
  0
VERTEX
  8
0
  5
911
 10
177.992
 20
152.427
 30
0.00000
  70
    32
  0
VERTEX
  8
0
  5
912
 10
177.997
 20
152.488
 30
0.00000
  70
    32
  0
VERTEX
  8
0
  5
913
 10
178.002
 20
152.549
 30
0.00000
  70
    32
  0
VERTEX
  8
0
  5
914
 10
178.008
 20
152.610
 30
0.00000
  70
    32
  0
VERTEX
  8
0
  5
915
 10
178.013
 20
152.671
 30
0.00000
  70
    32
  0
VERTEX
  8
0
  5
916
 10
178.020
 20
152.733
 30
0.00000
  70
    32
  0
VERTEX
  8
0
  5
917
 10
178.026
 20
152.794
 30
0.00000
  70
    32
  0
VERTEX
  8
0
  5
918
 10
178.033
 20
152.855
 30
0.00000
  70
    32
  0
VERTEX
  8
0
  5
919
 10
178.040
 20
152.916
 30
0.00000
  70
    32
  0
VERTEX
  8
0
  5
91A
 10
178.048
 20
152.977
 30
0.00000
  70
    32
  0
VERTEX
  8
0
  5
91B
 10
178.056
 20
153.039
 30
0.00000
  70
    32
  0
VERTEX
  8
0
  5
91C
 10
178.065
 20
153.100
 30
0.00000
  70
    32
  0
VERTEX
  8
0
  5
91D
 10
178.073
 20
153.161
 30
0.00000
  70
    32
  0
VERTEX
  8
0
  5
91E
 10
178.083
 20
153.222
 30
0.00000
  70
    32
  0
VERTEX
  8
0
  5
91F
 10
178.092
 20
153.283
 30
0.00000
  70
    32
  0
VERTEX
  8
0
  5
920
 10
178.102
 20
153.344
 30
0.00000
  70
    32
  0
VERTEX
  8
0
  5
921
 10
178.112
 20
153.405
 30
0.00000
  70
    32
  0
VERTEX
  8
0
  5
922
 10
178.123
 20
153.466
 30
0.00000
  70
    32
  0
VERTEX
  8
0
  5
923
 10
178.134
 20
153.527
 30
0.00000
  70
    32
  0
VERTEX
  8
0
  5
924
 10
178.146
 20
153.588
 30
0.00000
  70
    32
  0
VERTEX
  8
0
  5
925
 10
178.157
 20
153.649
 30
0.00000
  70
    32
  0
VERTEX
  8
0
  5
926
 10
178.170
 20
153.710
 30
0.00000
  70
    32
  0
VERTEX
  8
0
  5
927
 10
178.182
 20
153.771
 30
0.00000
  70
    32
  0
VERTEX
  8
0
  5
928
 10
178.195
 20
153.832
 30
0.00000
  70
    32
  0
VERTEX
  8
0
  5
929
 10
178.208
 20
153.893
 30
0.00000
  70
    32
  0
VERTEX
  8
0
  5
92A
 10
178.222
 20
153.954
 30
0.00000
  70
    32
  0
VERTEX
  8
0
  5
92B
 10
178.236
 20
154.015
 30
0.00000
  70
    32
  0
VERTEX
  8
0
  5
92C
 10
178.250
 20
154.076
 30
0.00000
  70
    32
  0
VERTEX
  8
0
  5
92D
 10
178.265
 20
154.137
 30
0.00000
  70
    32
  0
VERTEX
  8
0
  5
92E
 10
178.280
 20
154.197
 30
0.00000
  70
    32
  0
VERTEX
  8
0
  5
92F
 10
178.296
 20
154.258
 30
0.00000
  70
    32
  0
VERTEX
  8
0
  5
930
 10
178.312
 20
154.319
 30
0.00000
  70
    32
  0
VERTEX
  8
0
  5
931
 10
178.328
 20
154.380
 30
0.00000
  70
    32
  0
VERTEX
  8
0
  5
932
 10
178.345
 20
154.440
 30
0.00000
  70
    32
  0
VERTEX
  8
0
  5
933
 10
178.362
 20
154.501
 30
0.00000
  70
    32
  0
VERTEX
  8
0
  5
934
 10
178.379
 20
154.562
 30
0.00000
  70
    32
  0
VERTEX
  8
0
  5
935
 10
178.397
 20
154.622
 30
0.00000
  70
    32
  0
VERTEX
  8
0
  5
936
 10
178.415
 20
154.683
 30
0.00000
  70
    32
  0
VERTEX
  8
0
  5
937
 10
178.434
 20
154.744
 30
0.00000
  70
    32
  0
VERTEX
  8
0
  5
938
 10
178.452
 20
154.804
 30
0.00000
  70
    32
  0
VERTEX
  8
0
  5
939
 10
178.472
 20
154.865
 30
0.00000
  70
    32
  0
VERTEX
  8
0
  5
93A
 10
178.491
 20
154.925
 30
0.00000
  70
    32
  0
VERTEX
  8
0
  5
93B
 10
178.511
 20
154.986
 30
0.00000
  70
    32
  0
VERTEX
  8
0
  5
93C
 10
178.532
 20
155.046
 30
0.00000
  70
    32
  0
VERTEX
  8
0
  5
93D
 10
178.552
 20
155.106
 30
0.00000
  70
    32
  0
VERTEX
  8
0
  5
93E
 10
178.574
 20
155.167
 30
0.00000
  70
    32
  0
VERTEX
  8
0
  5
93F
 10
178.595
 20
155.227
 30
0.00000
  70
    32
  0
VERTEX
  8
0
  5
940
 10
178.617
 20
155.287
 30
0.00000
  70
    32
  0
VERTEX
  8
0
  5
941
 10
178.639
 20
155.348
 30
0.00000
  70
    32
  0
VERTEX
  8
0
  5
942
 10
178.662
 20
155.408
 30
0.00000
  70
    32
  0
VERTEX
  8
0
  5
943
 10
178.685
 20
155.468
 30
0.00000
  70
    32
  0
VERTEX
  8
0
  5
944
 10
178.708
 20
155.528
 30
0.00000
  70
    32
  0
VERTEX
  8
0
  5
945
 10
178.732
 20
155.588
 30
0.00000
  70
    32
  0
SEQEND
  8
0
  5
946
  0
LINE
  5
646
  8
0
 10
178.7315417441637919
 20
155.5884572681198961
 30
0.0
 11
182.4351851851851052
 21
155.5884572681198961
 31
0.0
  0
LINE
  5
647
  8
0
 10
182.4351851851851052
 20
147.7942286340598912
 30
0.0
 11
178.7315417441637919
 21
147.7942286340598912
 31
0.0
  0
LINE
  5
648
  8
0
 10
186.6788469781396884
 20
124.6122500000000031
 30
0.0
 11
184.75
 21
124.6122500000000031
 31
0.0
  0
LINE
  5
649
  8
0
 10
184.75
 20
155.3877500000000111
 30
0.0
 11
186.6788469781396884
 21
155.3877500000000111
 31
0.0
  0
LINE
  5
64A
  8
0
 10
186.6788469781396884
 20
155.3877500000000111
 30
0.0
 11
186.6788469781396884
 21
124.6122500000000031
 31
0.0
  0
LINE
  5
64B
  8
0
 10
184.75
 20
124.25
 30
0.0
 11
182.4351851851851052
 21
124.25
 31
0.0
  0
LINE
  5
64C
  8
0
 10
182.4351851851851052
 20
155.75
 30
0.0
 11
184.75
 21
155.75
 31
0.0
  0
LINE
  5
64D
  8
0
 10
182.4351851851851052
 20
155.75
 30
0.0
 11
182.4351851851851052
 21
124.25
 31
0.0
  0
LINE
  5
64E
  8
0
 10
184.75
 20
155.75
 30
0.0
 11
184.75
 21
124.25
 31
0.0
  0
LINE
  5
64F
  8
3
 10
194.25
 20
152.0585000000000093
 30
0.0
 11
186.6788469781396884
 21
152.0585000000000093
 31
0.0
  0
LINE
  5
650
  8
3
 10
194.25
 20
127.9415000000000049
 30
0.0
 11
186.6788469781396884
 21
127.9415000000000049
 31
0.0
  0
LINE
  5
6B1
  8
1
 10
200.2499999999998863
 20
80.0
 30
0.0
 11
170.75
 21
80.0
 31
0.0
  0
LINE
  5
6B2
  8
0
 10
195.25
 20
92.2998474999999843
 30
0.0
 11
195.25
 21
67.7001525000000015
 31
0.0
  0
LINE
  5
6B3
  8
0
 10
195.25
 20
67.7001525000000015
 30
0.0
 11
194.25
 21
67.7001525000000015
 31
0.0
  0
LINE
  5
6B4
  8
0
 10
194.25
 20
92.2998474999999843
 30
0.0
 11
195.25
 21
92.2998474999999843
 31
0.0
  0
LINE
  5
6B5
  8
0
 10
194.25
 20
93.2199999999999989
 30
0.0
 11
194.25
 21
66.7800000000000011
 31
0.0
  0
LINE
  5
6B6
  8
0
 10
194.25
 20
66.7800000000000011
 30
0.0
 11
186.6788469781396884
 21
66.7800000000000011
 31
0.0
  0
LINE
  5
6B7
  8
0
 10
186.6788469781396884
 20
93.2199999999999989
 30
0.0
 11
194.25
 21
93.2199999999999989
 31
0.0
  0
LINE
  5
6B8
  8
0
 10
186.6788469781396884
 20
95.3877499999999969
 30
0.0
 11
186.6788469781396884
 21
64.6122500000000031
 31
0.0
  0
LINE
  5
6B9
  8
0
 10
186.6788469781396884
 20
64.6122500000000031
 30
0.0
 11
184.75
 21
64.6122500000000031
 31
0.0
  0
LINE
  5
6BA
  8
0
 10
184.75
 20
95.3877499999999969
 30
0.0
 11
186.6788469781396884
 21
95.3877499999999969
 31
0.0
  0
LINE
  5
6BB
  8
0
 10
182.4351851851851052
 20
93.4999999999999858
 30
0.0
 11
177.9653295330417109
 21
93.4999999999999858
 31
0.0
  0
LINE
  5
6BC
  8
0
 10
178.7315417441637919
 20
80.0
 30
0.0
 11
182.4351851851851052
 21
80.0
 31
0.0
  0
LINE
  5
6BD
  8
0
 10
182.4351851851851052
 20
66.5
 30
0.0
 11
177.9653295330417109
 21
66.5
 31
0.0
  0
POLYLINE
  5
6BE
  8
0
 10
178.7315417441638203
 20
79.9999999999999289
 30
0.0
 66
     1
 70
     8
  0
VERTEX
  8
0
  5
947
 10
178.732
 20
80.0000
 30
0.00000
  70
    32
  0
VERTEX
  8
0
  5
948
 10
178.708
 20
80.1041
 30
0.00000
  70
    32
  0
VERTEX
  8
0
  5
949
 10
178.685
 20
80.2084
 30
0.00000
  70
    32
  0
VERTEX
  8
0
  5
94A
 10
178.662
 20
80.3126
 30
0.00000
  70
    32
  0
VERTEX
  8
0
  5
94B
 10
178.639
 20
80.4170
 30
0.00000
  70
    32
  0
VERTEX
  8
0
  5
94C
 10
178.617
 20
80.5213
 30
0.00000
  70
    32
  0
VERTEX
  8
0
  5
94D
 10
178.595
 20
80.6258
 30
0.00000
  70
    32
  0
VERTEX
  8
0
  5
94E
 10
178.574
 20
80.7303
 30
0.00000
  70
    32
  0
VERTEX
  8
0
  5
94F
 10
178.552
 20
80.8349
 30
0.00000
  70
    32
  0
VERTEX
  8
0
  5
950
 10
178.532
 20
80.9395
 30
0.00000
  70
    32
  0
VERTEX
  8
0
  5
951
 10
178.511
 20
81.0442
 30
0.00000
  70
    32
  0
VERTEX
  8
0
  5
952
 10
178.491
 20
81.1489
 30
0.00000
  70
    32
  0
VERTEX
  8
0
  5
953
 10
178.472
 20
81.2537
 30
0.00000
  70
    32
  0
VERTEX
  8
0
  5
954
 10
178.452
 20
81.3585
 30
0.00000
  70
    32
  0
VERTEX
  8
0
  5
955
 10
178.434
 20
81.4634
 30
0.00000
  70
    32
  0
VERTEX
  8
0
  5
956
 10
178.415
 20
81.5683
 30
0.00000
  70
    32
  0
VERTEX
  8
0
  5
957
 10
178.397
 20
81.6733
 30
0.00000
  70
    32
  0
VERTEX
  8
0
  5
958
 10
178.379
 20
81.7783
 30
0.00000
  70
    32
  0
VERTEX
  8
0
  5
959
 10
178.362
 20
81.8834
 30
0.00000
  70
    32
  0
VERTEX
  8
0
  5
95A
 10
178.345
 20
81.9885
 30
0.00000
  70
    32
  0
VERTEX
  8
0
  5
95B
 10
178.328
 20
82.0937
 30
0.00000
  70
    32
  0
VERTEX
  8
0
  5
95C
 10
178.312
 20
82.1989
 30
0.00000
  70
    32
  0
VERTEX
  8
0
  5
95D
 10
178.296
 20
82.3041
 30
0.00000
  70
    32
  0
VERTEX
  8
0
  5
95E
 10
178.280
 20
82.4094
 30
0.00000
  70
    32
  0
VERTEX
  8
0
  5
95F
 10
178.265
 20
82.5147
 30
0.00000
  70
    32
  0
VERTEX
  8
0
  5
960
 10
178.250
 20
82.6201
 30
0.00000
  70
    32
  0
VERTEX
  8
0
  5
961
 10
178.236
 20
82.7255
 30
0.00000
  70
    32
  0
VERTEX
  8
0
  5
962
 10
178.222
 20
82.8310
 30
0.00000
  70
    32
  0
VERTEX
  8
0
  5
963
 10
178.208
 20
82.9364
 30
0.00000
  70
    32
  0
VERTEX
  8
0
  5
964
 10
178.195
 20
83.0420
 30
0.00000
  70
    32
  0
VERTEX
  8
0
  5
965
 10
178.182
 20
83.1475
 30
0.00000
  70
    32
  0
VERTEX
  8
0
  5
966
 10
178.170
 20
83.2531
 30
0.00000
  70
    32
  0
VERTEX
  8
0
  5
967
 10
178.157
 20
83.3587
 30
0.00000
  70
    32
  0
VERTEX
  8
0
  5
968
 10
178.146
 20
83.4644
 30
0.00000
  70
    32
  0
VERTEX
  8
0
  5
969
 10
178.134
 20
83.5701
 30
0.00000
  70
    32
  0
VERTEX
  8
0
  5
96A
 10
178.123
 20
83.6758
 30
0.00000
  70
    32
  0
VERTEX
  8
0
  5
96B
 10
178.112
 20
83.7815
 30
0.00000
  70
    32
  0
VERTEX
  8
0
  5
96C
 10
178.102
 20
83.8873
 30
0.00000
  70
    32
  0
VERTEX
  8
0
  5
96D
 10
178.092
 20
83.9931
 30
0.00000
  70
    32
  0
VERTEX
  8
0
  5
96E
 10
178.083
 20
84.0989
 30
0.00000
  70
    32
  0
VERTEX
  8
0
  5
96F
 10
178.073
 20
84.2048
 30
0.00000
  70
    32
  0
VERTEX
  8
0
  5
970
 10
178.065
 20
84.3106
 30
0.00000
  70
    32
  0
VERTEX
  8
0
  5
971
 10
178.056
 20
84.4165
 30
0.00000
  70
    32
  0
VERTEX
  8
0
  5
972
 10
178.048
 20
84.5225
 30
0.00000
  70
    32
  0
VERTEX
  8
0
  5
973
 10
178.040
 20
84.6284
 30
0.00000
  70
    32
  0
VERTEX
  8
0
  5
974
 10
178.033
 20
84.7343
 30
0.00000
  70
    32
  0
VERTEX
  8
0
  5
975
 10
178.026
 20
84.8403
 30
0.00000
  70
    32
  0
VERTEX
  8
0
  5
976
 10
178.020
 20
84.9463
 30
0.00000
  70
    32
  0
VERTEX
  8
0
  5
977
 10
178.013
 20
85.0523
 30
0.00000
  70
    32
  0
VERTEX
  8
0
  5
978
 10
178.008
 20
85.1584
 30
0.00000
  70
    32
  0
VERTEX
  8
0
  5
979
 10
178.002
 20
85.2644
 30
0.00000
  70
    32
  0
VERTEX
  8
0
  5
97A
 10
177.997
 20
85.3705
 30
0.00000
  70
    32
  0
VERTEX
  8
0
  5
97B
 10
177.992
 20
85.4765
 30
0.00000
  70
    32
  0
VERTEX
  8
0
  5
97C
 10
177.988
 20
85.5826
 30
0.00000
  70
    32
  0
VERTEX
  8
0
  5
97D
 10
177.984
 20
85.6887
 30
0.00000
  70
    32
  0
VERTEX
  8
0
  5
97E
 10
177.981
 20
85.7948
 30
0.00000
  70
    32
  0
VERTEX
  8
0
  5
97F
 10
177.977
 20
85.9009
 30
0.00000
  70
    32
  0
VERTEX
  8
0
  5
980
 10
177.975
 20
86.0070
 30
0.00000
  70
    32
  0
VERTEX
  8
0
  5
981
 10
177.972
 20
86.1132
 30
0.00000
  70
    32
  0
VERTEX
  8
0
  5
982
 10
177.970
 20
86.2193
 30
0.00000
  70
    32
  0
VERTEX
  8
0
  5
983
 10
177.968
 20
86.3254
 30
0.00000
  70
    32
  0
VERTEX
  8
0
  5
984
 10
177.967
 20
86.4316
 30
0.00000
  70
    32
  0
VERTEX
  8
0
  5
985
 10
177.966
 20
86.5377
 30
0.00000
  70
    32
  0
VERTEX
  8
0
  5
986
 10
177.966
 20
86.6439
 30
0.00000
  70
    32
  0
VERTEX
  8
0
  5
987
 10
177.965
 20
86.7500
 30
0.00000
  70
    32
  0
VERTEX
  8
0
  5
988
 10
177.966
 20
86.8561
 30
0.00000
  70
    32
  0
VERTEX
  8
0
  5
989
 10
177.966
 20
86.9623
 30
0.00000
  70
    32
  0
VERTEX
  8
0
  5
98A
 10
177.967
 20
87.0684
 30
0.00000
  70
    32
  0
VERTEX
  8
0
  5
98B
 10
177.968
 20
87.1746
 30
0.00000
  70
    32
  0
VERTEX
  8
0
  5
98C
 10
177.970
 20
87.2807
 30
0.00000
  70
    32
  0
VERTEX
  8
0
  5
98D
 10
177.972
 20
87.3868
 30
0.00000
  70
    32
  0
VERTEX
  8
0
  5
98E
 10
177.975
 20
87.4930
 30
0.00000
  70
    32
  0
VERTEX
  8
0
  5
98F
 10
177.977
 20
87.5991
 30
0.00000
  70
    32
  0
VERTEX
  8
0
  5
990
 10
177.981
 20
87.7052
 30
0.00000
  70
    32
  0
VERTEX
  8
0
  5
991
 10
177.984
 20
87.8113
 30
0.00000
  70
    32
  0
VERTEX
  8
0
  5
992
 10
177.988
 20
87.9174
 30
0.00000
  70
    32
  0
VERTEX
  8
0
  5
993
 10
177.992
 20
88.0235
 30
0.00000
  70
    32
  0
VERTEX
  8
0
  5
994
 10
177.997
 20
88.1295
 30
0.00000
  70
    32
  0
VERTEX
  8
0
  5
995
 10
178.002
 20
88.2356
 30
0.00000
  70
    32
  0
VERTEX
  8
0
  5
996
 10
178.008
 20
88.3416
 30
0.00000
  70
    32
  0
VERTEX
  8
0
  5
997
 10
178.013
 20
88.4477
 30
0.00000
  70
    32
  0
VERTEX
  8
0
  5
998
 10
178.020
 20
88.5537
 30
0.00000
  70
    32
  0
VERTEX
  8
0
  5
999
 10
178.026
 20
88.6597
 30
0.00000
  70
    32
  0
VERTEX
  8
0
  5
99A
 10
178.033
 20
88.7657
 30
0.00000
  70
    32
  0
VERTEX
  8
0
  5
99B
 10
178.040
 20
88.8716
 30
0.00000
  70
    32
  0
VERTEX
  8
0
  5
99C
 10
178.048
 20
88.9775
 30
0.00000
  70
    32
  0
VERTEX
  8
0
  5
99D
 10
178.056
 20
89.0835
 30
0.00000
  70
    32
  0
VERTEX
  8
0
  5
99E
 10
178.065
 20
89.1894
 30
0.00000
  70
    32
  0
VERTEX
  8
0
  5
99F
 10
178.073
 20
89.2952
 30
0.00000
  70
    32
  0
VERTEX
  8
0
  5
9A0
 10
178.083
 20
89.4011
 30
0.00000
  70
    32
  0
VERTEX
  8
0
  5
9A1
 10
178.092
 20
89.5069
 30
0.00000
  70
    32
  0
VERTEX
  8
0
  5
9A2
 10
178.102
 20
89.6127
 30
0.00000
  70
    32
  0
VERTEX
  8
0
  5
9A3
 10
178.112
 20
89.7185
 30
0.00000
  70
    32
  0
VERTEX
  8
0
  5
9A4
 10
178.123
 20
89.8242
 30
0.00000
  70
    32
  0
VERTEX
  8
0
  5
9A5
 10
178.134
 20
89.9299
 30
0.00000
  70
    32
  0
VERTEX
  8
0
  5
9A6
 10
178.146
 20
90.0356
 30
0.00000
  70
    32
  0
VERTEX
  8
0
  5
9A7
 10
178.157
 20
90.1413
 30
0.00000
  70
    32
  0
VERTEX
  8
0
  5
9A8
 10
178.170
 20
90.2469
 30
0.00000
  70
    32
  0
VERTEX
  8
0
  5
9A9
 10
178.182
 20
90.3525
 30
0.00000
  70
    32
  0
VERTEX
  8
0
  5
9AA
 10
178.195
 20
90.4580
 30
0.00000
  70
    32
  0
VERTEX
  8
0
  5
9AB
 10
178.208
 20
90.5636
 30
0.00000
  70
    32
  0
VERTEX
  8
0
  5
9AC
 10
178.222
 20
90.6690
 30
0.00000
  70
    32
  0
VERTEX
  8
0
  5
9AD
 10
178.236
 20
90.7745
 30
0.00000
  70
    32
  0
VERTEX
  8
0
  5
9AE
 10
178.250
 20
90.8799
 30
0.00000
  70
    32
  0
VERTEX
  8
0
  5
9AF
 10
178.265
 20
90.9853
 30
0.00000
  70
    32
  0
VERTEX
  8
0
  5
9B0
 10
178.280
 20
91.0906
 30
0.00000
  70
    32
  0
VERTEX
  8
0
  5
9B1
 10
178.296
 20
91.1959
 30
0.00000
  70
    32
  0
VERTEX
  8
0
  5
9B2
 10
178.312
 20
91.3011
 30
0.00000
  70
    32
  0
VERTEX
  8
0
  5
9B3
 10
178.328
 20
91.4063
 30
0.00000
  70
    32
  0
VERTEX
  8
0
  5
9B4
 10
178.345
 20
91.5115
 30
0.00000
  70
    32
  0
VERTEX
  8
0
  5
9B5
 10
178.362
 20
91.6166
 30
0.00000
  70
    32
  0
VERTEX
  8
0
  5
9B6
 10
178.379
 20
91.7217
 30
0.00000
  70
    32
  0
VERTEX
  8
0
  5
9B7
 10
178.397
 20
91.8267
 30
0.00000
  70
    32
  0
VERTEX
  8
0
  5
9B8
 10
178.415
 20
91.9317
 30
0.00000
  70
    32
  0
VERTEX
  8
0
  5
9B9
 10
178.434
 20
92.0366
 30
0.00000
  70
    32
  0
VERTEX
  8
0
  5
9BA
 10
178.452
 20
92.1415
 30
0.00000
  70
    32
  0
VERTEX
  8
0
  5
9BB
 10
178.472
 20
92.2463
 30
0.00000
  70
    32
  0
VERTEX
  8
0
  5
9BC
 10
178.491
 20
92.3511
 30
0.00000
  70
    32
  0
VERTEX
  8
0
  5
9BD
 10
178.511
 20
92.4558
 30
0.00000
  70
    32
  0
VERTEX
  8
0
  5
9BE
 10
178.532
 20
92.5605
 30
0.00000
  70
    32
  0
VERTEX
  8
0
  5
9BF
 10
178.552
 20
92.6651
 30
0.00000
  70
    32
  0
VERTEX
  8
0
  5
9C0
 10
178.574
 20
92.7697
 30
0.00000
  70
    32
  0
VERTEX
  8
0
  5
9C1
 10
178.595
 20
92.8742
 30
0.00000
  70
    32
  0
VERTEX
  8
0
  5
9C2
 10
178.617
 20
92.9787
 30
0.00000
  70
    32
  0
VERTEX
  8
0
  5
9C3
 10
178.639
 20
93.0830
 30
0.00000
  70
    32
  0
VERTEX
  8
0
  5
9C4
 10
178.662
 20
93.1874
 30
0.00000
  70
    32
  0
VERTEX
  8
0
  5
9C5
 10
178.685
 20
93.2916
 30
0.00000
  70
    32
  0
VERTEX
  8
0
  5
9C6
 10
178.708
 20
93.3959
 30
0.00000
  70
    32
  0
VERTEX
  8
0
  5
9C7
 10
178.732
 20
93.5000
 30
0.00000
  70
    32
  0
SEQEND
  8
0
  5
9C8
  0
POLYLINE
  5
6BF
  8
0
 10
178.7315417441638488
 20
66.5
 30
0.0
 66
     1
 70
     8
  0
VERTEX
  8
0
  5
9C9
 10
178.732
 20
66.5000
 30
0.00000
  70
    32
  0
VERTEX
  8
0
  5
9CA
 10
178.708
 20
66.6041
 30
0.00000
  70
    32
  0
VERTEX
  8
0
  5
9CB
 10
178.685
 20
66.7084
 30
0.00000
  70
    32
  0
VERTEX
  8
0
  5
9CC
 10
178.662
 20
66.8126
 30
0.00000
  70
    32
  0
VERTEX
  8
0
  5
9CD
 10
178.639
 20
66.9170
 30
0.00000
  70
    32
  0
VERTEX
  8
0
  5
9CE
 10
178.617
 20
67.0213
 30
0.00000
  70
    32
  0
VERTEX
  8
0
  5
9CF
 10
178.595
 20
67.1258
 30
0.00000
  70
    32
  0
VERTEX
  8
0
  5
9D0
 10
178.574
 20
67.2303
 30
0.00000
  70
    32
  0
VERTEX
  8
0
  5
9D1
 10
178.552
 20
67.3349
 30
0.00000
  70
    32
  0
VERTEX
  8
0
  5
9D2
 10
178.532
 20
67.4395
 30
0.00000
  70
    32
  0
VERTEX
  8
0
  5
9D3
 10
178.511
 20
67.5442
 30
0.00000
  70
    32
  0
VERTEX
  8
0
  5
9D4
 10
178.491
 20
67.6489
 30
0.00000
  70
    32
  0
VERTEX
  8
0
  5
9D5
 10
178.472
 20
67.7537
 30
0.00000
  70
    32
  0
VERTEX
  8
0
  5
9D6
 10
178.452
 20
67.8585
 30
0.00000
  70
    32
  0
VERTEX
  8
0
  5
9D7
 10
178.434
 20
67.9634
 30
0.00000
  70
    32
  0
VERTEX
  8
0
  5
9D8
 10
178.415
 20
68.0683
 30
0.00000
  70
    32
  0
VERTEX
  8
0
  5
9D9
 10
178.397
 20
68.1733
 30
0.00000
  70
    32
  0
VERTEX
  8
0
  5
9DA
 10
178.379
 20
68.2783
 30
0.00000
  70
    32
  0
VERTEX
  8
0
  5
9DB
 10
178.362
 20
68.3834
 30
0.00000
  70
    32
  0
VERTEX
  8
0
  5
9DC
 10
178.345
 20
68.4885
 30
0.00000
  70
    32
  0
VERTEX
  8
0
  5
9DD
 10
178.328
 20
68.5937
 30
0.00000
  70
    32
  0
VERTEX
  8
0
  5
9DE
 10
178.312
 20
68.6989
 30
0.00000
  70
    32
  0
VERTEX
  8
0
  5
9DF
 10
178.296
 20
68.8041
 30
0.00000
  70
    32
  0
VERTEX
  8
0
  5
9E0
 10
178.280
 20
68.9094
 30
0.00000
  70
    32
  0
VERTEX
  8
0
  5
9E1
 10
178.265
 20
69.0147
 30
0.00000
  70
    32
  0
VERTEX
  8
0
  5
9E2
 10
178.250
 20
69.1201
 30
0.00000
  70
    32
  0
VERTEX
  8
0
  5
9E3
 10
178.236
 20
69.2255
 30
0.00000
  70
    32
  0
VERTEX
  8
0
  5
9E4
 10
178.222
 20
69.3310
 30
0.00000
  70
    32
  0
VERTEX
  8
0
  5
9E5
 10
178.208
 20
69.4364
 30
0.00000
  70
    32
  0
VERTEX
  8
0
  5
9E6
 10
178.195
 20
69.5420
 30
0.00000
  70
    32
  0
VERTEX
  8
0
  5
9E7
 10
178.182
 20
69.6475
 30
0.00000
  70
    32
  0
VERTEX
  8
0
  5
9E8
 10
178.170
 20
69.7531
 30
0.00000
  70
    32
  0
VERTEX
  8
0
  5
9E9
 10
178.157
 20
69.8587
 30
0.00000
  70
    32
  0
VERTEX
  8
0
  5
9EA
 10
178.146
 20
69.9644
 30
0.00000
  70
    32
  0
VERTEX
  8
0
  5
9EB
 10
178.134
 20
70.0701
 30
0.00000
  70
    32
  0
VERTEX
  8
0
  5
9EC
 10
178.123
 20
70.1758
 30
0.00000
  70
    32
  0
VERTEX
  8
0
  5
9ED
 10
178.112
 20
70.2815
 30
0.00000
  70
    32
  0
VERTEX
  8
0
  5
9EE
 10
178.102
 20
70.3873
 30
0.00000
  70
    32
  0
VERTEX
  8
0
  5
9EF
 10
178.092
 20
70.4931
 30
0.00000
  70
    32
  0
VERTEX
  8
0
  5
9F0
 10
178.083
 20
70.5989
 30
0.00000
  70
    32
  0
VERTEX
  8
0
  5
9F1
 10
178.073
 20
70.7048
 30
0.00000
  70
    32
  0
VERTEX
  8
0
  5
9F2
 10
178.065
 20
70.8106
 30
0.00000
  70
    32
  0
VERTEX
  8
0
  5
9F3
 10
178.056
 20
70.9165
 30
0.00000
  70
    32
  0
VERTEX
  8
0
  5
9F4
 10
178.048
 20
71.0225
 30
0.00000
  70
    32
  0
VERTEX
  8
0
  5
9F5
 10
178.040
 20
71.1284
 30
0.00000
  70
    32
  0
VERTEX
  8
0
  5
9F6
 10
178.033
 20
71.2343
 30
0.00000
  70
    32
  0
VERTEX
  8
0
  5
9F7
 10
178.026
 20
71.3403
 30
0.00000
  70
    32
  0
VERTEX
  8
0
  5
9F8
 10
178.020
 20
71.4463
 30
0.00000
  70
    32
  0
VERTEX
  8
0
  5
9F9
 10
178.013
 20
71.5523
 30
0.00000
  70
    32
  0
VERTEX
  8
0
  5
9FA
 10
178.008
 20
71.6584
 30
0.00000
  70
    32
  0
VERTEX
  8
0
  5
9FB
 10
178.002
 20
71.7644
 30
0.00000
  70
    32
  0
VERTEX
  8
0
  5
9FC
 10
177.997
 20
71.8705
 30
0.00000
  70
    32
  0
VERTEX
  8
0
  5
9FD
 10
177.992
 20
71.9765
 30
0.00000
  70
    32
  0
VERTEX
  8
0
  5
9FE
 10
177.988
 20
72.0826
 30
0.00000
  70
    32
  0
VERTEX
  8
0
  5
9FF
 10
177.984
 20
72.1887
 30
0.00000
  70
    32
  0
VERTEX
  8
0
  5
A00
 10
177.981
 20
72.2948
 30
0.00000
  70
    32
  0
VERTEX
  8
0
  5
A01
 10
177.977
 20
72.4009
 30
0.00000
  70
    32
  0
VERTEX
  8
0
  5
A02
 10
177.975
 20
72.5070
 30
0.00000
  70
    32
  0
VERTEX
  8
0
  5
A03
 10
177.972
 20
72.6132
 30
0.00000
  70
    32
  0
VERTEX
  8
0
  5
A04
 10
177.970
 20
72.7193
 30
0.00000
  70
    32
  0
VERTEX
  8
0
  5
A05
 10
177.968
 20
72.8254
 30
0.00000
  70
    32
  0
VERTEX
  8
0
  5
A06
 10
177.967
 20
72.9316
 30
0.00000
  70
    32
  0
VERTEX
  8
0
  5
A07
 10
177.966
 20
73.0377
 30
0.00000
  70
    32
  0
VERTEX
  8
0
  5
A08
 10
177.966
 20
73.1439
 30
0.00000
  70
    32
  0
VERTEX
  8
0
  5
A09
 10
177.965
 20
73.2500
 30
0.00000
  70
    32
  0
VERTEX
  8
0
  5
A0A
 10
177.966
 20
73.3561
 30
0.00000
  70
    32
  0
VERTEX
  8
0
  5
A0B
 10
177.966
 20
73.4623
 30
0.00000
  70
    32
  0
VERTEX
  8
0
  5
A0C
 10
177.967
 20
73.5684
 30
0.00000
  70
    32
  0
VERTEX
  8
0
  5
A0D
 10
177.968
 20
73.6746
 30
0.00000
  70
    32
  0
VERTEX
  8
0
  5
A0E
 10
177.970
 20
73.7807
 30
0.00000
  70
    32
  0
VERTEX
  8
0
  5
A0F
 10
177.972
 20
73.8868
 30
0.00000
  70
    32
  0
VERTEX
  8
0
  5
A10
 10
177.975
 20
73.9930
 30
0.00000
  70
    32
  0
VERTEX
  8
0
  5
A11
 10
177.977
 20
74.0991
 30
0.00000
  70
    32
  0
VERTEX
  8
0
  5
A12
 10
177.981
 20
74.2052
 30
0.00000
  70
    32
  0
VERTEX
  8
0
  5
A13
 10
177.984
 20
74.3113
 30
0.00000
  70
    32
  0
VERTEX
  8
0
  5
A14
 10
177.988
 20
74.4174
 30
0.00000
  70
    32
  0
VERTEX
  8
0
  5
A15
 10
177.992
 20
74.5235
 30
0.00000
  70
    32
  0
VERTEX
  8
0
  5
A16
 10
177.997
 20
74.6295
 30
0.00000
  70
    32
  0
VERTEX
  8
0
  5
A17
 10
178.002
 20
74.7356
 30
0.00000
  70
    32
  0
VERTEX
  8
0
  5
A18
 10
178.008
 20
74.8416
 30
0.00000
  70
    32
  0
VERTEX
  8
0
  5
A19
 10
178.013
 20
74.9477
 30
0.00000
  70
    32
  0
VERTEX
  8
0
  5
A1A
 10
178.020
 20
75.0537
 30
0.00000
  70
    32
  0
VERTEX
  8
0
  5
A1B
 10
178.026
 20
75.1597
 30
0.00000
  70
    32
  0
VERTEX
  8
0
  5
A1C
 10
178.033
 20
75.2657
 30
0.00000
  70
    32
  0
VERTEX
  8
0
  5
A1D
 10
178.040
 20
75.3716
 30
0.00000
  70
    32
  0
VERTEX
  8
0
  5
A1E
 10
178.048
 20
75.4775
 30
0.00000
  70
    32
  0
VERTEX
  8
0
  5
A1F
 10
178.056
 20
75.5835
 30
0.00000
  70
    32
  0
VERTEX
  8
0
  5
A20
 10
178.065
 20
75.6894
 30
0.00000
  70
    32
  0
VERTEX
  8
0
  5
A21
 10
178.073
 20
75.7952
 30
0.00000
  70
    32
  0
VERTEX
  8
0
  5
A22
 10
178.083
 20
75.9011
 30
0.00000
  70
    32
  0
VERTEX
  8
0
  5
A23
 10
178.092
 20
76.0069
 30
0.00000
  70
    32
  0
VERTEX
  8
0
  5
A24
 10
178.102
 20
76.1127
 30
0.00000
  70
    32
  0
VERTEX
  8
0
  5
A25
 10
178.112
 20
76.2185
 30
0.00000
  70
    32
  0
VERTEX
  8
0
  5
A26
 10
178.123
 20
76.3242
 30
0.00000
  70
    32
  0
VERTEX
  8
0
  5
A27
 10
178.134
 20
76.4299
 30
0.00000
  70
    32
  0
VERTEX
  8
0
  5
A28
 10
178.146
 20
76.5356
 30
0.00000
  70
    32
  0
VERTEX
  8
0
  5
A29
 10
178.157
 20
76.6413
 30
0.00000
  70
    32
  0
VERTEX
  8
0
  5
A2A
 10
178.170
 20
76.7469
 30
0.00000
  70
    32
  0
VERTEX
  8
0
  5
A2B
 10
178.182
 20
76.8525
 30
0.00000
  70
    32
  0
VERTEX
  8
0
  5
A2C
 10
178.195
 20
76.9580
 30
0.00000
  70
    32
  0
VERTEX
  8
0
  5
A2D
 10
178.208
 20
77.0636
 30
0.00000
  70
    32
  0
VERTEX
  8
0
  5
A2E
 10
178.222
 20
77.1690
 30
0.00000
  70
    32
  0
VERTEX
  8
0
  5
A2F
 10
178.236
 20
77.2745
 30
0.00000
  70
    32
  0
VERTEX
  8
0
  5
A30
 10
178.250
 20
77.3799
 30
0.00000
  70
    32
  0
VERTEX
  8
0
  5
A31
 10
178.265
 20
77.4853
 30
0.00000
  70
    32
  0
VERTEX
  8
0
  5
A32
 10
178.280
 20
77.5906
 30
0.00000
  70
    32
  0
VERTEX
  8
0
  5
A33
 10
178.296
 20
77.6959
 30
0.00000
  70
    32
  0
VERTEX
  8
0
  5
A34
 10
178.312
 20
77.8011
 30
0.00000
  70
    32
  0
VERTEX
  8
0
  5
A35
 10
178.328
 20
77.9063
 30
0.00000
  70
    32
  0
VERTEX
  8
0
  5
A36
 10
178.345
 20
78.0115
 30
0.00000
  70
    32
  0
VERTEX
  8
0
  5
A37
 10
178.362
 20
78.1166
 30
0.00000
  70
    32
  0
VERTEX
  8
0
  5
A38
 10
178.379
 20
78.2217
 30
0.00000
  70
    32
  0
VERTEX
  8
0
  5
A39
 10
178.397
 20
78.3267
 30
0.00000
  70
    32
  0
VERTEX
  8
0
  5
A3A
 10
178.415
 20
78.4317
 30
0.00000
  70
    32
  0
VERTEX
  8
0
  5
A3B
 10
178.434
 20
78.5366
 30
0.00000
  70
    32
  0
VERTEX
  8
0
  5
A3C
 10
178.452
 20
78.6415
 30
0.00000
  70
    32
  0
VERTEX
  8
0
  5
A3D
 10
178.472
 20
78.7463
 30
0.00000
  70
    32
  0
VERTEX
  8
0
  5
A3E
 10
178.491
 20
78.8511
 30
0.00000
  70
    32
  0
VERTEX
  8
0
  5
A3F
 10
178.511
 20
78.9558
 30
0.00000
  70
    32
  0
VERTEX
  8
0
  5
A40
 10
178.532
 20
79.0605
 30
0.00000
  70
    32
  0
VERTEX
  8
0
  5
A41
 10
178.552
 20
79.1651
 30
0.00000
  70
    32
  0
VERTEX
  8
0
  5
A42
 10
178.574
 20
79.2697
 30
0.00000
  70
    32
  0
VERTEX
  8
0
  5
A43
 10
178.595
 20
79.3742
 30
0.00000
  70
    32
  0
VERTEX
  8
0
  5
A44
 10
178.617
 20
79.4787
 30
0.00000
  70
    32
  0
VERTEX
  8
0
  5
A45
 10
178.639
 20
79.5830
 30
0.00000
  70
    32
  0
VERTEX
  8
0
  5
A46
 10
178.662
 20
79.6874
 30
0.00000
  70
    32
  0
VERTEX
  8
0
  5
A47
 10
178.685
 20
79.7916
 30
0.00000
  70
    32
  0
VERTEX
  8
0
  5
A48
 10
178.708
 20
79.8959
 30
0.00000
  70
    32
  0
VERTEX
  8
0
  5
A49
 10
178.732
 20
80.0000
 30
0.00000
  70
    32
  0
SEQEND
  8
0
  5
A4A
  0
ARC
  5
6C0
  8
0
 10
217.9914999999998031
 20
80.0
 30
0.0
 40
42.2414999999998599
 50
161.3618125101556018
 51
198.6381874898443129
  0
LINE
  5
6C1
  8
0
 10
182.4351851851851052
 20
95.7500000000000142
 30
0.0
 11
182.4351851851851052
 21
64.25
 31
0.0
  0
LINE
  5
6C2
  8
0
 10
184.75
 20
95.7500000000000142
 30
0.0
 11
184.75
 21
64.25
 31
0.0
  0
LINE
  5
6C3
  8
0
 10
184.75
 20
64.25
 30
0.0
 11
182.4351851851851052
 21
64.25
 31
0.0
  0
LINE
  5
6C4
  8
0
 10
182.4351851851851052
 20
95.7500000000000142
 30
0.0
 11
184.75
 21
95.7500000000000142
 31
0.0
  0
LINE
  5
6C5
  8
3
 10
194.25
 20
67.9414999999999907
 30
0.0
 11
186.6788469781396884
 21
67.9414999999999907
 31
0.0
  0
LINE
  5
6C6
  8
3
 10
194.25
 20
92.0585000000000093
 30
0.0
 11
186.6788469781396884
 21
92.0585000000000093
 31
0.0
  0
LINE
  5
6E5
  8
0
 10
195.25
 20
212.2998474999999985
 30
0.0
 11
195.25
 21
187.7001525000000015
 31
0.0
  0
LINE
  5
6E6
  8
0
 10
195.25
 20
187.7001525000000015
 30
0.0
 11
194.25
 21
187.7001525000000015
 31
0.0
  0
LINE
  5
6E7
  8
0
 10
194.25
 20
212.2998474999999985
 30
0.0
 11
195.25
 21
212.2998474999999985
 31
0.0
  0
LINE
  5
6E8
  8
0
 10
194.25
 20
213.2199999999999989
 30
0.0
 11
194.25
 21
186.7800000000000011
 31
0.0
  0
LINE
  5
6E9
  8
0
 10
194.25
 20
186.7800000000000011
 30
0.0
 11
186.6788469781396884
 21
186.7800000000000011
 31
0.0
  0
LINE
  5
6EA
  8
0
 10
186.6788469781396884
 20
213.2199999999999989
 30
0.0
 11
194.25
 21
213.2199999999999989
 31
0.0
  0
LINE
  5
6EB
  8
0
 10
186.6788469781396884
 20
215.3877500000000111
 30
0.0
 11
186.6788469781396884
 21
184.6122499999999889
 31
0.0
  0
LINE
  5
6EC
  8
0
 10
186.6788469781396884
 20
184.6122499999999889
 30
0.0
 11
184.75
 21
184.6122499999999889
 31
0.0
  0
LINE
  5
6ED
  8
0
 10
184.75
 20
215.3877500000000111
 30
0.0
 11
186.6788469781396884
 21
215.3877500000000111
 31
0.0
  0
LINE
  5
6EE
  8
0
 10
182.4351851851851052
 20
213.5
 30
0.0
 11
177.9653295330417109
 21
213.5
 31
0.0
  0
LINE
  5
6EF
  8
0
 10
178.7315417441637919
 20
200.0
 30
0.0
 11
182.4351851851851052
 21
200.0
 31
0.0
  0
LINE
  5
6F0
  8
0
 10
182.4351851851851052
 20
186.5
 30
0.0
 11
177.9653295330417109
 21
186.5
 31
0.0
  0
POLYLINE
  5
6F1
  8
0
 10
178.7315417441638203
 20
199.9999999999999147
 30
0.0
 66
     1
 70
     8
  0
VERTEX
  8
0
  5
A4B
 10
178.732
 20
200.000
 30
0.00000
  70
    32
  0
VERTEX
  8
0
  5
A4C
 10
178.708
 20
200.104
 30
0.00000
  70
    32
  0
VERTEX
  8
0
  5
A4D
 10
178.685
 20
200.208
 30
0.00000
  70
    32
  0
VERTEX
  8
0
  5
A4E
 10
178.662
 20
200.313
 30
0.00000
  70
    32
  0
VERTEX
  8
0
  5
A4F
 10
178.639
 20
200.417
 30
0.00000
  70
    32
  0
VERTEX
  8
0
  5
A50
 10
178.617
 20
200.521
 30
0.00000
  70
    32
  0
VERTEX
  8
0
  5
A51
 10
178.595
 20
200.626
 30
0.00000
  70
    32
  0
VERTEX
  8
0
  5
A52
 10
178.574
 20
200.730
 30
0.00000
  70
    32
  0
VERTEX
  8
0
  5
A53
 10
178.552
 20
200.835
 30
0.00000
  70
    32
  0
VERTEX
  8
0
  5
A54
 10
178.532
 20
200.939
 30
0.00000
  70
    32
  0
VERTEX
  8
0
  5
A55
 10
178.511
 20
201.044
 30
0.00000
  70
    32
  0
VERTEX
  8
0
  5
A56
 10
178.491
 20
201.149
 30
0.00000
  70
    32
  0
VERTEX
  8
0
  5
A57
 10
178.472
 20
201.254
 30
0.00000
  70
    32
  0
VERTEX
  8
0
  5
A58
 10
178.452
 20
201.358
 30
0.00000
  70
    32
  0
VERTEX
  8
0
  5
A59
 10
178.434
 20
201.463
 30
0.00000
  70
    32
  0
VERTEX
  8
0
  5
A5A
 10
178.415
 20
201.568
 30
0.00000
  70
    32
  0
VERTEX
  8
0
  5
A5B
 10
178.397
 20
201.673
 30
0.00000
  70
    32
  0
VERTEX
  8
0
  5
A5C
 10
178.379
 20
201.778
 30
0.00000
  70
    32
  0
VERTEX
  8
0
  5
A5D
 10
178.362
 20
201.883
 30
0.00000
  70
    32
  0
VERTEX
  8
0
  5
A5E
 10
178.345
 20
201.988
 30
0.00000
  70
    32
  0
VERTEX
  8
0
  5
A5F
 10
178.328
 20
202.094
 30
0.00000
  70
    32
  0
VERTEX
  8
0
  5
A60
 10
178.312
 20
202.199
 30
0.00000
  70
    32
  0
VERTEX
  8
0
  5
A61
 10
178.296
 20
202.304
 30
0.00000
  70
    32
  0
VERTEX
  8
0
  5
A62
 10
178.280
 20
202.409
 30
0.00000
  70
    32
  0
VERTEX
  8
0
  5
A63
 10
178.265
 20
202.515
 30
0.00000
  70
    32
  0
VERTEX
  8
0
  5
A64
 10
178.250
 20
202.620
 30
0.00000
  70
    32
  0
VERTEX
  8
0
  5
A65
 10
178.236
 20
202.726
 30
0.00000
  70
    32
  0
VERTEX
  8
0
  5
A66
 10
178.222
 20
202.831
 30
0.00000
  70
    32
  0
VERTEX
  8
0
  5
A67
 10
178.208
 20
202.936
 30
0.00000
  70
    32
  0
VERTEX
  8
0
  5
A68
 10
178.195
 20
203.042
 30
0.00000
  70
    32
  0
VERTEX
  8
0
  5
A69
 10
178.182
 20
203.148
 30
0.00000
  70
    32
  0
VERTEX
  8
0
  5
A6A
 10
178.170
 20
203.253
 30
0.00000
  70
    32
  0
VERTEX
  8
0
  5
A6B
 10
178.157
 20
203.359
 30
0.00000
  70
    32
  0
VERTEX
  8
0
  5
A6C
 10
178.146
 20
203.464
 30
0.00000
  70
    32
  0
VERTEX
  8
0
  5
A6D
 10
178.134
 20
203.570
 30
0.00000
  70
    32
  0
VERTEX
  8
0
  5
A6E
 10
178.123
 20
203.676
 30
0.00000
  70
    32
  0
VERTEX
  8
0
  5
A6F
 10
178.112
 20
203.782
 30
0.00000
  70
    32
  0
VERTEX
  8
0
  5
A70
 10
178.102
 20
203.887
 30
0.00000
  70
    32
  0
VERTEX
  8
0
  5
A71
 10
178.092
 20
203.993
 30
0.00000
  70
    32
  0
VERTEX
  8
0
  5
A72
 10
178.083
 20
204.099
 30
0.00000
  70
    32
  0
VERTEX
  8
0
  5
A73
 10
178.073
 20
204.205
 30
0.00000
  70
    32
  0
VERTEX
  8
0
  5
A74
 10
178.065
 20
204.311
 30
0.00000
  70
    32
  0
VERTEX
  8
0
  5
A75
 10
178.056
 20
204.417
 30
0.00000
  70
    32
  0
VERTEX
  8
0
  5
A76
 10
178.048
 20
204.522
 30
0.00000
  70
    32
  0
VERTEX
  8
0
  5
A77
 10
178.040
 20
204.628
 30
0.00000
  70
    32
  0
VERTEX
  8
0
  5
A78
 10
178.033
 20
204.734
 30
0.00000
  70
    32
  0
VERTEX
  8
0
  5
A79
 10
178.026
 20
204.840
 30
0.00000
  70
    32
  0
VERTEX
  8
0
  5
A7A
 10
178.020
 20
204.946
 30
0.00000
  70
    32
  0
VERTEX
  8
0
  5
A7B
 10
178.013
 20
205.052
 30
0.00000
  70
    32
  0
VERTEX
  8
0
  5
A7C
 10
178.008
 20
205.158
 30
0.00000
  70
    32
  0
VERTEX
  8
0
  5
A7D
 10
178.002
 20
205.264
 30
0.00000
  70
    32
  0
VERTEX
  8
0
  5
A7E
 10
177.997
 20
205.370
 30
0.00000
  70
    32
  0
VERTEX
  8
0
  5
A7F
 10
177.992
 20
205.477
 30
0.00000
  70
    32
  0
VERTEX
  8
0
  5
A80
 10
177.988
 20
205.583
 30
0.00000
  70
    32
  0
VERTEX
  8
0
  5
A81
 10
177.984
 20
205.689
 30
0.00000
  70
    32
  0
VERTEX
  8
0
  5
A82
 10
177.981
 20
205.795
 30
0.00000
  70
    32
  0
VERTEX
  8
0
  5
A83
 10
177.977
 20
205.901
 30
0.00000
  70
    32
  0
VERTEX
  8
0
  5
A84
 10
177.975
 20
206.007
 30
0.00000
  70
    32
  0
VERTEX
  8
0
  5
A85
 10
177.972
 20
206.113
 30
0.00000
  70
    32
  0
VERTEX
  8
0
  5
A86
 10
177.970
 20
206.219
 30
0.00000
  70
    32
  0
VERTEX
  8
0
  5
A87
 10
177.968
 20
206.325
 30
0.00000
  70
    32
  0
VERTEX
  8
0
  5
A88
 10
177.967
 20
206.432
 30
0.00000
  70
    32
  0
VERTEX
  8
0
  5
A89
 10
177.966
 20
206.538
 30
0.00000
  70
    32
  0
VERTEX
  8
0
  5
A8A
 10
177.966
 20
206.644
 30
0.00000
  70
    32
  0
VERTEX
  8
0
  5
A8B
 10
177.965
 20
206.750
 30
0.00000
  70
    32
  0
VERTEX
  8
0
  5
A8C
 10
177.966
 20
206.856
 30
0.00000
  70
    32
  0
VERTEX
  8
0
  5
A8D
 10
177.966
 20
206.962
 30
0.00000
  70
    32
  0
VERTEX
  8
0
  5
A8E
 10
177.967
 20
207.068
 30
0.00000
  70
    32
  0
VERTEX
  8
0
  5
A8F
 10
177.968
 20
207.175
 30
0.00000
  70
    32
  0
VERTEX
  8
0
  5
A90
 10
177.970
 20
207.281
 30
0.00000
  70
    32
  0
VERTEX
  8
0
  5
A91
 10
177.972
 20
207.387
 30
0.00000
  70
    32
  0
VERTEX
  8
0
  5
A92
 10
177.975
 20
207.493
 30
0.00000
  70
    32
  0
VERTEX
  8
0
  5
A93
 10
177.977
 20
207.599
 30
0.00000
  70
    32
  0
VERTEX
  8
0
  5
A94
 10
177.981
 20
207.705
 30
0.00000
  70
    32
  0
VERTEX
  8
0
  5
A95
 10
177.984
 20
207.811
 30
0.00000
  70
    32
  0
VERTEX
  8
0
  5
A96
 10
177.988
 20
207.917
 30
0.00000
  70
    32
  0
VERTEX
  8
0
  5
A97
 10
177.992
 20
208.023
 30
0.00000
  70
    32
  0
VERTEX
  8
0
  5
A98
 10
177.997
 20
208.130
 30
0.00000
  70
    32
  0
VERTEX
  8
0
  5
A99
 10
178.002
 20
208.236
 30
0.00000
  70
    32
  0
VERTEX
  8
0
  5
A9A
 10
178.008
 20
208.342
 30
0.00000
  70
    32
  0
VERTEX
  8
0
  5
A9B
 10
178.013
 20
208.448
 30
0.00000
  70
    32
  0
VERTEX
  8
0
  5
A9C
 10
178.020
 20
208.554
 30
0.00000
  70
    32
  0
VERTEX
  8
0
  5
A9D
 10
178.026
 20
208.660
 30
0.00000
  70
    32
  0
VERTEX
  8
0
  5
A9E
 10
178.033
 20
208.766
 30
0.00000
  70
    32
  0
VERTEX
  8
0
  5
A9F
 10
178.040
 20
208.872
 30
0.00000
  70
    32
  0
VERTEX
  8
0
  5
AA0
 10
178.048
 20
208.978
 30
0.00000
  70
    32
  0
VERTEX
  8
0
  5
AA1
 10
178.056
 20
209.083
 30
0.00000
  70
    32
  0
VERTEX
  8
0
  5
AA2
 10
178.065
 20
209.189
 30
0.00000
  70
    32
  0
VERTEX
  8
0
  5
AA3
 10
178.073
 20
209.295
 30
0.00000
  70
    32
  0
VERTEX
  8
0
  5
AA4
 10
178.083
 20
209.401
 30
0.00000
  70
    32
  0
VERTEX
  8
0
  5
AA5
 10
178.092
 20
209.507
 30
0.00000
  70
    32
  0
VERTEX
  8
0
  5
AA6
 10
178.102
 20
209.613
 30
0.00000
  70
    32
  0
VERTEX
  8
0
  5
AA7
 10
178.112
 20
209.718
 30
0.00000
  70
    32
  0
VERTEX
  8
0
  5
AA8
 10
178.123
 20
209.824
 30
0.00000
  70
    32
  0
VERTEX
  8
0
  5
AA9
 10
178.134
 20
209.930
 30
0.00000
  70
    32
  0
VERTEX
  8
0
  5
AAA
 10
178.146
 20
210.036
 30
0.00000
  70
    32
  0
VERTEX
  8
0
  5
AAB
 10
178.157
 20
210.141
 30
0.00000
  70
    32
  0
VERTEX
  8
0
  5
AAC
 10
178.170
 20
210.247
 30
0.00000
  70
    32
  0
VERTEX
  8
0
  5
AAD
 10
178.182
 20
210.352
 30
0.00000
  70
    32
  0
VERTEX
  8
0
  5
AAE
 10
178.195
 20
210.458
 30
0.00000
  70
    32
  0
VERTEX
  8
0
  5
AAF
 10
178.208
 20
210.564
 30
0.00000
  70
    32
  0
VERTEX
  8
0
  5
AB0
 10
178.222
 20
210.669
 30
0.00000
  70
    32
  0
VERTEX
  8
0
  5
AB1
 10
178.236
 20
210.774
 30
0.00000
  70
    32
  0
VERTEX
  8
0
  5
AB2
 10
178.250
 20
210.880
 30
0.00000
  70
    32
  0
VERTEX
  8
0
  5
AB3
 10
178.265
 20
210.985
 30
0.00000
  70
    32
  0
VERTEX
  8
0
  5
AB4
 10
178.280
 20
211.091
 30
0.00000
  70
    32
  0
VERTEX
  8
0
  5
AB5
 10
178.296
 20
211.196
 30
0.00000
  70
    32
  0
VERTEX
  8
0
  5
AB6
 10
178.312
 20
211.301
 30
0.00000
  70
    32
  0
VERTEX
  8
0
  5
AB7
 10
178.328
 20
211.406
 30
0.00000
  70
    32
  0
VERTEX
  8
0
  5
AB8
 10
178.345
 20
211.512
 30
0.00000
  70
    32
  0
VERTEX
  8
0
  5
AB9
 10
178.362
 20
211.617
 30
0.00000
  70
    32
  0
VERTEX
  8
0
  5
ABA
 10
178.379
 20
211.722
 30
0.00000
  70
    32
  0
VERTEX
  8
0
  5
ABB
 10
178.397
 20
211.827
 30
0.00000
  70
    32
  0
VERTEX
  8
0
  5
ABC
 10
178.415
 20
211.932
 30
0.00000
  70
    32
  0
VERTEX
  8
0
  5
ABD
 10
178.434
 20
212.037
 30
0.00000
  70
    32
  0
VERTEX
  8
0
  5
ABE
 10
178.452
 20
212.142
 30
0.00000
  70
    32
  0
VERTEX
  8
0
  5
ABF
 10
178.472
 20
212.246
 30
0.00000
  70
    32
  0
VERTEX
  8
0
  5
AC0
 10
178.491
 20
212.351
 30
0.00000
  70
    32
  0
VERTEX
  8
0
  5
AC1
 10
178.511
 20
212.456
 30
0.00000
  70
    32
  0
VERTEX
  8
0
  5
AC2
 10
178.532
 20
212.561
 30
0.00000
  70
    32
  0
VERTEX
  8
0
  5
AC3
 10
178.552
 20
212.665
 30
0.00000
  70
    32
  0
VERTEX
  8
0
  5
AC4
 10
178.574
 20
212.770
 30
0.00000
  70
    32
  0
VERTEX
  8
0
  5
AC5
 10
178.595
 20
212.874
 30
0.00000
  70
    32
  0
VERTEX
  8
0
  5
AC6
 10
178.617
 20
212.979
 30
0.00000
  70
    32
  0
VERTEX
  8
0
  5
AC7
 10
178.639
 20
213.083
 30
0.00000
  70
    32
  0
VERTEX
  8
0
  5
AC8
 10
178.662
 20
213.187
 30
0.00000
  70
    32
  0
VERTEX
  8
0
  5
AC9
 10
178.685
 20
213.292
 30
0.00000
  70
    32
  0
VERTEX
  8
0
  5
ACA
 10
178.708
 20
213.396
 30
0.00000
  70
    32
  0
VERTEX
  8
0
  5
ACB
 10
178.732
 20
213.500
 30
0.00000
  70
    32
  0
SEQEND
  8
0
  5
ACC
  0
POLYLINE
  5
6F2
  8
0
 10
178.7315417441638488
 20
186.4999999999999716
 30
0.0
 66
     1
 70
     8
  0
VERTEX
  8
0
  5
ACD
 10
178.732
 20
186.500
 30
0.00000
  70
    32
  0
VERTEX
  8
0
  5
ACE
 10
178.708
 20
186.604
 30
0.00000
  70
    32
  0
VERTEX
  8
0
  5
ACF
 10
178.685
 20
186.708
 30
0.00000
  70
    32
  0
VERTEX
  8
0
  5
AD0
 10
178.662
 20
186.813
 30
0.00000
  70
    32
  0
VERTEX
  8
0
  5
AD1
 10
178.639
 20
186.917
 30
0.00000
  70
    32
  0
VERTEX
  8
0
  5
AD2
 10
178.617
 20
187.021
 30
0.00000
  70
    32
  0
VERTEX
  8
0
  5
AD3
 10
178.595
 20
187.126
 30
0.00000
  70
    32
  0
VERTEX
  8
0
  5
AD4
 10
178.574
 20
187.230
 30
0.00000
  70
    32
  0
VERTEX
  8
0
  5
AD5
 10
178.552
 20
187.335
 30
0.00000
  70
    32
  0
VERTEX
  8
0
  5
AD6
 10
178.532
 20
187.439
 30
0.00000
  70
    32
  0
VERTEX
  8
0
  5
AD7
 10
178.511
 20
187.544
 30
0.00000
  70
    32
  0
VERTEX
  8
0
  5
AD8
 10
178.491
 20
187.649
 30
0.00000
  70
    32
  0
VERTEX
  8
0
  5
AD9
 10
178.472
 20
187.754
 30
0.00000
  70
    32
  0
VERTEX
  8
0
  5
ADA
 10
178.452
 20
187.858
 30
0.00000
  70
    32
  0
VERTEX
  8
0
  5
ADB
 10
178.434
 20
187.963
 30
0.00000
  70
    32
  0
VERTEX
  8
0
  5
ADC
 10
178.415
 20
188.068
 30
0.00000
  70
    32
  0
VERTEX
  8
0
  5
ADD
 10
178.397
 20
188.173
 30
0.00000
  70
    32
  0
VERTEX
  8
0
  5
ADE
 10
178.379
 20
188.278
 30
0.00000
  70
    32
  0
VERTEX
  8
0
  5
ADF
 10
178.362
 20
188.383
 30
0.00000
  70
    32
  0
VERTEX
  8
0
  5
AE0
 10
178.345
 20
188.488
 30
0.00000
  70
    32
  0
VERTEX
  8
0
  5
AE1
 10
178.328
 20
188.594
 30
0.00000
  70
    32
  0
VERTEX
  8
0
  5
AE2
 10
178.312
 20
188.699
 30
0.00000
  70
    32
  0
VERTEX
  8
0
  5
AE3
 10
178.296
 20
188.804
 30
0.00000
  70
    32
  0
VERTEX
  8
0
  5
AE4
 10
178.280
 20
188.909
 30
0.00000
  70
    32
  0
VERTEX
  8
0
  5
AE5
 10
178.265
 20
189.015
 30
0.00000
  70
    32
  0
VERTEX
  8
0
  5
AE6
 10
178.250
 20
189.120
 30
0.00000
  70
    32
  0
VERTEX
  8
0
  5
AE7
 10
178.236
 20
189.226
 30
0.00000
  70
    32
  0
VERTEX
  8
0
  5
AE8
 10
178.222
 20
189.331
 30
0.00000
  70
    32
  0
VERTEX
  8
0
  5
AE9
 10
178.208
 20
189.436
 30
0.00000
  70
    32
  0
VERTEX
  8
0
  5
AEA
 10
178.195
 20
189.542
 30
0.00000
  70
    32
  0
VERTEX
  8
0
  5
AEB
 10
178.182
 20
189.648
 30
0.00000
  70
    32
  0
VERTEX
  8
0
  5
AEC
 10
178.170
 20
189.753
 30
0.00000
  70
    32
  0
VERTEX
  8
0
  5
AED
 10
178.157
 20
189.859
 30
0.00000
  70
    32
  0
VERTEX
  8
0
  5
AEE
 10
178.146
 20
189.964
 30
0.00000
  70
    32
  0
VERTEX
  8
0
  5
AEF
 10
178.134
 20
190.070
 30
0.00000
  70
    32
  0
VERTEX
  8
0
  5
AF0
 10
178.123
 20
190.176
 30
0.00000
  70
    32
  0
VERTEX
  8
0
  5
AF1
 10
178.112
 20
190.282
 30
0.00000
  70
    32
  0
VERTEX
  8
0
  5
AF2
 10
178.102
 20
190.387
 30
0.00000
  70
    32
  0
VERTEX
  8
0
  5
AF3
 10
178.092
 20
190.493
 30
0.00000
  70
    32
  0
VERTEX
  8
0
  5
AF4
 10
178.083
 20
190.599
 30
0.00000
  70
    32
  0
VERTEX
  8
0
  5
AF5
 10
178.073
 20
190.705
 30
0.00000
  70
    32
  0
VERTEX
  8
0
  5
AF6
 10
178.065
 20
190.811
 30
0.00000
  70
    32
  0
VERTEX
  8
0
  5
AF7
 10
178.056
 20
190.917
 30
0.00000
  70
    32
  0
VERTEX
  8
0
  5
AF8
 10
178.048
 20
191.022
 30
0.00000
  70
    32
  0
VERTEX
  8
0
  5
AF9
 10
178.040
 20
191.128
 30
0.00000
  70
    32
  0
VERTEX
  8
0
  5
AFA
 10
178.033
 20
191.234
 30
0.00000
  70
    32
  0
VERTEX
  8
0
  5
AFB
 10
178.026
 20
191.340
 30
0.00000
  70
    32
  0
VERTEX
  8
0
  5
AFC
 10
178.020
 20
191.446
 30
0.00000
  70
    32
  0
VERTEX
  8
0
  5
AFD
 10
178.013
 20
191.552
 30
0.00000
  70
    32
  0
VERTEX
  8
0
  5
AFE
 10
178.008
 20
191.658
 30
0.00000
  70
    32
  0
VERTEX
  8
0
  5
AFF
 10
178.002
 20
191.764
 30
0.00000
  70
    32
  0
VERTEX
  8
0
  5
B00
 10
177.997
 20
191.870
 30
0.00000
  70
    32
  0
VERTEX
  8
0
  5
B01
 10
177.992
 20
191.977
 30
0.00000
  70
    32
  0
VERTEX
  8
0
  5
B02
 10
177.988
 20
192.083
 30
0.00000
  70
    32
  0
VERTEX
  8
0
  5
B03
 10
177.984
 20
192.189
 30
0.00000
  70
    32
  0
VERTEX
  8
0
  5
B04
 10
177.981
 20
192.295
 30
0.00000
  70
    32
  0
VERTEX
  8
0
  5
B05
 10
177.977
 20
192.401
 30
0.00000
  70
    32
  0
VERTEX
  8
0
  5
B06
 10
177.975
 20
192.507
 30
0.00000
  70
    32
  0
VERTEX
  8
0
  5
B07
 10
177.972
 20
192.613
 30
0.00000
  70
    32
  0
VERTEX
  8
0
  5
B08
 10
177.970
 20
192.719
 30
0.00000
  70
    32
  0
VERTEX
  8
0
  5
B09
 10
177.968
 20
192.825
 30
0.00000
  70
    32
  0
VERTEX
  8
0
  5
B0A
 10
177.967
 20
192.932
 30
0.00000
  70
    32
  0
VERTEX
  8
0
  5
B0B
 10
177.966
 20
193.038
 30
0.00000
  70
    32
  0
VERTEX
  8
0
  5
B0C
 10
177.966
 20
193.144
 30
0.00000
  70
    32
  0
VERTEX
  8
0
  5
B0D
 10
177.965
 20
193.250
 30
0.00000
  70
    32
  0
VERTEX
  8
0
  5
B0E
 10
177.966
 20
193.356
 30
0.00000
  70
    32
  0
VERTEX
  8
0
  5
B0F
 10
177.966
 20
193.462
 30
0.00000
  70
    32
  0
VERTEX
  8
0
  5
B10
 10
177.967
 20
193.568
 30
0.00000
  70
    32
  0
VERTEX
  8
0
  5
B11
 10
177.968
 20
193.675
 30
0.00000
  70
    32
  0
VERTEX
  8
0
  5
B12
 10
177.970
 20
193.781
 30
0.00000
  70
    32
  0
VERTEX
  8
0
  5
B13
 10
177.972
 20
193.887
 30
0.00000
  70
    32
  0
VERTEX
  8
0
  5
B14
 10
177.975
 20
193.993
 30
0.00000
  70
    32
  0
VERTEX
  8
0
  5
B15
 10
177.977
 20
194.099
 30
0.00000
  70
    32
  0
VERTEX
  8
0
  5
B16
 10
177.981
 20
194.205
 30
0.00000
  70
    32
  0
VERTEX
  8
0
  5
B17
 10
177.984
 20
194.311
 30
0.00000
  70
    32
  0
VERTEX
  8
0
  5
B18
 10
177.988
 20
194.417
 30
0.00000
  70
    32
  0
VERTEX
  8
0
  5
B19
 10
177.992
 20
194.523
 30
0.00000
  70
    32
  0
VERTEX
  8
0
  5
B1A
 10
177.997
 20
194.630
 30
0.00000
  70
    32
  0
VERTEX
  8
0
  5
B1B
 10
178.002
 20
194.736
 30
0.00000
  70
    32
  0
VERTEX
  8
0
  5
B1C
 10
178.008
 20
194.842
 30
0.00000
  70
    32
  0
VERTEX
  8
0
  5
B1D
 10
178.013
 20
194.948
 30
0.00000
  70
    32
  0
VERTEX
  8
0
  5
B1E
 10
178.020
 20
195.054
 30
0.00000
  70
    32
  0
VERTEX
  8
0
  5
B1F
 10
178.026
 20
195.160
 30
0.00000
  70
    32
  0
VERTEX
  8
0
  5
B20
 10
178.033
 20
195.266
 30
0.00000
  70
    32
  0
VERTEX
  8
0
  5
B21
 10
178.040
 20
195.372
 30
0.00000
  70
    32
  0
VERTEX
  8
0
  5
B22
 10
178.048
 20
195.478
 30
0.00000
  70
    32
  0
VERTEX
  8
0
  5
B23
 10
178.056
 20
195.583
 30
0.00000
  70
    32
  0
VERTEX
  8
0
  5
B24
 10
178.065
 20
195.689
 30
0.00000
  70
    32
  0
VERTEX
  8
0
  5
B25
 10
178.073
 20
195.795
 30
0.00000
  70
    32
  0
VERTEX
  8
0
  5
B26
 10
178.083
 20
195.901
 30
0.00000
  70
    32
  0
VERTEX
  8
0
  5
B27
 10
178.092
 20
196.007
 30
0.00000
  70
    32
  0
VERTEX
  8
0
  5
B28
 10
178.102
 20
196.113
 30
0.00000
  70
    32
  0
VERTEX
  8
0
  5
B29
 10
178.112
 20
196.218
 30
0.00000
  70
    32
  0
VERTEX
  8
0
  5
B2A
 10
178.123
 20
196.324
 30
0.00000
  70
    32
  0
VERTEX
  8
0
  5
B2B
 10
178.134
 20
196.430
 30
0.00000
  70
    32
  0
VERTEX
  8
0
  5
B2C
 10
178.146
 20
196.536
 30
0.00000
  70
    32
  0
VERTEX
  8
0
  5
B2D
 10
178.157
 20
196.641
 30
0.00000
  70
    32
  0
VERTEX
  8
0
  5
B2E
 10
178.170
 20
196.747
 30
0.00000
  70
    32
  0
VERTEX
  8
0
  5
B2F
 10
178.182
 20
196.852
 30
0.00000
  70
    32
  0
VERTEX
  8
0
  5
B30
 10
178.195
 20
196.958
 30
0.00000
  70
    32
  0
VERTEX
  8
0
  5
B31
 10
178.208
 20
197.064
 30
0.00000
  70
    32
  0
VERTEX
  8
0
  5
B32
 10
178.222
 20
197.169
 30
0.00000
  70
    32
  0
VERTEX
  8
0
  5
B33
 10
178.236
 20
197.274
 30
0.00000
  70
    32
  0
VERTEX
  8
0
  5
B34
 10
178.250
 20
197.380
 30
0.00000
  70
    32
  0
VERTEX
  8
0
  5
B35
 10
178.265
 20
197.485
 30
0.00000
  70
    32
  0
VERTEX
  8
0
  5
B36
 10
178.280
 20
197.591
 30
0.00000
  70
    32
  0
VERTEX
  8
0
  5
B37
 10
178.296
 20
197.696
 30
0.00000
  70
    32
  0
VERTEX
  8
0
  5
B38
 10
178.312
 20
197.801
 30
0.00000
  70
    32
  0
VERTEX
  8
0
  5
B39
 10
178.328
 20
197.906
 30
0.00000
  70
    32
  0
VERTEX
  8
0
  5
B3A
 10
178.345
 20
198.012
 30
0.00000
  70
    32
  0
VERTEX
  8
0
  5
B3B
 10
178.362
 20
198.117
 30
0.00000
  70
    32
  0
VERTEX
  8
0
  5
B3C
 10
178.379
 20
198.222
 30
0.00000
  70
    32
  0
VERTEX
  8
0
  5
B3D
 10
178.397
 20
198.327
 30
0.00000
  70
    32
  0
VERTEX
  8
0
  5
B3E
 10
178.415
 20
198.432
 30
0.00000
  70
    32
  0
VERTEX
  8
0
  5
B3F
 10
178.434
 20
198.537
 30
0.00000
  70
    32
  0
VERTEX
  8
0
  5
B40
 10
178.452
 20
198.642
 30
0.00000
  70
    32
  0
VERTEX
  8
0
  5
B41
 10
178.472
 20
198.746
 30
0.00000
  70
    32
  0
VERTEX
  8
0
  5
B42
 10
178.491
 20
198.851
 30
0.00000
  70
    32
  0
VERTEX
  8
0
  5
B43
 10
178.511
 20
198.956
 30
0.00000
  70
    32
  0
VERTEX
  8
0
  5
B44
 10
178.532
 20
199.061
 30
0.00000
  70
    32
  0
VERTEX
  8
0
  5
B45
 10
178.552
 20
199.165
 30
0.00000
  70
    32
  0
VERTEX
  8
0
  5
B46
 10
178.574
 20
199.270
 30
0.00000
  70
    32
  0
VERTEX
  8
0
  5
B47
 10
178.595
 20
199.374
 30
0.00000
  70
    32
  0
VERTEX
  8
0
  5
B48
 10
178.617
 20
199.479
 30
0.00000
  70
    32
  0
VERTEX
  8
0
  5
B49
 10
178.639
 20
199.583
 30
0.00000
  70
    32
  0
VERTEX
  8
0
  5
B4A
 10
178.662
 20
199.687
 30
0.00000
  70
    32
  0
VERTEX
  8
0
  5
B4B
 10
178.685
 20
199.792
 30
0.00000
  70
    32
  0
VERTEX
  8
0
  5
B4C
 10
178.708
 20
199.896
 30
0.00000
  70
    32
  0
VERTEX
  8
0
  5
B4D
 10
178.732
 20
200.000
 30
0.00000
  70
    32
  0
SEQEND
  8
0
  5
B4E
  0
ARC
  5
6F3
  8
0
 10
217.9914999999998031
 20
200.0
 30
0.0
 40
42.2414999999998599
 50
161.3618125101556018
 51
198.6381874898443129
  0
LINE
  5
6F4
  8
0
 10
182.4351851851851052
 20
215.75
 30
0.0
 11
182.4351851851851052
 21
184.25
 31
0.0
  0
LINE
  5
6F5
  8
0
 10
184.75
 20
215.75
 30
0.0
 11
184.75
 21
184.25
 31
0.0
  0
LINE
  5
6F6
  8
0
 10
184.75
 20
184.25
 30
0.0
 11
182.4351851851851052
 21
184.25
 31
0.0
  0
LINE
  5
6F7
  8
0
 10
182.4351851851851052
 20
215.75
 30
0.0
 11
184.75
 21
215.75
 31
0.0
  0
LINE
  5
6F8
  8
3
 10
194.25
 20
187.9414999999999907
 30
0.0
 11
186.6788469781396884
 21
187.9414999999999907
 31
0.0
  0
LINE
  5
6F9
  8
3
 10
194.25
 20
212.0585000000000093
 30
0.0
 11
186.6788469781396884
 21
212.0585000000000093
 31
0.0
  0
LINE
  5
6FA
  8
1
 10
200.2499999999998863
 20
200.0
 30
0.0
 11
170.75
 21
200.0
 31
0.0
  0
ARC
  5
769
  8
0
 10
260.9999999999998863
 20
128.2500000000011937
 30
0.0
 40
6.0
 50
46.0836623284730535
 51
133.9163376715266907
  0
LINE
  5
76A
  8
0
 10
266.2722542969510187
 20
131.5027454652544066
 30
0.0
 11
265.1616435747965852
 21
132.5721201691258102
 31
0.0
  0
LINE
  5
76B
  8
0
 10
267.4521531194648105
 20
132.3599921385520872
 30
0.0
 11
266.7783149262667166
 21
133.746700659776792
 31
0.0
  0
LINE
  5
76C
  8
0
 10
270.2599042254000778
 20
143.7754700020554992
 30
0.0
 11
268.7328385969302076
 21
143.5631282967889035
 31
0.0
  0
LINE
  5
76D
  8
0
 10
270.7105854723125162
 20
142.3884157479145074
 30
0.0
 11
269.3503521045537923
 21
141.6626171403933085
 31
0.0
  0
ARC
  5
76E
  8
0
 10
272.1749140664668971
 20
136.369050316094814
 30
0.0
 40
6.0
 50
118.0836623284715046
 51
205.9163376715268896
  0
LINE
  5
76F
  8
0
 10
260.2707824244013182
 20
149.9733766462238123
 30
0.0
 11
260.0008421561532828
 21
148.4554337339152141
 31
0.0
  0
LINE
  5
770
  8
0
 10
261.7292175755990797
 20
149.973376646222107
 30
0.0
 11
261.9991578438467172
 21
148.4554337339154131
 31
0.0
  0
ARC
  5
771
  8
0
 10
267.9064767144358825
 20
149.5059496839045892
 30
0.0
 40
6.0
 50
190.0836623284729967
 51
277.9163376715277991
  0
LINE
  5
772
  8
0
 10
251.2894145276860058
 20
142.3884157479151895
 30
0.0
 11
252.649647895446293
 21
141.6626171403931096
 31
0.0
  0
LINE
  5
773
  8
0
 10
251.7400957746015138
 20
143.7754700020553003
 30
0.0
 11
253.2671614030695935
 21
143.5631282967889035
 31
0.0
  0
ARC
  5
774
  8
0
 10
254.0935232855640891
 20
149.5059496839045892
 30
0.0
 40
6.0
 50
262.0836623284723146
 51
349.9163376715268896
  0
LINE
  5
775
  8
0
 10
255.7277457030477024
 20
131.5027454652532128
 30
0.0
 11
256.8383564252034148
 21
132.5721201691258102
 31
0.0
  0
LINE
  5
776
  8
0
 10
254.5478468805359
 20
132.3599921385535936
 30
0.0
 11
255.2216850737331981
 21
133.7467006597765931
 31
0.0
  0
ARC
  5
777
  8
0
 10
249.8250859335331029
 20
136.3690503160947003
 30
0.0
 40
6.0
 50
334.0836623284716893
 51
61.9163376715284599
  0
CIRCLE
  5
779
  8
0
 10
260.9999999999998863
 20
140.0
 30
0.0
 40
9.9999999999999147
  0
CIRCLE
  5
77A
  8
0
 10
260.9999999999998863
 20
140.0
 30
0.0
 40
11.1500000000000306
  0
CIRCLE
  5
77B
  8
3
 10
260.9999999999998863
 20
140.0
 30
0.0
 40
12.0584999999999791
  0
CIRCLE
  5
77C
  8
0
 10
260.9999999999998863
 20
140.0
 30
0.0
 40
13.2205000000000403
  0
LINE
  5
77D
  8
1
 10
260.9999999999998863
 20
160.75
 30
0.0
 11
260.9999999999998863
 21
119.25
 31
0.0
  0
LINE
  5
77E
  8
1
 10
281.75
 20
140.0
 30
0.0
 11
240.2499999999998863
 21
140.0
 31
0.0
  0
CIRCLE
  5
77F
  8
0
 10
260.9999999999998863
 20
140.0
 30
0.0
 40
15.75
  0
ENDSEC
  0
EOF
