  0
SECTION
  2
HEADER
  9
$ACADVER
  1
AC1009
  9
$INSBASE
 10
0.0
 20
0.0
 30
0.0
  9
$EXTMIN
 10
0.0
 20
-2.960436562073669
 30
-0.0000000000000016
  9
$EXTMAX
 10
179.58466903454931
 20
183.21751164983729
 30
0.0000000000000002
  9
$LIMMIN
 10
0.0
 20
0.0
  9
$LIMMAX
 10
187.5
 20
135.0
  9
$ORTHOMODE
 70
     1
  9
$REGENMODE
 70
     1
  9
$FILLMODE
 70
     1
  9
$QTEXTMODE
 70
     0
  9
$MIRRTEXT
 70
     0
  9
$DRAGMODE
 70
     2
  9
$LTSCALE
 40
5.0
  9
$OSMODE
 70
    37
  9
$ATTMODE
 70
     1
  9
$TEXTSIZE
 40
0.2
  9
$TRACEWID
 40
0.05
  9
$TEXTSTYLE
  7
STANDARD
  9
$CLAYER
  8
0
  9
$CELTYPE
  6
BYLAYER
  9
$CECOLOR
 62
     6
  9
$DIMSCALE
 40
1.0
  9
$DIMASZ
 40
3.0
  9
$DIMEXO
 40
2.0
  9
$DIMDLI
 40
0.3799999999999999
  9
$DIMRND
 40
0.0
  9
$DIMDLE
 40
0.0
  9
$DIMEXE
 40
2.0
  9
$DIMTP
 40
0.0
  9
$DIMTM
 40
0.0
  9
$DIMTXT
 40
3.2000000000000002
  9
$DIMCEN
 40
0.09
  9
$DIMTSZ
 40
0.0
  9
$DIMTOL
 70
     0
  9
$DIMLIM
 70
     0
  9
$DIMTIH
 70
     0
  9
$DIMTOH
 70
     0
  9
$DIMSE1
 70
     0
  9
$DIMSE2
 70
     0
  9
$DIMTAD
 70
     1
  9
$DIMZIN
 70
     8
  9
$DIMBLK
  1

  9
$DIMASO
 70
     0
  9
$DIMSHO
 70
     0
  9
$DIMPOST
  1

  9
$DIMAPOST
  1

  9
$DIMALT
 70
     0
  9
$DIMALTD
 70
     2
  9
$DIMALTF
 40
25.399999999999999
  9
$DIMLFAC
 40
1.0
  9
$DIMTOFL
 70
     0
  9
$DIMTVP
 40
1.6000000000000001
  9
$DIMTIX
 70
     1
  9
$DIMSOXD
 70
     0
  9
$DIMSAH
 70
     0
  9
$DIMBLK1
  1

  9
$DIMBLK2
  1

  9
$DIMSTYLE
  2
STANDARD
  9
$DIMCLRD
 70
     0
  9
$DIMCLRE
 70
     0
  9
$DIMCLRT
 70
     0
  9
$DIMTFAC
 40
1.0
  9
$DIMGAP
 40
1.0
  9
$LUNITS
 70
     2
  9
$LUPREC
 70
     4
  9
$SKETCHINC
 40
0.1
  9
$FILLETRAD
 40
0.4
  9
$AUNITS
 70
     0
  9
$AUPREC
 70
     0
  9
$MENU
  1
E:\r13\win\SUPPORT\ACAD
  9
$ELEVATION
 40
0.0
  9
$PELEVATION
 40
0.0
  9
$THICKNESS
 40
0.0
  9
$LIMCHECK
 70
     0
  9
$BLIPMODE
 70
     0
  9
$CHAMFERA
 40
0.0
  9
$CHAMFERB
 40
0.0
  9
$SKPOLY
 70
     0
  9
$TDCREATE
 40
2456129.6740617128
  9
$TDUPDATE
 40
2456806.433914884
  9
$TDINDWG
 40
0.8654178009
  9
$TDUSRTIMER
 40
2456681.4749344219
  9
$USRTIMER
 70
     1
  9
$ANGBASE
 50
0.0
  9
$ANGDIR
 70
     0
  9
$PDMODE
 70
     0
  9
$PDSIZE
 40
0.0
  9
$PLINEWID
 40
0.0
  9
$COORDS
 70
     1
  9
$SPLFRAME
 70
     0
  9
$SPLINETYPE
 70
     6
  9
$SPLINESEGS
 70
     8
  9
$ATTDIA
 70
     0
  9
$ATTREQ
 70
     1
  9
$HANDLING
 70
     1
  9
$HANDSEED
  5
AA5C
  9
$SURFTAB1
 70
     6
  9
$SURFTAB2
 70
     6
  9
$SURFTYPE
 70
     6
  9
$SURFU
 70
     6
  9
$SURFV
 70
     6
  9
$UCSNAME
  2

  9
$UCSORG
 10
0.0
 20
0.0
 30
0.0
  9
$UCSXDIR
 10
1.0
 20
0.0
 30
0.0
  9
$UCSYDIR
 10
0.0
 20
1.0
 30
0.0
  9
$PUCSNAME
  2

  9
$PUCSORG
 10
0.0
 20
0.0
 30
0.0
  9
$PUCSXDIR
 10
1.0
 20
0.0
 30
0.0
  9
$PUCSYDIR
 10
0.0
 20
1.0
 30
0.0
  9
$USERI1
 70
     0
  9
$USERI2
 70
     1
  9
$USERI3
 70
     0
  9
$USERI4
 70
     0
  9
$USERI5
 70
     0
  9
$USERR1
 40
0.0
  9
$USERR2
 40
0.0
  9
$USERR3
 40
0.0
  9
$USERR4
 40
0.0
  9
$USERR5
 40
0.0
  9
$WORLDVIEW
 70
     1
  9
$SHADEDGE
 70
     3
  9
$SHADEDIF
 70
    70
  9
$TILEMODE
 70
     1
  9
$MAXACTVP
 70
    16
  9
$PLIMCHECK
 70
     0
  9
$PEXTMIN
 10
1.0000000000000000E+020
 20
1.0000000000000000E+020
 30
1.0000000000000000E+020
  9
$PEXTMAX
 10
-1.0000000000000000E+020
 20
-1.0000000000000000E+020
 30
-1.0000000000000000E+020
  9
$PLIMMIN
 10
0.0
 20
0.0
  9
$PLIMMAX
 10
12.0
 20
9.0
  9
$UNITMODE
 70
     0
  9
$VISRETAIN
 70
     0
  9
$PLINEGEN
 70
     0
  9
$PSLTSCALE
 70
     0
  0
ENDSEC
  0
SECTION
  2
TABLES
  0
TABLE
  2
VPORT
 70
     1
  0
VPORT
  2
*ACTIVE
 70
     0
 10
0.0
 20
0.0
 11
1.0
 21
1.0
 12
390.29363784665583
 22
150.0
 13
0.0
 23
0.0
 14
5.0
 24
5.0
 15
5.0
 25
5.0
 16
0.0
 26
0.0
 36
1.0
 17
0.0
 27
0.0
 37
0.0
 40
300.0
 41
2.6019575856443709
 42
50.0
 43
0.0
 44
0.0
 50
0.0
 51
0.0
 71
    16
 72
   500
 73
     1
 74
     0
 75
     0
 76
     0
 77
     0
 78
     2
  0
ENDTAB
  0
TABLE
  2
LTYPE
 70
     3
  0
LTYPE
  2
CONTINUOUS
 70
     0
  3
Solid Line
 72
    65
 73
     0
 40
0.0
  0
LTYPE
  2
CENTER
 70
     0
  3
____ _ ____ _ ____ _ ____ _ ____ _ ____ _ ____
 72
    65
 73
     4
 40
2.0
 49
1.25
 49
-0.25
 49
0.25
 49
-0.25
  0
LTYPE
  2
PHANTOM2
 70
     0
  3
___ _ _ ___ _ _ ___ _ _ ___ _ _
 72
    65
 73
     6
 40
1.25
 49
0.625
 49
-0.125
 49
0.125
 49
-0.125
 49
0.125
 49
-0.125
  0
ENDTAB
  0
TABLE
  2
LAYER
 70
     3
  0
LAYER
  2
0
 70
     0
 62
     7
  6
CONTINUOUS
  0
LAYER
  2
1
 70
     0
 62
     1
  6
CENTER
  0
LAYER
  2
3
 70
     0
 62
     3
  6
CONTINUOUS
  0
ENDTAB
  0
TABLE
  2
STYLE
 70
     2
  0
STYLE
  2
STANDARD
 70
     0
 40
0.0
 41
1.0
 50
0.0
 71
     0
 42
0.2
  3
TXT
  4
BIGFONT
  0
STYLE
  2
STANDARD1
 70
     0
 40
0.0
 41
1.0
 50
0.0
 71
     0
 42
3.0
  3
txt
  4

  0
ENDTAB
  0
TABLE
  2
VIEW
 70
     0
  0
ENDTAB
  0
TABLE
  2
UCS
 70
     0
  0
ENDTAB
  0
TABLE
  2
APPID
 70
     7
  0
APPID
  2
ACAD
 70
     0
  0
APPID
  2
ACAD_MLEADERVER
 70
     0
  0
APPID
  2
ACAD_PSEXT
 70
     0
  0
APPID
  2
ACAD_EXEMPT_FROM_CAD_STANDARDS
 70
     0
  0
APPID
  2
ACAD_DSTYLE_DIMJAG
 70
     0
  0
APPID
  2
ACAD_DSTYLE_DIMTALN
 70
     0
  0
APPID
  2
ACAD_NAV_VCDISPLAY
 70
     0
  0
ENDTAB
  0
TABLE
  2
DIMSTYLE
 70
     1
  0
DIMSTYLE
  2
STANDARD
 70
     0
  3

  4

  5

  6

  7

 40
1.0
 41
0.18
 42
0.0625
 43
0.38
 44
0.18
 45
0.0
 46
0.0
 47
0.0
 48
0.0
140
0.18
141
0.09
142
0.0
143
25.399999999999999
144
1.0
145
0.0
146
1.0
147
0.09
 71
     0
 72
     0
 73
     1
 74
     1
 75
     0
 76
     0
 77
     0
 78
     0
170
     0
171
     2
172
     0
173
     0
174
     0
175
     0
176
     0
177
     0
178
     0
  0
ENDTAB
  0
ENDSEC
  0
SECTION
  2
BLOCKS
  0
BLOCK
  8
0
  2
$MODEL_SPACE
 70
     0
 10
0.0
 20
0.0
 30
0.0
  3
$MODEL_SPACE
  1

  0
ENDBLK
  5
9
  8
0
  0
BLOCK
 67
     1
  8
0
  2
$PAPER_SPACE
 70
     0
 10
0.0
 20
0.0
 30
0.0
  3
$PAPER_SPACE
  1

  0
ENDBLK
  5
E
 67
     1
  8
0
  0
ENDSEC
  0
SECTION
  2
ENTITIES
  0
LINE
  5
5025
  8
1
 10
140.08466903454939
 20
41.238470432461099
 30
0.0000000000000002
 11
140.08466903454931
 21
118.238470432461
 31
0.0
  0
LINE
  5
5026
  8
0
 10
116.2919089530341
 20
113.7384704324611
 30
0.0
 11
115.8846690345494
 21
113.7384704324611
 31
0.0
  0
ARC
  5
5027
  8
0
 10
115.8846690345494
 20
102.9384704324611
 30
0.0
 40
10.800000000000001
 50
90.0
 51
248.5033330048735
  0
LINE
  5
5028
  8
0
 10
164.28466903454941
 20
113.7384704324611
 30
0.0
 11
163.87742911606449
 21
113.7384704324611
 31
0.0
  0
ARC
  5
5029
  8
0
 10
164.28466903454941
 20
102.9384704324611
 30
0.0
 40
10.80000000000001
 50
291.4966669951263
 51
90.0
  0
ARC
  5
502A
  8
0
 10
153.61697474645581
 20
172.1163768922903
 30
0.0
 40
89.526041666666075
 50
242.2461603245749
 51
254.76050568516891
  0
ARC
  5
502B
  8
0
 10
126.5523633226433
 20
172.1163768922892
 30
0.0
 40
89.52604166666498
 50
285.23949431483118
 51
297.75383967542501
  0
LINE
  5
502C
  8
0
 10
130.08466903454939
 20
85.738470432461085
 30
0.0
 11
130.08466903454939
 21
77.738470432461085
 31
0.0
  0
LINE
  5
502D
  8
0
 10
150.08466903454939
 20
77.738470432461085
 30
0.0
 11
150.08466903454939
 21
85.738470432461085
 31
0.0
  0
LINE
  5
5032
  8
0
 10
131.71348642019899
 20
110.488731711144
 30
0.0
 11
148.4558516488998
 21
110.488731711144
 31
0.0
  0
LINE
  5
5034
  8
0
 10
150.08466903454939
 20
77.738470432461085
 30
0.0
 11
130.08466903454939
 21
77.738470432461085
 31
0.0
  0
POLYLINE
  5
5035
  8
0
 66
     1
 10
0.0
 20
0.0
 30
0.0
  0
VERTEX
  5
A662
  8
0
 10
128.11016800527381
 20
110.9189258043496
 30
0.0
  0
VERTEX
  5
A663
  8
0
 10
128.22226243844449
 20
110.8983265278536
 30
0.0
  0
VERTEX
  5
A664
  8
0
 10
128.44992348089531
 20
110.85763499830701
 30
0.0
  0
VERTEX
  5
A665
  8
0
 10
128.68091455141959
 20
110.8179143296824
 30
0.0
  0
VERTEX
  5
A666
  8
0
 10
128.7971695010624
 20
110.79852290683991
 30
0.0
  0
VERTEX
  5
A667
  8
0
 10
128.91367394430429
 20
110.7794961251666
 30
0.0
  0
VERTEX
  5
A668
  8
0
 10
129.1466799819903
 20
110.74268037607131
 30
0.0
  0
VERTEX
  5
A669
  8
0
 10
129.37842606239809
 20
110.70774057951191
 30
0.0
  0
VERTEX
  5
A66A
  8
0
 10
129.60741902391641
 20
110.6749239988699
 30
0.0
  0
VERTEX
  5
A66B
  8
0
 10
129.832297188692
 20
110.64443546440179
 30
0.0
  0
VERTEX
  5
A66C
  8
0
 10
130.05183668858791
 20
110.616440027336
 30
0.0
  0
VERTEX
  5
A66D
  8
0
 10
130.15918723600211
 20
110.60342741343921
 30
0.0
  0
VERTEX
  5
A66E
  8
0
 10
130.26471018685481
 20
110.5910941481587
 30
0.0
  0
VERTEX
  5
A66F
  8
0
 10
130.46967155001281
 20
110.5685186018064
 30
0.0
  0
VERTEX
  5
A670
  8
0
 10
130.66559114924189
 20
110.548794404674
 30
0.0
  0
VERTEX
  5
A671
  8
0
 10
130.85142515411559
 20
110.53196565964799
 30
0.0
  0
VERTEX
  5
A672
  8
0
 10
131.02625933270409
 20
110.5180340849541
 30
0.0
  0
VERTEX
  5
A673
  8
0
 10
131.19295222061649
 20
110.5067341234235
 30
0.0
  0
VERTEX
  5
A674
  8
0
 10
131.2738647256536
 20
110.5020462935875
 30
0.0
  0
VERTEX
  5
A675
  8
0
 10
131.3528873458875
 20
110.49803325317301
 30
0.0
  0
VERTEX
  5
A676
  8
0
 10
131.50452255728419
 20
110.49211373925959
 30
0.0
  0
VERTEX
  5
A677
  8
0
 10
131.64649766744731
 20
110.48911028740579
 30
0.0
  0
VERTEX
  5
A678
  8
0
 10
131.71348642019899
 20
110.488731711144
 30
0.0
  0
SEQEND
  5
A679
  8
0
  0
POLYLINE
  5
5039
  8
0
 66
     1
 10
0.0
 20
0.0
 30
0.0
  0
VERTEX
  5
A67A
  8
0
 10
148.4558516488998
 20
110.488731711144
 30
0.0
  0
VERTEX
  5
A67B
  8
0
 10
148.5196097662236
 20
110.48907537255479
 30
0.0
  0
VERTEX
  5
A67C
  8
0
 10
148.6569355139535
 20
110.4918773959168
 30
0.0
  0
VERTEX
  5
A67D
  8
0
 10
148.80694496868711
 20
110.4975907453166
 30
0.0
  0
VERTEX
  5
A67E
  8
0
 10
148.88651410500501
 20
110.50156225959429
 30
0.0
  0
VERTEX
  5
A67F
  8
0
 10
148.96900496104601
 20
110.5062835904788
 30
0.0
  0
VERTEX
  5
A680
  8
0
 10
149.14233877408449
 20
110.51797942305841
 30
0.0
  0
VERTEX
  5
A681
  8
0
 10
149.32601207553989
 20
110.53265769652251
 30
0.0
  0
VERTEX
  5
A682
  8
0
 10
149.51893467815751
 20
110.5502537850774
 30
0.0
  0
VERTEX
  5
A683
  8
0
 10
149.7199847409147
 20
110.5706713536909
 30
0.0
  0
VERTEX
  5
A684
  8
0
 10
149.92799457300259
 20
110.5937850149374
 30
0.0
  0
VERTEX
  5
A685
  8
0
 10
150.0341727022554
 20
110.60629917723961
 30
0.0
  0
VERTEX
  5
A686
  8
0
 10
150.1415535101612
 20
110.6194179268838
 30
0.0
  0
VERTEX
  5
A687
  8
0
 10
150.35916276705279
 20
110.6473553850882
 30
0.0
  0
VERTEX
  5
A688
  8
0
 10
150.57926118186921
 20
110.67734800796021
 30
0.0
  0
VERTEX
  5
A689
  8
0
 10
150.80018851943291
 20
110.7091062797201
 30
0.0
  0
VERTEX
  5
A68A
  8
0
 10
151.02048196763911
 20
110.74234442209119
 30
0.0
  0
VERTEX
  5
A68B
  8
0
 10
151.24463669223701
 20
110.7777163990516
 30
0.0
  0
VERTEX
  5
A68C
  8
0
 10
151.35867834568791
 20
110.79629888151
 30
0.0
  0
VERTEX
  5
A68D
  8
0
 10
151.47379159994591
 20
110.81545154795189
 30
0.0
  0
VERTEX
  5
A68E
  8
0
 10
151.70651295596031
 20
110.85537484443969
 30
0.0
  0
VERTEX
  5
A68F
  8
0
 10
151.94137750652911
 20
110.8972893576222
 30
0.0
  0
VERTEX
  5
A690
  8
0
 10
152.05917006382501
 20
110.9189258043496
 30
0.0
  0
SEQEND
  5
A691
  8
0
  0
POLYLINE
  5
503C
  8
0
 10
152.05917006382481
 20
110.91892580434946
 30
0.0
 66
     1
 70
     8
  0
VERTEX
  8
0
  5
A854
 10
152.059
 20
110.919
 30
0.000000
  70
    32
  0
VERTEX
  8
0
  5
A855
 10
152.114
 20
110.929
 30
0.000000
  70
    32
  0
VERTEX
  8
0
  5
A856
 10
152.169
 20
110.939
 30
0.000000
  70
    32
  0
VERTEX
  8
0
  5
A857
 10
152.224
 20
110.950
 30
0.000000
  70
    32
  0
VERTEX
  8
0
  5
A858
 10
152.279
 20
110.960
 30
0.000000
  70
    32
  0
VERTEX
  8
0
  5
A859
 10
152.334
 20
110.970
 30
0.000000
  70
    32
  0
VERTEX
  8
0
  5
A85A
 10
152.389
 20
110.981
 30
0.000000
  70
    32
  0
VERTEX
  8
0
  5
A85B
 10
152.444
 20
110.991
 30
0.000000
  70
    32
  0
VERTEX
  8
0
  5
A85C
 10
152.499
 20
111.002
 30
0.000000
  70
    32
  0
VERTEX
  8
0
  5
A85D
 10
152.554
 20
111.013
 30
0.000000
  70
    32
  0
VERTEX
  8
0
  5
A85E
 10
152.609
 20
111.023
 30
0.000000
  70
    32
  0
VERTEX
  8
0
  5
A85F
 10
152.664
 20
111.034
 30
0.000000
  70
    32
  0
VERTEX
  8
0
  5
A860
 10
152.719
 20
111.045
 30
0.000000
  70
    32
  0
VERTEX
  8
0
  5
A861
 10
152.773
 20
111.055
 30
0.000000
  70
    32
  0
VERTEX
  8
0
  5
A862
 10
152.828
 20
111.066
 30
0.000000
  70
    32
  0
VERTEX
  8
0
  5
A863
 10
152.883
 20
111.077
 30
0.000000
  70
    32
  0
VERTEX
  8
0
  5
A864
 10
152.938
 20
111.088
 30
0.000000
  70
    32
  0
VERTEX
  8
0
  5
A865
 10
152.993
 20
111.099
 30
0.000000
  70
    32
  0
VERTEX
  8
0
  5
A866
 10
153.048
 20
111.110
 30
0.000000
  70
    32
  0
VERTEX
  8
0
  5
A867
 10
153.103
 20
111.121
 30
0.000000
  70
    32
  0
VERTEX
  8
0
  5
A868
 10
153.157
 20
111.132
 30
0.000000
  70
    32
  0
VERTEX
  8
0
  5
A869
 10
153.212
 20
111.143
 30
0.000000
  70
    32
  0
VERTEX
  8
0
  5
A86A
 10
153.267
 20
111.154
 30
0.000000
  70
    32
  0
VERTEX
  8
0
  5
A86B
 10
153.322
 20
111.166
 30
0.000000
  70
    32
  0
VERTEX
  8
0
  5
A86C
 10
153.377
 20
111.177
 30
0.000000
  70
    32
  0
VERTEX
  8
0
  5
A86D
 10
153.431
 20
111.188
 30
0.000000
  70
    32
  0
VERTEX
  8
0
  5
A86E
 10
153.486
 20
111.200
 30
0.000000
  70
    32
  0
VERTEX
  8
0
  5
A86F
 10
153.541
 20
111.211
 30
0.000000
  70
    32
  0
VERTEX
  8
0
  5
A870
 10
153.596
 20
111.223
 30
0.000000
  70
    32
  0
VERTEX
  8
0
  5
A871
 10
153.650
 20
111.234
 30
0.000000
  70
    32
  0
VERTEX
  8
0
  5
A872
 10
153.705
 20
111.246
 30
0.000000
  70
    32
  0
VERTEX
  8
0
  5
A873
 10
153.760
 20
111.257
 30
0.000000
  70
    32
  0
VERTEX
  8
0
  5
A874
 10
153.815
 20
111.269
 30
0.000000
  70
    32
  0
VERTEX
  8
0
  5
A875
 10
153.869
 20
111.281
 30
0.000000
  70
    32
  0
VERTEX
  8
0
  5
A876
 10
153.924
 20
111.292
 30
0.000000
  70
    32
  0
VERTEX
  8
0
  5
A877
 10
153.979
 20
111.304
 30
0.000000
  70
    32
  0
VERTEX
  8
0
  5
A878
 10
154.033
 20
111.316
 30
0.000000
  70
    32
  0
VERTEX
  8
0
  5
A879
 10
154.088
 20
111.328
 30
0.000000
  70
    32
  0
VERTEX
  8
0
  5
A87A
 10
154.143
 20
111.340
 30
0.000000
  70
    32
  0
VERTEX
  8
0
  5
A87B
 10
154.197
 20
111.352
 30
0.000000
  70
    32
  0
VERTEX
  8
0
  5
A87C
 10
154.252
 20
111.364
 30
0.000000
  70
    32
  0
VERTEX
  8
0
  5
A87D
 10
154.307
 20
111.376
 30
0.000000
  70
    32
  0
VERTEX
  8
0
  5
A87E
 10
154.361
 20
111.388
 30
0.000000
  70
    32
  0
VERTEX
  8
0
  5
A87F
 10
154.416
 20
111.400
 30
0.000000
  70
    32
  0
VERTEX
  8
0
  5
A880
 10
154.470
 20
111.412
 30
0.000000
  70
    32
  0
VERTEX
  8
0
  5
A881
 10
154.525
 20
111.424
 30
0.000000
  70
    32
  0
VERTEX
  8
0
  5
A882
 10
154.580
 20
111.437
 30
0.000000
  70
    32
  0
VERTEX
  8
0
  5
A883
 10
154.634
 20
111.449
 30
0.000000
  70
    32
  0
VERTEX
  8
0
  5
A884
 10
154.689
 20
111.461
 30
0.000000
  70
    32
  0
VERTEX
  8
0
  5
A885
 10
154.743
 20
111.474
 30
0.000000
  70
    32
  0
VERTEX
  8
0
  5
A886
 10
154.798
 20
111.486
 30
0.000000
  70
    32
  0
VERTEX
  8
0
  5
A887
 10
154.852
 20
111.499
 30
0.000000
  70
    32
  0
VERTEX
  8
0
  5
A888
 10
154.907
 20
111.511
 30
0.000000
  70
    32
  0
VERTEX
  8
0
  5
A889
 10
154.961
 20
111.524
 30
0.000000
  70
    32
  0
VERTEX
  8
0
  5
A88A
 10
155.016
 20
111.537
 30
0.000000
  70
    32
  0
VERTEX
  8
0
  5
A88B
 10
155.070
 20
111.549
 30
0.000000
  70
    32
  0
VERTEX
  8
0
  5
A88C
 10
155.125
 20
111.562
 30
0.000000
  70
    32
  0
VERTEX
  8
0
  5
A88D
 10
155.179
 20
111.575
 30
0.000000
  70
    32
  0
VERTEX
  8
0
  5
A88E
 10
155.234
 20
111.588
 30
0.000000
  70
    32
  0
VERTEX
  8
0
  5
A88F
 10
155.288
 20
111.601
 30
0.000000
  70
    32
  0
VERTEX
  8
0
  5
A890
 10
155.342
 20
111.614
 30
0.000000
  70
    32
  0
VERTEX
  8
0
  5
A891
 10
155.397
 20
111.627
 30
0.000000
  70
    32
  0
VERTEX
  8
0
  5
A892
 10
155.451
 20
111.640
 30
0.000000
  70
    32
  0
VERTEX
  8
0
  5
A893
 10
155.506
 20
111.653
 30
0.000000
  70
    32
  0
VERTEX
  8
0
  5
A894
 10
155.560
 20
111.666
 30
0.000000
  70
    32
  0
VERTEX
  8
0
  5
A895
 10
155.614
 20
111.679
 30
0.000000
  70
    32
  0
VERTEX
  8
0
  5
A896
 10
155.669
 20
111.692
 30
0.000000
  70
    32
  0
VERTEX
  8
0
  5
A897
 10
155.723
 20
111.705
 30
0.000000
  70
    32
  0
VERTEX
  8
0
  5
A898
 10
155.777
 20
111.719
 30
0.000000
  70
    32
  0
VERTEX
  8
0
  5
A899
 10
155.832
 20
111.732
 30
0.000000
  70
    32
  0
VERTEX
  8
0
  5
A89A
 10
155.886
 20
111.745
 30
0.000000
  70
    32
  0
VERTEX
  8
0
  5
A89B
 10
155.940
 20
111.759
 30
0.000000
  70
    32
  0
VERTEX
  8
0
  5
A89C
 10
155.995
 20
111.772
 30
0.000000
  70
    32
  0
VERTEX
  8
0
  5
A89D
 10
156.049
 20
111.786
 30
0.000000
  70
    32
  0
VERTEX
  8
0
  5
A89E
 10
156.103
 20
111.799
 30
0.000000
  70
    32
  0
VERTEX
  8
0
  5
A89F
 10
156.157
 20
111.813
 30
0.000000
  70
    32
  0
VERTEX
  8
0
  5
A8A0
 10
156.212
 20
111.827
 30
0.000000
  70
    32
  0
VERTEX
  8
0
  5
A8A1
 10
156.266
 20
111.840
 30
0.000000
  70
    32
  0
VERTEX
  8
0
  5
A8A2
 10
156.320
 20
111.854
 30
0.000000
  70
    32
  0
VERTEX
  8
0
  5
A8A3
 10
156.374
 20
111.868
 30
0.000000
  70
    32
  0
VERTEX
  8
0
  5
A8A4
 10
156.429
 20
111.882
 30
0.000000
  70
    32
  0
VERTEX
  8
0
  5
A8A5
 10
156.483
 20
111.896
 30
0.000000
  70
    32
  0
VERTEX
  8
0
  5
A8A6
 10
156.537
 20
111.910
 30
0.000000
  70
    32
  0
VERTEX
  8
0
  5
A8A7
 10
156.591
 20
111.924
 30
0.000000
  70
    32
  0
VERTEX
  8
0
  5
A8A8
 10
156.645
 20
111.938
 30
0.000000
  70
    32
  0
VERTEX
  8
0
  5
A8A9
 10
156.699
 20
111.952
 30
0.000000
  70
    32
  0
VERTEX
  8
0
  5
A8AA
 10
156.754
 20
111.966
 30
0.000000
  70
    32
  0
VERTEX
  8
0
  5
A8AB
 10
156.808
 20
111.980
 30
0.000000
  70
    32
  0
VERTEX
  8
0
  5
A8AC
 10
156.862
 20
111.994
 30
0.000000
  70
    32
  0
VERTEX
  8
0
  5
A8AD
 10
156.916
 20
112.008
 30
0.000000
  70
    32
  0
VERTEX
  8
0
  5
A8AE
 10
156.970
 20
112.023
 30
0.000000
  70
    32
  0
VERTEX
  8
0
  5
A8AF
 10
157.024
 20
112.037
 30
0.000000
  70
    32
  0
VERTEX
  8
0
  5
A8B0
 10
157.078
 20
112.051
 30
0.000000
  70
    32
  0
VERTEX
  8
0
  5
A8B1
 10
157.132
 20
112.066
 30
0.000000
  70
    32
  0
VERTEX
  8
0
  5
A8B2
 10
157.186
 20
112.080
 30
0.000000
  70
    32
  0
VERTEX
  8
0
  5
A8B3
 10
157.240
 20
112.095
 30
0.000000
  70
    32
  0
VERTEX
  8
0
  5
A8B4
 10
157.294
 20
112.109
 30
0.000000
  70
    32
  0
VERTEX
  8
0
  5
A8B5
 10
157.348
 20
112.124
 30
0.000000
  70
    32
  0
VERTEX
  8
0
  5
A8B6
 10
157.402
 20
112.139
 30
0.000000
  70
    32
  0
VERTEX
  8
0
  5
A8B7
 10
157.456
 20
112.153
 30
0.000000
  70
    32
  0
VERTEX
  8
0
  5
A8B8
 10
157.510
 20
112.168
 30
0.000000
  70
    32
  0
VERTEX
  8
0
  5
A8B9
 10
157.564
 20
112.183
 30
0.000000
  70
    32
  0
VERTEX
  8
0
  5
A8BA
 10
157.618
 20
112.198
 30
0.000000
  70
    32
  0
VERTEX
  8
0
  5
A8BB
 10
157.672
 20
112.213
 30
0.000000
  70
    32
  0
VERTEX
  8
0
  5
A8BC
 10
157.726
 20
112.228
 30
0.000000
  70
    32
  0
VERTEX
  8
0
  5
A8BD
 10
157.780
 20
112.243
 30
0.000000
  70
    32
  0
VERTEX
  8
0
  5
A8BE
 10
157.834
 20
112.258
 30
0.000000
  70
    32
  0
VERTEX
  8
0
  5
A8BF
 10
157.888
 20
112.273
 30
0.000000
  70
    32
  0
VERTEX
  8
0
  5
A8C0
 10
157.941
 20
112.288
 30
0.000000
  70
    32
  0
VERTEX
  8
0
  5
A8C1
 10
157.995
 20
112.303
 30
0.000000
  70
    32
  0
VERTEX
  8
0
  5
A8C2
 10
158.049
 20
112.318
 30
0.000000
  70
    32
  0
VERTEX
  8
0
  5
A8C3
 10
158.103
 20
112.333
 30
0.000000
  70
    32
  0
VERTEX
  8
0
  5
A8C4
 10
158.157
 20
112.349
 30
0.000000
  70
    32
  0
VERTEX
  8
0
  5
A8C5
 10
158.210
 20
112.364
 30
0.000000
  70
    32
  0
VERTEX
  8
0
  5
A8C6
 10
158.264
 20
112.379
 30
0.000000
  70
    32
  0
VERTEX
  8
0
  5
A8C7
 10
158.318
 20
112.395
 30
0.000000
  70
    32
  0
VERTEX
  8
0
  5
A8C8
 10
158.372
 20
112.410
 30
0.000000
  70
    32
  0
VERTEX
  8
0
  5
A8C9
 10
158.426
 20
112.426
 30
0.000000
  70
    32
  0
VERTEX
  8
0
  5
A8CA
 10
158.479
 20
112.441
 30
0.000000
  70
    32
  0
VERTEX
  8
0
  5
A8CB
 10
158.533
 20
112.457
 30
0.000000
  70
    32
  0
VERTEX
  8
0
  5
A8CC
 10
158.587
 20
112.473
 30
0.000000
  70
    32
  0
VERTEX
  8
0
  5
A8CD
 10
158.640
 20
112.488
 30
0.000000
  70
    32
  0
VERTEX
  8
0
  5
A8CE
 10
158.694
 20
112.504
 30
0.000000
  70
    32
  0
VERTEX
  8
0
  5
A8CF
 10
158.748
 20
112.520
 30
0.000000
  70
    32
  0
VERTEX
  8
0
  5
A8D0
 10
158.801
 20
112.536
 30
0.000000
  70
    32
  0
VERTEX
  8
0
  5
A8D1
 10
158.855
 20
112.552
 30
0.000000
  70
    32
  0
VERTEX
  8
0
  5
A8D2
 10
158.909
 20
112.567
 30
0.000000
  70
    32
  0
VERTEX
  8
0
  5
A8D3
 10
158.962
 20
112.583
 30
0.000000
  70
    32
  0
VERTEX
  8
0
  5
A8D4
 10
159.016
 20
112.599
 30
0.000000
  70
    32
  0
SEQEND
  8
0
  5
A8D5
  0
POLYLINE
  5
503D
  8
0
 66
     1
 10
0.0
 20
0.0
 30
0.0
  0
VERTEX
  5
A692
  8
0
 10
159.01591013913611
 20
112.5994204856967
 30
0.0
  0
VERTEX
  5
A693
  8
0
 10
159.1410989264329
 20
112.6604166048528
 30
0.0
  0
VERTEX
  5
A694
  8
0
 10
159.3906047206226
 20
112.776216755251
 30
0.0
  0
VERTEX
  5
A695
  8
0
 10
159.6380231750129
 20
112.8836766311328
 30
0.0
  0
VERTEX
  5
A696
  8
0
 10
159.76090930409271
 20
112.9343930316597
 30
0.0
  0
VERTEX
  5
A697
  8
0
 10
159.88541218599039
 20
112.9840148254889
 30
0.0
  0
VERTEX
  5
A698
  8
0
 10
160.14016437434839
 20
113.08012720441251
 30
0.0
  0
VERTEX
  5
A699
  8
0
 10
160.40186861048059
 20
113.17145060619249
 30
0.0
  0
VERTEX
  5
A69A
  8
0
 10
160.669647169337
 20
113.2573184988439
 30
0.0
  0
VERTEX
  5
A69B
  8
0
 10
160.9426006237945
 20
113.33714907580369
 30
0.0
  0
VERTEX
  5
A69C
  8
0
 10
161.2198047501218
 20
113.41044549563379
 30
0.0
  0
VERTEX
  5
A69D
  8
0
 10
161.35970331154201
 20
113.44451122573081
 30
0.0
  0
VERTEX
  5
A69E
  8
0
 10
161.50030436808649
 20
113.476795757652
 30
0.0
  0
VERTEX
  5
A69F
  8
0
 10
161.78312276916921
 20
113.5358765199653
 30
0.0
  0
VERTEX
  5
A6A0
  8
0
 10
162.06730835632419
 20
113.5874615380858
 30
0.0
  0
VERTEX
  5
A6A1
  8
0
 10
162.3518778130252
 20
113.6314079557648
 30
0.0
  0
VERTEX
  5
A6A2
  8
0
 10
162.63580159156459
 20
113.6676567282413
 30
0.0
  0
VERTEX
  5
A6A3
  8
0
 10
162.91803940613119
 20
113.69623967188529
 30
0.0
  0
VERTEX
  5
A6A4
  8
0
 10
163.05820035801821
 20
113.7076912051632
 30
0.0
  0
VERTEX
  5
A6A5
  8
0
 10
163.1975477616873
 20
113.7172790602807
 30
0.0
  0
VERTEX
  5
A6A6
  8
0
 10
163.47327136476861
 20
113.7309853996027
 30
0.0
  0
VERTEX
  5
A6A7
  8
0
 10
163.74414459431981
 20
113.7376564987856
 30
0.0
  0
VERTEX
  5
A6A8
  8
0
 10
163.87742911606449
 20
113.7384704324611
 30
0.0
  0
SEQEND
  5
A6A9
  8
0
  0
POLYLINE
  5
5044
  8
0
 66
     1
 10
0.0
 20
0.0
 30
0.0
  0
VERTEX
  5
A6AA
  8
0
 10
121.1534279299627
 20
112.5994204856967
 30
0.0
  0
VERTEX
  5
A6AB
  8
0
 10
121.0282391426659
 20
112.6604166048528
 30
0.0
  0
VERTEX
  5
A6AC
  8
0
 10
120.77873334847609
 20
112.776216755251
 30
0.0
  0
VERTEX
  5
A6AD
  8
0
 10
120.5313148940858
 20
112.8836766311328
 30
0.0
  0
VERTEX
  5
A6AE
  8
0
 10
120.40842876500599
 20
112.9343930316597
 30
0.0
  0
VERTEX
  5
A6AF
  8
0
 10
120.2839258831084
 20
112.9840148254889
 30
0.0
  0
VERTEX
  5
A6B0
  8
0
 10
120.0291736947504
 20
113.08012720441251
 30
0.0
  0
VERTEX
  5
A6B1
  8
0
 10
119.767469458618
 20
113.17145060619249
 30
0.0
  0
VERTEX
  5
A6B2
  8
0
 10
119.4996908997618
 20
113.2573184988439
 30
0.0
  0
VERTEX
  5
A6B3
  8
0
 10
119.22673744530429
 20
113.33714907580369
 30
0.0
  0
VERTEX
  5
A6B4
  8
0
 10
118.949533318977
 20
113.41044549563379
 30
0.0
  0
VERTEX
  5
A6B5
  8
0
 10
118.80963475755669
 20
113.44451122573081
 30
0.0
  0
VERTEX
  5
A6B6
  8
0
 10
118.6690337010121
 20
113.4767957576519
 30
0.0
  0
VERTEX
  5
A6B7
  8
0
 10
118.3862152999296
 20
113.5358765199653
 30
0.0
  0
VERTEX
  5
A6B8
  8
0
 10
118.1020297127745
 20
113.5874615380858
 30
0.0
  0
VERTEX
  5
A6B9
  8
0
 10
117.8174602560736
 20
113.6314079557648
 30
0.0
  0
VERTEX
  5
A6BA
  8
0
 10
117.5335364775342
 20
113.6676567282413
 30
0.0
  0
VERTEX
  5
A6BB
  8
0
 10
117.2512986629676
 20
113.69623967188529
 30
0.0
  0
VERTEX
  5
A6BC
  8
0
 10
117.1111377110805
 20
113.7076912051632
 30
0.0
  0
VERTEX
  5
A6BD
  8
0
 10
116.9717903074113
 20
113.7172790602807
 30
0.0
  0
VERTEX
  5
A6BE
  8
0
 10
116.69606670433009
 20
113.7309853996027
 30
0.0
  0
VERTEX
  5
A6BF
  8
0
 10
116.42519347477889
 20
113.7376564987856
 30
0.0
  0
VERTEX
  5
A6C0
  8
0
 10
116.2919089530341
 20
113.7384704324611
 30
0.0
  0
SEQEND
  5
A6C1
  8
0
  0
POLYLINE
  5
5047
  8
0
 10
121.15342792996236
 20
112.59942048569665
 30
0.0
 66
     1
 70
     8
  0
VERTEX
  8
0
  5
A8D6
 10
121.153
 20
112.599
 30
0.000000
  70
    32
  0
VERTEX
  8
0
  5
A8D7
 10
121.207
 20
112.583
 30
0.000000
  70
    32
  0
VERTEX
  8
0
  5
A8D8
 10
121.261
 20
112.567
 30
0.000000
  70
    32
  0
VERTEX
  8
0
  5
A8D9
 10
121.314
 20
112.552
 30
0.000000
  70
    32
  0
VERTEX
  8
0
  5
A8DA
 10
121.368
 20
112.536
 30
0.000000
  70
    32
  0
VERTEX
  8
0
  5
A8DB
 10
121.422
 20
112.520
 30
0.000000
  70
    32
  0
VERTEX
  8
0
  5
A8DC
 10
121.475
 20
112.504
 30
0.000000
  70
    32
  0
VERTEX
  8
0
  5
A8DD
 10
121.529
 20
112.488
 30
0.000000
  70
    32
  0
VERTEX
  8
0
  5
A8DE
 10
121.583
 20
112.473
 30
0.000000
  70
    32
  0
VERTEX
  8
0
  5
A8DF
 10
121.636
 20
112.457
 30
0.000000
  70
    32
  0
VERTEX
  8
0
  5
A8E0
 10
121.690
 20
112.441
 30
0.000000
  70
    32
  0
VERTEX
  8
0
  5
A8E1
 10
121.744
 20
112.426
 30
0.000000
  70
    32
  0
VERTEX
  8
0
  5
A8E2
 10
121.798
 20
112.410
 30
0.000000
  70
    32
  0
VERTEX
  8
0
  5
A8E3
 10
121.851
 20
112.395
 30
0.000000
  70
    32
  0
VERTEX
  8
0
  5
A8E4
 10
121.905
 20
112.379
 30
0.000000
  70
    32
  0
VERTEX
  8
0
  5
A8E5
 10
121.959
 20
112.364
 30
0.000000
  70
    32
  0
VERTEX
  8
0
  5
A8E6
 10
122.013
 20
112.349
 30
0.000000
  70
    32
  0
VERTEX
  8
0
  5
A8E7
 10
122.066
 20
112.333
 30
0.000000
  70
    32
  0
VERTEX
  8
0
  5
A8E8
 10
122.120
 20
112.318
 30
0.000000
  70
    32
  0
VERTEX
  8
0
  5
A8E9
 10
122.174
 20
112.303
 30
0.000000
  70
    32
  0
VERTEX
  8
0
  5
A8EA
 10
122.228
 20
112.288
 30
0.000000
  70
    32
  0
VERTEX
  8
0
  5
A8EB
 10
122.282
 20
112.273
 30
0.000000
  70
    32
  0
VERTEX
  8
0
  5
A8EC
 10
122.336
 20
112.258
 30
0.000000
  70
    32
  0
VERTEX
  8
0
  5
A8ED
 10
122.390
 20
112.243
 30
0.000000
  70
    32
  0
VERTEX
  8
0
  5
A8EE
 10
122.443
 20
112.228
 30
0.000000
  70
    32
  0
VERTEX
  8
0
  5
A8EF
 10
122.497
 20
112.213
 30
0.000000
  70
    32
  0
VERTEX
  8
0
  5
A8F0
 10
122.551
 20
112.198
 30
0.000000
  70
    32
  0
VERTEX
  8
0
  5
A8F1
 10
122.605
 20
112.183
 30
0.000000
  70
    32
  0
VERTEX
  8
0
  5
A8F2
 10
122.659
 20
112.168
 30
0.000000
  70
    32
  0
VERTEX
  8
0
  5
A8F3
 10
122.713
 20
112.153
 30
0.000000
  70
    32
  0
VERTEX
  8
0
  5
A8F4
 10
122.767
 20
112.139
 30
0.000000
  70
    32
  0
VERTEX
  8
0
  5
A8F5
 10
122.821
 20
112.124
 30
0.000000
  70
    32
  0
VERTEX
  8
0
  5
A8F6
 10
122.875
 20
112.109
 30
0.000000
  70
    32
  0
VERTEX
  8
0
  5
A8F7
 10
122.929
 20
112.095
 30
0.000000
  70
    32
  0
VERTEX
  8
0
  5
A8F8
 10
122.983
 20
112.080
 30
0.000000
  70
    32
  0
VERTEX
  8
0
  5
A8F9
 10
123.037
 20
112.066
 30
0.000000
  70
    32
  0
VERTEX
  8
0
  5
A8FA
 10
123.091
 20
112.051
 30
0.000000
  70
    32
  0
VERTEX
  8
0
  5
A8FB
 10
123.145
 20
112.037
 30
0.000000
  70
    32
  0
VERTEX
  8
0
  5
A8FC
 10
123.199
 20
112.023
 30
0.000000
  70
    32
  0
VERTEX
  8
0
  5
A8FD
 10
123.253
 20
112.008
 30
0.000000
  70
    32
  0
VERTEX
  8
0
  5
A8FE
 10
123.308
 20
111.994
 30
0.000000
  70
    32
  0
VERTEX
  8
0
  5
A8FF
 10
123.362
 20
111.980
 30
0.000000
  70
    32
  0
VERTEX
  8
0
  5
A900
 10
123.416
 20
111.966
 30
0.000000
  70
    32
  0
VERTEX
  8
0
  5
A901
 10
123.470
 20
111.952
 30
0.000000
  70
    32
  0
VERTEX
  8
0
  5
A902
 10
123.524
 20
111.938
 30
0.000000
  70
    32
  0
VERTEX
  8
0
  5
A903
 10
123.578
 20
111.924
 30
0.000000
  70
    32
  0
VERTEX
  8
0
  5
A904
 10
123.632
 20
111.910
 30
0.000000
  70
    32
  0
VERTEX
  8
0
  5
A905
 10
123.687
 20
111.896
 30
0.000000
  70
    32
  0
VERTEX
  8
0
  5
A906
 10
123.741
 20
111.882
 30
0.000000
  70
    32
  0
VERTEX
  8
0
  5
A907
 10
123.795
 20
111.868
 30
0.000000
  70
    32
  0
VERTEX
  8
0
  5
A908
 10
123.849
 20
111.854
 30
0.000000
  70
    32
  0
VERTEX
  8
0
  5
A909
 10
123.903
 20
111.840
 30
0.000000
  70
    32
  0
VERTEX
  8
0
  5
A90A
 10
123.958
 20
111.827
 30
0.000000
  70
    32
  0
VERTEX
  8
0
  5
A90B
 10
124.012
 20
111.813
 30
0.000000
  70
    32
  0
VERTEX
  8
0
  5
A90C
 10
124.066
 20
111.799
 30
0.000000
  70
    32
  0
VERTEX
  8
0
  5
A90D
 10
124.120
 20
111.786
 30
0.000000
  70
    32
  0
VERTEX
  8
0
  5
A90E
 10
124.175
 20
111.772
 30
0.000000
  70
    32
  0
VERTEX
  8
0
  5
A90F
 10
124.229
 20
111.759
 30
0.000000
  70
    32
  0
VERTEX
  8
0
  5
A910
 10
124.283
 20
111.745
 30
0.000000
  70
    32
  0
VERTEX
  8
0
  5
A911
 10
124.338
 20
111.732
 30
0.000000
  70
    32
  0
VERTEX
  8
0
  5
A912
 10
124.392
 20
111.719
 30
0.000000
  70
    32
  0
VERTEX
  8
0
  5
A913
 10
124.446
 20
111.705
 30
0.000000
  70
    32
  0
VERTEX
  8
0
  5
A914
 10
124.501
 20
111.692
 30
0.000000
  70
    32
  0
VERTEX
  8
0
  5
A915
 10
124.555
 20
111.679
 30
0.000000
  70
    32
  0
VERTEX
  8
0
  5
A916
 10
124.609
 20
111.666
 30
0.000000
  70
    32
  0
VERTEX
  8
0
  5
A917
 10
124.664
 20
111.653
 30
0.000000
  70
    32
  0
VERTEX
  8
0
  5
A918
 10
124.718
 20
111.640
 30
0.000000
  70
    32
  0
VERTEX
  8
0
  5
A919
 10
124.773
 20
111.627
 30
0.000000
  70
    32
  0
VERTEX
  8
0
  5
A91A
 10
124.827
 20
111.614
 30
0.000000
  70
    32
  0
VERTEX
  8
0
  5
A91B
 10
124.881
 20
111.601
 30
0.000000
  70
    32
  0
VERTEX
  8
0
  5
A91C
 10
124.936
 20
111.588
 30
0.000000
  70
    32
  0
VERTEX
  8
0
  5
A91D
 10
124.990
 20
111.575
 30
0.000000
  70
    32
  0
VERTEX
  8
0
  5
A91E
 10
125.045
 20
111.562
 30
0.000000
  70
    32
  0
VERTEX
  8
0
  5
A91F
 10
125.099
 20
111.549
 30
0.000000
  70
    32
  0
VERTEX
  8
0
  5
A920
 10
125.154
 20
111.537
 30
0.000000
  70
    32
  0
VERTEX
  8
0
  5
A921
 10
125.208
 20
111.524
 30
0.000000
  70
    32
  0
VERTEX
  8
0
  5
A922
 10
125.263
 20
111.511
 30
0.000000
  70
    32
  0
VERTEX
  8
0
  5
A923
 10
125.317
 20
111.499
 30
0.000000
  70
    32
  0
VERTEX
  8
0
  5
A924
 10
125.372
 20
111.486
 30
0.000000
  70
    32
  0
VERTEX
  8
0
  5
A925
 10
125.426
 20
111.474
 30
0.000000
  70
    32
  0
VERTEX
  8
0
  5
A926
 10
125.481
 20
111.461
 30
0.000000
  70
    32
  0
VERTEX
  8
0
  5
A927
 10
125.535
 20
111.449
 30
0.000000
  70
    32
  0
VERTEX
  8
0
  5
A928
 10
125.590
 20
111.437
 30
0.000000
  70
    32
  0
VERTEX
  8
0
  5
A929
 10
125.644
 20
111.424
 30
0.000000
  70
    32
  0
VERTEX
  8
0
  5
A92A
 10
125.699
 20
111.412
 30
0.000000
  70
    32
  0
VERTEX
  8
0
  5
A92B
 10
125.754
 20
111.400
 30
0.000000
  70
    32
  0
VERTEX
  8
0
  5
A92C
 10
125.808
 20
111.388
 30
0.000000
  70
    32
  0
VERTEX
  8
0
  5
A92D
 10
125.863
 20
111.376
 30
0.000000
  70
    32
  0
VERTEX
  8
0
  5
A92E
 10
125.917
 20
111.364
 30
0.000000
  70
    32
  0
VERTEX
  8
0
  5
A92F
 10
125.972
 20
111.352
 30
0.000000
  70
    32
  0
VERTEX
  8
0
  5
A930
 10
126.027
 20
111.340
 30
0.000000
  70
    32
  0
VERTEX
  8
0
  5
A931
 10
126.081
 20
111.328
 30
0.000000
  70
    32
  0
VERTEX
  8
0
  5
A932
 10
126.136
 20
111.316
 30
0.000000
  70
    32
  0
VERTEX
  8
0
  5
A933
 10
126.191
 20
111.304
 30
0.000000
  70
    32
  0
VERTEX
  8
0
  5
A934
 10
126.245
 20
111.292
 30
0.000000
  70
    32
  0
VERTEX
  8
0
  5
A935
 10
126.300
 20
111.281
 30
0.000000
  70
    32
  0
VERTEX
  8
0
  5
A936
 10
126.355
 20
111.269
 30
0.000000
  70
    32
  0
VERTEX
  8
0
  5
A937
 10
126.409
 20
111.257
 30
0.000000
  70
    32
  0
VERTEX
  8
0
  5
A938
 10
126.464
 20
111.246
 30
0.000000
  70
    32
  0
VERTEX
  8
0
  5
A939
 10
126.519
 20
111.234
 30
0.000000
  70
    32
  0
VERTEX
  8
0
  5
A93A
 10
126.574
 20
111.223
 30
0.000000
  70
    32
  0
VERTEX
  8
0
  5
A93B
 10
126.628
 20
111.211
 30
0.000000
  70
    32
  0
VERTEX
  8
0
  5
A93C
 10
126.683
 20
111.200
 30
0.000000
  70
    32
  0
VERTEX
  8
0
  5
A93D
 10
126.738
 20
111.188
 30
0.000000
  70
    32
  0
VERTEX
  8
0
  5
A93E
 10
126.793
 20
111.177
 30
0.000000
  70
    32
  0
VERTEX
  8
0
  5
A93F
 10
126.848
 20
111.166
 30
0.000000
  70
    32
  0
VERTEX
  8
0
  5
A940
 10
126.902
 20
111.154
 30
0.000000
  70
    32
  0
VERTEX
  8
0
  5
A941
 10
126.957
 20
111.143
 30
0.000000
  70
    32
  0
VERTEX
  8
0
  5
A942
 10
127.012
 20
111.132
 30
0.000000
  70
    32
  0
VERTEX
  8
0
  5
A943
 10
127.067
 20
111.121
 30
0.000000
  70
    32
  0
VERTEX
  8
0
  5
A944
 10
127.122
 20
111.110
 30
0.000000
  70
    32
  0
VERTEX
  8
0
  5
A945
 10
127.176
 20
111.099
 30
0.000000
  70
    32
  0
VERTEX
  8
0
  5
A946
 10
127.231
 20
111.088
 30
0.000000
  70
    32
  0
VERTEX
  8
0
  5
A947
 10
127.286
 20
111.077
 30
0.000000
  70
    32
  0
VERTEX
  8
0
  5
A948
 10
127.341
 20
111.066
 30
0.000000
  70
    32
  0
VERTEX
  8
0
  5
A949
 10
127.396
 20
111.055
 30
0.000000
  70
    32
  0
VERTEX
  8
0
  5
A94A
 10
127.451
 20
111.045
 30
0.000000
  70
    32
  0
VERTEX
  8
0
  5
A94B
 10
127.506
 20
111.034
 30
0.000000
  70
    32
  0
VERTEX
  8
0
  5
A94C
 10
127.561
 20
111.023
 30
0.000000
  70
    32
  0
VERTEX
  8
0
  5
A94D
 10
127.616
 20
111.013
 30
0.000000
  70
    32
  0
VERTEX
  8
0
  5
A94E
 10
127.670
 20
111.002
 30
0.000000
  70
    32
  0
VERTEX
  8
0
  5
A94F
 10
127.725
 20
110.991
 30
0.000000
  70
    32
  0
VERTEX
  8
0
  5
A950
 10
127.780
 20
110.981
 30
0.000000
  70
    32
  0
VERTEX
  8
0
  5
A951
 10
127.835
 20
110.970
 30
0.000000
  70
    32
  0
VERTEX
  8
0
  5
A952
 10
127.890
 20
110.960
 30
0.000000
  70
    32
  0
VERTEX
  8
0
  5
A953
 10
127.945
 20
110.950
 30
0.000000
  70
    32
  0
VERTEX
  8
0
  5
A954
 10
128.000
 20
110.939
 30
0.000000
  70
    32
  0
VERTEX
  8
0
  5
A955
 10
128.055
 20
110.929
 30
0.000000
  70
    32
  0
VERTEX
  8
0
  5
A956
 10
128.110
 20
110.919
 30
0.000000
  70
    32
  0
SEQEND
  8
0
  5
A957
  0
POLYLINE
  5
504D
  8
0
 66
     1
 10
0.0
 20
0.0
 30
0.0
  0
VERTEX
  5
A6C2
  8
0
 10
163.87742911606449
 20
113.7384704324611
 30
0.0
  0
VERTEX
  5
A6C3
  8
0
 10
163.74414459431989
 20
113.7376564987856
 30
0.0
  0
VERTEX
  5
A6C4
  8
0
 10
163.47327136476909
 20
113.7309853996027
 30
0.0
  0
VERTEX
  5
A6C5
  8
0
 10
163.1975477616881
 20
113.7172790602808
 30
0.0
  0
VERTEX
  5
A6C6
  8
0
 10
163.05820035801921
 20
113.7076912051633
 30
0.0
  0
VERTEX
  5
A6C7
  8
0
 10
162.91803940613229
 20
113.69623967188539
 30
0.0
  0
VERTEX
  5
A6C8
  8
0
 10
162.63580159156601
 20
113.6676567282414
 30
0.0
  0
VERTEX
  5
A6C9
  8
0
 10
162.35187781302699
 20
113.631407955765
 30
0.0
  0
VERTEX
  5
A6CA
  8
0
 10
162.06730835632629
 20
113.5874615380862
 30
0.0
  0
VERTEX
  5
A6CB
  8
0
 10
161.78312276917171
 20
113.5358765199658
 30
0.0
  0
VERTEX
  5
A6CC
  8
0
 10
161.50030436808939
 20
113.4767957576526
 30
0.0
  0
VERTEX
  5
A6CD
  8
0
 10
161.35970331154499
 20
113.4445112257315
 30
0.0
  0
VERTEX
  5
A6CE
  8
0
 10
161.21980475012481
 20
113.41044549563451
 30
0.0
  0
VERTEX
  5
A6CF
  8
0
 10
160.9426006237978
 20
113.3371490758046
 30
0.0
  0
VERTEX
  5
A6D0
  8
0
 10
160.66964716934061
 20
113.257318498845
 30
0.0
  0
VERTEX
  5
A6D1
  8
0
 10
160.40186861048451
 20
113.1714506061938
 30
0.0
  0
VERTEX
  5
A6D2
  8
0
 10
160.14016437435231
 20
113.080127204414
 30
0.0
  0
VERTEX
  5
A6D3
  8
0
 10
159.8854121859946
 20
112.9840148254905
 30
0.0
  0
VERTEX
  5
A6D4
  8
0
 10
159.760909304097
 20
112.9343930316614
 30
0.0
  0
VERTEX
  5
A6D5
  8
0
 10
159.6380231750172
 20
112.88367663113451
 30
0.0
  0
VERTEX
  5
A6D6
  8
0
 10
159.39060472062499
 20
112.77621675525199
 30
0.0
  0
VERTEX
  5
A6D7
  8
0
 10
159.14109892643299
 20
112.6604166048529
 30
0.0
  0
VERTEX
  5
A6D8
  8
0
 10
159.01591013913611
 20
112.5994204856967
 30
0.0
  0
SEQEND
  5
A6D9
  8
0
  0
POLYLINE
  5
504E
  8
0
 10
116.20303090225561
 20
95.896453675877709
 30
0.0
 66
     1
 70
     8
  0
VERTEX
  8
0
  5
A958
 10
116.203
 20
95.8965
 30
0.000000
  70
    32
  0
VERTEX
  8
0
  5
A959
 10
116.548
 20
95.9049
 30
0.000000
  70
    32
  0
VERTEX
  8
0
  5
A95A
 10
116.892
 20
95.9304
 30
0.000000
  70
    32
  0
VERTEX
  8
0
  5
A95B
 10
117.234
 20
95.9727
 30
0.000000
  70
    32
  0
VERTEX
  8
0
  5
A95C
 10
117.574
 20
96.0318
 30
0.000000
  70
    32
  0
VERTEX
  8
0
  5
A95D
 10
117.911
 20
96.1075
 30
0.000000
  70
    32
  0
VERTEX
  8
0
  5
A95E
 10
118.243
 20
96.1997
 30
0.000000
  70
    32
  0
VERTEX
  8
0
  5
A95F
 10
118.571
 20
96.3081
 30
0.000000
  70
    32
  0
VERTEX
  8
0
  5
A960
 10
118.892
 20
96.4325
 30
0.000000
  70
    32
  0
VERTEX
  8
0
  5
A961
 10
119.208
 20
96.5726
 30
0.000000
  70
    32
  0
VERTEX
  8
0
  5
A962
 10
119.516
 20
96.7280
 30
0.000000
  70
    32
  0
VERTEX
  8
0
  5
A963
 10
119.816
 20
96.8983
 30
0.000000
  70
    32
  0
VERTEX
  8
0
  5
A964
 10
120.107
 20
97.0832
 30
0.000000
  70
    32
  0
VERTEX
  8
0
  5
A965
 10
120.389
 20
97.2823
 30
0.000000
  70
    32
  0
VERTEX
  8
0
  5
A966
 10
120.661
 20
97.4949
 30
0.000000
  70
    32
  0
VERTEX
  8
0
  5
A967
 10
120.923
 20
97.7207
 30
0.000000
  70
    32
  0
VERTEX
  8
0
  5
A968
 10
121.172
 20
97.9590
 30
0.000000
  70
    32
  0
VERTEX
  8
0
  5
A969
 10
121.410
 20
98.2093
 30
0.000000
  70
    32
  0
VERTEX
  8
0
  5
A96A
 10
121.636
 20
98.4711
 30
0.000000
  70
    32
  0
VERTEX
  8
0
  5
A96B
 10
121.848
 20
98.7435
 30
0.000000
  70
    32
  0
VERTEX
  8
0
  5
A96C
 10
122.046
 20
99.0261
 30
0.000000
  70
    32
  0
VERTEX
  8
0
  5
A96D
 10
122.231
 20
99.3182
 30
0.000000
  70
    32
  0
VERTEX
  8
0
  5
A96E
 10
122.401
 20
99.6189
 30
0.000000
  70
    32
  0
VERTEX
  8
0
  5
A96F
 10
122.556
 20
99.9276
 30
0.000000
  70
    32
  0
VERTEX
  8
0
  5
A970
 10
122.696
 20
100.244
 30
0.000000
  70
    32
  0
VERTEX
  8
0
  5
A971
 10
122.820
 20
100.566
 30
0.000000
  70
    32
  0
VERTEX
  8
0
  5
A972
 10
122.928
 20
100.894
 30
0.000000
  70
    32
  0
VERTEX
  8
0
  5
A973
 10
123.020
 20
101.227
 30
0.000000
  70
    32
  0
VERTEX
  8
0
  5
A974
 10
123.096
 20
101.565
 30
0.000000
  70
    32
  0
VERTEX
  8
0
  5
A975
 10
123.155
 20
101.905
 30
0.000000
  70
    32
  0
VERTEX
  8
0
  5
A976
 10
123.197
 20
102.248
 30
0.000000
  70
    32
  0
VERTEX
  8
0
  5
A977
 10
123.222
 20
102.593
 30
0.000000
  70
    32
  0
VERTEX
  8
0
  5
A978
 10
123.231
 20
102.938
 30
0.000000
  70
    32
  0
VERTEX
  8
0
  5
A979
 10
123.222
 20
103.284
 30
0.000000
  70
    32
  0
VERTEX
  8
0
  5
A97A
 10
123.197
 20
103.629
 30
0.000000
  70
    32
  0
VERTEX
  8
0
  5
A97B
 10
123.155
 20
103.972
 30
0.000000
  70
    32
  0
VERTEX
  8
0
  5
A97C
 10
123.096
 20
104.312
 30
0.000000
  70
    32
  0
VERTEX
  8
0
  5
A97D
 10
123.020
 20
104.650
 30
0.000000
  70
    32
  0
VERTEX
  8
0
  5
A97E
 10
122.928
 20
104.983
 30
0.000000
  70
    32
  0
VERTEX
  8
0
  5
A97F
 10
122.820
 20
105.311
 30
0.000000
  70
    32
  0
VERTEX
  8
0
  5
A980
 10
122.696
 20
105.633
 30
0.000000
  70
    32
  0
VERTEX
  8
0
  5
A981
 10
122.556
 20
105.949
 30
0.000000
  70
    32
  0
VERTEX
  8
0
  5
A982
 10
122.401
 20
106.258
 30
0.000000
  70
    32
  0
VERTEX
  8
0
  5
A983
 10
122.231
 20
106.559
 30
0.000000
  70
    32
  0
VERTEX
  8
0
  5
A984
 10
122.046
 20
106.851
 30
0.000000
  70
    32
  0
VERTEX
  8
0
  5
A985
 10
121.848
 20
107.133
 30
0.000000
  70
    32
  0
VERTEX
  8
0
  5
A986
 10
121.636
 20
107.406
 30
0.000000
  70
    32
  0
VERTEX
  8
0
  5
A987
 10
121.410
 20
107.668
 30
0.000000
  70
    32
  0
VERTEX
  8
0
  5
A988
 10
121.172
 20
107.918
 30
0.000000
  70
    32
  0
VERTEX
  8
0
  5
A989
 10
120.923
 20
108.156
 30
0.000000
  70
    32
  0
VERTEX
  8
0
  5
A98A
 10
120.661
 20
108.382
 30
0.000000
  70
    32
  0
VERTEX
  8
0
  5
A98B
 10
120.389
 20
108.595
 30
0.000000
  70
    32
  0
VERTEX
  8
0
  5
A98C
 10
120.107
 20
108.794
 30
0.000000
  70
    32
  0
VERTEX
  8
0
  5
A98D
 10
119.816
 20
108.979
 30
0.000000
  70
    32
  0
VERTEX
  8
0
  5
A98E
 10
119.516
 20
109.149
 30
0.000000
  70
    32
  0
VERTEX
  8
0
  5
A98F
 10
119.208
 20
109.304
 30
0.000000
  70
    32
  0
VERTEX
  8
0
  5
A990
 10
118.892
 20
109.444
 30
0.000000
  70
    32
  0
VERTEX
  8
0
  5
A991
 10
118.571
 20
109.569
 30
0.000000
  70
    32
  0
VERTEX
  8
0
  5
A992
 10
118.243
 20
109.677
 30
0.000000
  70
    32
  0
VERTEX
  8
0
  5
A993
 10
117.911
 20
109.769
 30
0.000000
  70
    32
  0
VERTEX
  8
0
  5
A994
 10
117.574
 20
109.845
 30
0.000000
  70
    32
  0
VERTEX
  8
0
  5
A995
 10
117.234
 20
109.904
 30
0.000000
  70
    32
  0
VERTEX
  8
0
  5
A996
 10
116.892
 20
109.947
 30
0.000000
  70
    32
  0
VERTEX
  8
0
  5
A997
 10
116.548
 20
109.972
 30
0.000000
  70
    32
  0
VERTEX
  8
0
  5
A998
 10
116.203
 20
109.980
 30
0.000000
  70
    32
  0
VERTEX
  8
0
  5
A999
 10
115.858
 20
109.972
 30
0.000000
  70
    32
  0
VERTEX
  8
0
  5
A99A
 10
115.514
 20
109.947
 30
0.000000
  70
    32
  0
VERTEX
  8
0
  5
A99B
 10
115.172
 20
109.904
 30
0.000000
  70
    32
  0
VERTEX
  8
0
  5
A99C
 10
114.832
 20
109.845
 30
0.000000
  70
    32
  0
VERTEX
  8
0
  5
A99D
 10
114.495
 20
109.769
 30
0.000000
  70
    32
  0
VERTEX
  8
0
  5
A99E
 10
114.163
 20
109.677
 30
0.000000
  70
    32
  0
VERTEX
  8
0
  5
A99F
 10
113.835
 20
109.569
 30
0.000000
  70
    32
  0
VERTEX
  8
0
  5
A9A0
 10
113.514
 20
109.444
 30
0.000000
  70
    32
  0
VERTEX
  8
0
  5
A9A1
 10
113.198
 20
109.304
 30
0.000000
  70
    32
  0
VERTEX
  8
0
  5
A9A2
 10
112.890
 20
109.149
 30
0.000000
  70
    32
  0
VERTEX
  8
0
  5
A9A3
 10
112.590
 20
108.979
 30
0.000000
  70
    32
  0
VERTEX
  8
0
  5
A9A4
 10
112.299
 20
108.794
 30
0.000000
  70
    32
  0
VERTEX
  8
0
  5
A9A5
 10
112.017
 20
108.595
 30
0.000000
  70
    32
  0
VERTEX
  8
0
  5
A9A6
 10
111.745
 20
108.382
 30
0.000000
  70
    32
  0
VERTEX
  8
0
  5
A9A7
 10
111.484
 20
108.156
 30
0.000000
  70
    32
  0
VERTEX
  8
0
  5
A9A8
 10
111.234
 20
107.918
 30
0.000000
  70
    32
  0
VERTEX
  8
0
  5
A9A9
 10
110.996
 20
107.668
 30
0.000000
  70
    32
  0
VERTEX
  8
0
  5
A9AA
 10
110.771
 20
107.406
 30
0.000000
  70
    32
  0
VERTEX
  8
0
  5
A9AB
 10
110.558
 20
107.133
 30
0.000000
  70
    32
  0
VERTEX
  8
0
  5
A9AC
 10
110.360
 20
106.851
 30
0.000000
  70
    32
  0
VERTEX
  8
0
  5
A9AD
 10
110.175
 20
106.559
 30
0.000000
  70
    32
  0
VERTEX
  8
0
  5
A9AE
 10
110.005
 20
106.258
 30
0.000000
  70
    32
  0
VERTEX
  8
0
  5
A9AF
 10
109.850
 20
105.949
 30
0.000000
  70
    32
  0
VERTEX
  8
0
  5
A9B0
 10
109.710
 20
105.633
 30
0.000000
  70
    32
  0
VERTEX
  8
0
  5
A9B1
 10
109.586
 20
105.311
 30
0.000000
  70
    32
  0
VERTEX
  8
0
  5
A9B2
 10
109.478
 20
104.983
 30
0.000000
  70
    32
  0
VERTEX
  8
0
  5
A9B3
 10
109.386
 20
104.650
 30
0.000000
  70
    32
  0
VERTEX
  8
0
  5
A9B4
 10
109.310
 20
104.312
 30
0.000000
  70
    32
  0
VERTEX
  8
0
  5
A9B5
 10
109.251
 20
103.972
 30
0.000000
  70
    32
  0
VERTEX
  8
0
  5
A9B6
 10
109.209
 20
103.629
 30
0.000000
  70
    32
  0
VERTEX
  8
0
  5
A9B7
 10
109.184
 20
103.284
 30
0.000000
  70
    32
  0
VERTEX
  8
0
  5
A9B8
 10
109.175
 20
102.938
 30
0.000000
  70
    32
  0
VERTEX
  8
0
  5
A9B9
 10
109.184
 20
102.593
 30
0.000000
  70
    32
  0
VERTEX
  8
0
  5
A9BA
 10
109.209
 20
102.248
 30
0.000000
  70
    32
  0
VERTEX
  8
0
  5
A9BB
 10
109.251
 20
101.905
 30
0.000000
  70
    32
  0
VERTEX
  8
0
  5
A9BC
 10
109.310
 20
101.565
 30
0.000000
  70
    32
  0
VERTEX
  8
0
  5
A9BD
 10
109.386
 20
101.227
 30
0.000000
  70
    32
  0
VERTEX
  8
0
  5
A9BE
 10
109.478
 20
100.894
 30
0.000000
  70
    32
  0
VERTEX
  8
0
  5
A9BF
 10
109.586
 20
100.566
 30
0.000000
  70
    32
  0
VERTEX
  8
0
  5
A9C0
 10
109.710
 20
100.244
 30
0.000000
  70
    32
  0
VERTEX
  8
0
  5
A9C1
 10
109.850
 20
99.9276
 30
0.000000
  70
    32
  0
VERTEX
  8
0
  5
A9C2
 10
110.005
 20
99.6189
 30
0.000000
  70
    32
  0
VERTEX
  8
0
  5
A9C3
 10
110.175
 20
99.3182
 30
0.000000
  70
    32
  0
VERTEX
  8
0
  5
A9C4
 10
110.360
 20
99.0261
 30
0.000000
  70
    32
  0
VERTEX
  8
0
  5
A9C5
 10
110.558
 20
98.7435
 30
0.000000
  70
    32
  0
VERTEX
  8
0
  5
A9C6
 10
110.771
 20
98.4711
 30
0.000000
  70
    32
  0
VERTEX
  8
0
  5
A9C7
 10
110.996
 20
98.2093
 30
0.000000
  70
    32
  0
VERTEX
  8
0
  5
A9C8
 10
111.234
 20
97.9590
 30
0.000000
  70
    32
  0
VERTEX
  8
0
  5
A9C9
 10
111.484
 20
97.7207
 30
0.000000
  70
    32
  0
VERTEX
  8
0
  5
A9CA
 10
111.745
 20
97.4949
 30
0.000000
  70
    32
  0
VERTEX
  8
0
  5
A9CB
 10
112.017
 20
97.2823
 30
0.000000
  70
    32
  0
VERTEX
  8
0
  5
A9CC
 10
112.299
 20
97.0832
 30
0.000000
  70
    32
  0
VERTEX
  8
0
  5
A9CD
 10
112.590
 20
96.8983
 30
0.000000
  70
    32
  0
VERTEX
  8
0
  5
A9CE
 10
112.890
 20
96.7280
 30
0.000000
  70
    32
  0
VERTEX
  8
0
  5
A9CF
 10
113.198
 20
96.5726
 30
0.000000
  70
    32
  0
VERTEX
  8
0
  5
A9D0
 10
113.514
 20
96.4325
 30
0.000000
  70
    32
  0
VERTEX
  8
0
  5
A9D1
 10
113.835
 20
96.3081
 30
0.000000
  70
    32
  0
VERTEX
  8
0
  5
A9D2
 10
114.163
 20
96.1997
 30
0.000000
  70
    32
  0
VERTEX
  8
0
  5
A9D3
 10
114.495
 20
96.1075
 30
0.000000
  70
    32
  0
VERTEX
  8
0
  5
A9D4
 10
114.832
 20
96.0318
 30
0.000000
  70
    32
  0
VERTEX
  8
0
  5
A9D5
 10
115.172
 20
95.9727
 30
0.000000
  70
    32
  0
VERTEX
  8
0
  5
A9D6
 10
115.514
 20
95.9304
 30
0.000000
  70
    32
  0
VERTEX
  8
0
  5
A9D7
 10
115.858
 20
95.9049
 30
0.000000
  70
    32
  0
VERTEX
  8
0
  5
A9D8
 10
116.203
 20
95.8965
 30
0.000000
  70
    32
  0
SEQEND
  8
0
  5
A9D9
  0
POLYLINE
  5
504F
  8
0
 10
163.96630716684311
 20
109.98048718904441
 30
0.0
 66
     1
 70
     8
  0
VERTEX
  8
0
  5
A9DA
 10
163.966
 20
109.980
 30
0.000000
  70
    32
  0
VERTEX
  8
0
  5
A9DB
 10
163.621
 20
109.972
 30
0.000000
  70
    32
  0
VERTEX
  8
0
  5
A9DC
 10
163.277
 20
109.947
 30
0.000000
  70
    32
  0
VERTEX
  8
0
  5
A9DD
 10
162.935
 20
109.904
 30
0.000000
  70
    32
  0
VERTEX
  8
0
  5
A9DE
 10
162.595
 20
109.845
 30
0.000000
  70
    32
  0
VERTEX
  8
0
  5
A9DF
 10
162.259
 20
109.769
 30
0.000000
  70
    32
  0
VERTEX
  8
0
  5
A9E0
 10
161.926
 20
109.677
 30
0.000000
  70
    32
  0
VERTEX
  8
0
  5
A9E1
 10
161.599
 20
109.569
 30
0.000000
  70
    32
  0
VERTEX
  8
0
  5
A9E2
 10
161.277
 20
109.444
 30
0.000000
  70
    32
  0
VERTEX
  8
0
  5
A9E3
 10
160.962
 20
109.304
 30
0.000000
  70
    32
  0
VERTEX
  8
0
  5
A9E4
 10
160.653
 20
109.149
 30
0.000000
  70
    32
  0
VERTEX
  8
0
  5
A9E5
 10
160.353
 20
108.979
 30
0.000000
  70
    32
  0
VERTEX
  8
0
  5
A9E6
 10
160.062
 20
108.794
 30
0.000000
  70
    32
  0
VERTEX
  8
0
  5
A9E7
 10
159.780
 20
108.595
 30
0.000000
  70
    32
  0
VERTEX
  8
0
  5
A9E8
 10
159.508
 20
108.382
 30
0.000000
  70
    32
  0
VERTEX
  8
0
  5
A9E9
 10
159.247
 20
108.156
 30
0.000000
  70
    32
  0
VERTEX
  8
0
  5
A9EA
 10
158.997
 20
107.918
 30
0.000000
  70
    32
  0
VERTEX
  8
0
  5
A9EB
 10
158.759
 20
107.668
 30
0.000000
  70
    32
  0
VERTEX
  8
0
  5
A9EC
 10
158.534
 20
107.406
 30
0.000000
  70
    32
  0
VERTEX
  8
0
  5
A9ED
 10
158.322
 20
107.133
 30
0.000000
  70
    32
  0
VERTEX
  8
0
  5
A9EE
 10
158.123
 20
106.851
 30
0.000000
  70
    32
  0
VERTEX
  8
0
  5
A9EF
 10
157.938
 20
106.559
 30
0.000000
  70
    32
  0
VERTEX
  8
0
  5
A9F0
 10
157.768
 20
106.258
 30
0.000000
  70
    32
  0
VERTEX
  8
0
  5
A9F1
 10
157.613
 20
105.949
 30
0.000000
  70
    32
  0
VERTEX
  8
0
  5
A9F2
 10
157.474
 20
105.633
 30
0.000000
  70
    32
  0
VERTEX
  8
0
  5
A9F3
 10
157.349
 20
105.311
 30
0.000000
  70
    32
  0
VERTEX
  8
0
  5
A9F4
 10
157.241
 20
104.983
 30
0.000000
  70
    32
  0
VERTEX
  8
0
  5
A9F5
 10
157.149
 20
104.650
 30
0.000000
  70
    32
  0
VERTEX
  8
0
  5
A9F6
 10
157.074
 20
104.312
 30
0.000000
  70
    32
  0
VERTEX
  8
0
  5
A9F7
 10
157.015
 20
103.972
 30
0.000000
  70
    32
  0
VERTEX
  8
0
  5
A9F8
 10
156.972
 20
103.629
 30
0.000000
  70
    32
  0
VERTEX
  8
0
  5
A9F9
 10
156.947
 20
103.284
 30
0.000000
  70
    32
  0
VERTEX
  8
0
  5
A9FA
 10
156.939
 20
102.938
 30
0.000000
  70
    32
  0
VERTEX
  8
0
  5
A9FB
 10
156.947
 20
102.593
 30
0.000000
  70
    32
  0
VERTEX
  8
0
  5
A9FC
 10
156.972
 20
102.248
 30
0.000000
  70
    32
  0
VERTEX
  8
0
  5
A9FD
 10
157.015
 20
101.905
 30
0.000000
  70
    32
  0
VERTEX
  8
0
  5
A9FE
 10
157.074
 20
101.565
 30
0.000000
  70
    32
  0
VERTEX
  8
0
  5
A9FF
 10
157.149
 20
101.227
 30
0.000000
  70
    32
  0
VERTEX
  8
0
  5
AA00
 10
157.241
 20
100.894
 30
0.000000
  70
    32
  0
VERTEX
  8
0
  5
AA01
 10
157.349
 20
100.566
 30
0.000000
  70
    32
  0
VERTEX
  8
0
  5
AA02
 10
157.474
 20
100.244
 30
0.000000
  70
    32
  0
VERTEX
  8
0
  5
AA03
 10
157.613
 20
99.9276
 30
0.000000
  70
    32
  0
VERTEX
  8
0
  5
AA04
 10
157.768
 20
99.6189
 30
0.000000
  70
    32
  0
VERTEX
  8
0
  5
AA05
 10
157.938
 20
99.3182
 30
0.000000
  70
    32
  0
VERTEX
  8
0
  5
AA06
 10
158.123
 20
99.0261
 30
0.000000
  70
    32
  0
VERTEX
  8
0
  5
AA07
 10
158.322
 20
98.7435
 30
0.000000
  70
    32
  0
VERTEX
  8
0
  5
AA08
 10
158.534
 20
98.4711
 30
0.000000
  70
    32
  0
VERTEX
  8
0
  5
AA09
 10
158.759
 20
98.2093
 30
0.000000
  70
    32
  0
VERTEX
  8
0
  5
AA0A
 10
158.997
 20
97.9590
 30
0.000000
  70
    32
  0
VERTEX
  8
0
  5
AA0B
 10
159.247
 20
97.7207
 30
0.000000
  70
    32
  0
VERTEX
  8
0
  5
AA0C
 10
159.508
 20
97.4949
 30
0.000000
  70
    32
  0
VERTEX
  8
0
  5
AA0D
 10
159.780
 20
97.2823
 30
0.000000
  70
    32
  0
VERTEX
  8
0
  5
AA0E
 10
160.062
 20
97.0832
 30
0.000000
  70
    32
  0
VERTEX
  8
0
  5
AA0F
 10
160.353
 20
96.8983
 30
0.000000
  70
    32
  0
VERTEX
  8
0
  5
AA10
 10
160.653
 20
96.7280
 30
0.000000
  70
    32
  0
VERTEX
  8
0
  5
AA11
 10
160.962
 20
96.5726
 30
0.000000
  70
    32
  0
VERTEX
  8
0
  5
AA12
 10
161.277
 20
96.4325
 30
0.000000
  70
    32
  0
VERTEX
  8
0
  5
AA13
 10
161.599
 20
96.3081
 30
0.000000
  70
    32
  0
VERTEX
  8
0
  5
AA14
 10
161.926
 20
96.1997
 30
0.000000
  70
    32
  0
VERTEX
  8
0
  5
AA15
 10
162.259
 20
96.1075
 30
0.000000
  70
    32
  0
VERTEX
  8
0
  5
AA16
 10
162.595
 20
96.0318
 30
0.000000
  70
    32
  0
VERTEX
  8
0
  5
AA17
 10
162.935
 20
95.9727
 30
0.000000
  70
    32
  0
VERTEX
  8
0
  5
AA18
 10
163.277
 20
95.9304
 30
0.000000
  70
    32
  0
VERTEX
  8
0
  5
AA19
 10
163.621
 20
95.9049
 30
0.000000
  70
    32
  0
VERTEX
  8
0
  5
AA1A
 10
163.966
 20
95.8965
 30
0.000000
  70
    32
  0
VERTEX
  8
0
  5
AA1B
 10
164.311
 20
95.9049
 30
0.000000
  70
    32
  0
VERTEX
  8
0
  5
AA1C
 10
164.655
 20
95.9304
 30
0.000000
  70
    32
  0
VERTEX
  8
0
  5
AA1D
 10
164.997
 20
95.9727
 30
0.000000
  70
    32
  0
VERTEX
  8
0
  5
AA1E
 10
165.337
 20
96.0318
 30
0.000000
  70
    32
  0
VERTEX
  8
0
  5
AA1F
 10
165.674
 20
96.1075
 30
0.000000
  70
    32
  0
VERTEX
  8
0
  5
AA20
 10
166.006
 20
96.1997
 30
0.000000
  70
    32
  0
VERTEX
  8
0
  5
AA21
 10
166.334
 20
96.3081
 30
0.000000
  70
    32
  0
VERTEX
  8
0
  5
AA22
 10
166.656
 20
96.4325
 30
0.000000
  70
    32
  0
VERTEX
  8
0
  5
AA23
 10
166.971
 20
96.5726
 30
0.000000
  70
    32
  0
VERTEX
  8
0
  5
AA24
 10
167.279
 20
96.7280
 30
0.000000
  70
    32
  0
VERTEX
  8
0
  5
AA25
 10
167.579
 20
96.8983
 30
0.000000
  70
    32
  0
VERTEX
  8
0
  5
AA26
 10
167.871
 20
97.0832
 30
0.000000
  70
    32
  0
VERTEX
  8
0
  5
AA27
 10
168.153
 20
97.2823
 30
0.000000
  70
    32
  0
VERTEX
  8
0
  5
AA28
 10
168.425
 20
97.4949
 30
0.000000
  70
    32
  0
VERTEX
  8
0
  5
AA29
 10
168.686
 20
97.7207
 30
0.000000
  70
    32
  0
VERTEX
  8
0
  5
AA2A
 10
168.936
 20
97.9590
 30
0.000000
  70
    32
  0
VERTEX
  8
0
  5
AA2B
 10
169.173
 20
98.2093
 30
0.000000
  70
    32
  0
VERTEX
  8
0
  5
AA2C
 10
169.399
 20
98.4711
 30
0.000000
  70
    32
  0
VERTEX
  8
0
  5
AA2D
 10
169.611
 20
98.7435
 30
0.000000
  70
    32
  0
VERTEX
  8
0
  5
AA2E
 10
169.810
 20
99.0261
 30
0.000000
  70
    32
  0
VERTEX
  8
0
  5
AA2F
 10
169.994
 20
99.3182
 30
0.000000
  70
    32
  0
VERTEX
  8
0
  5
AA30
 10
170.164
 20
99.6189
 30
0.000000
  70
    32
  0
VERTEX
  8
0
  5
AA31
 10
170.319
 20
99.9276
 30
0.000000
  70
    32
  0
VERTEX
  8
0
  5
AA32
 10
170.459
 20
100.244
 30
0.000000
  70
    32
  0
VERTEX
  8
0
  5
AA33
 10
170.583
 20
100.566
 30
0.000000
  70
    32
  0
VERTEX
  8
0
  5
AA34
 10
170.691
 20
100.894
 30
0.000000
  70
    32
  0
VERTEX
  8
0
  5
AA35
 10
170.783
 20
101.227
 30
0.000000
  70
    32
  0
VERTEX
  8
0
  5
AA36
 10
170.859
 20
101.565
 30
0.000000
  70
    32
  0
VERTEX
  8
0
  5
AA37
 10
170.918
 20
101.905
 30
0.000000
  70
    32
  0
VERTEX
  8
0
  5
AA38
 10
170.960
 20
102.248
 30
0.000000
  70
    32
  0
VERTEX
  8
0
  5
AA39
 10
170.986
 20
102.593
 30
0.000000
  70
    32
  0
VERTEX
  8
0
  5
AA3A
 10
170.994
 20
102.938
 30
0.000000
  70
    32
  0
VERTEX
  8
0
  5
AA3B
 10
170.986
 20
103.284
 30
0.000000
  70
    32
  0
VERTEX
  8
0
  5
AA3C
 10
170.960
 20
103.629
 30
0.000000
  70
    32
  0
VERTEX
  8
0
  5
AA3D
 10
170.918
 20
103.972
 30
0.000000
  70
    32
  0
VERTEX
  8
0
  5
AA3E
 10
170.859
 20
104.312
 30
0.000000
  70
    32
  0
VERTEX
  8
0
  5
AA3F
 10
170.783
 20
104.650
 30
0.000000
  70
    32
  0
VERTEX
  8
0
  5
AA40
 10
170.691
 20
104.983
 30
0.000000
  70
    32
  0
VERTEX
  8
0
  5
AA41
 10
170.583
 20
105.311
 30
0.000000
  70
    32
  0
VERTEX
  8
0
  5
AA42
 10
170.459
 20
105.633
 30
0.000000
  70
    32
  0
VERTEX
  8
0
  5
AA43
 10
170.319
 20
105.949
 30
0.000000
  70
    32
  0
VERTEX
  8
0
  5
AA44
 10
170.164
 20
106.258
 30
0.000000
  70
    32
  0
VERTEX
  8
0
  5
AA45
 10
169.994
 20
106.559
 30
0.000000
  70
    32
  0
VERTEX
  8
0
  5
AA46
 10
169.810
 20
106.851
 30
0.000000
  70
    32
  0
VERTEX
  8
0
  5
AA47
 10
169.611
 20
107.133
 30
0.000000
  70
    32
  0
VERTEX
  8
0
  5
AA48
 10
169.399
 20
107.406
 30
0.000000
  70
    32
  0
VERTEX
  8
0
  5
AA49
 10
169.173
 20
107.668
 30
0.000000
  70
    32
  0
VERTEX
  8
0
  5
AA4A
 10
168.936
 20
107.918
 30
0.000000
  70
    32
  0
VERTEX
  8
0
  5
AA4B
 10
168.686
 20
108.156
 30
0.000000
  70
    32
  0
VERTEX
  8
0
  5
AA4C
 10
168.425
 20
108.382
 30
0.000000
  70
    32
  0
VERTEX
  8
0
  5
AA4D
 10
168.153
 20
108.595
 30
0.000000
  70
    32
  0
VERTEX
  8
0
  5
AA4E
 10
167.871
 20
108.794
 30
0.000000
  70
    32
  0
VERTEX
  8
0
  5
AA4F
 10
167.579
 20
108.979
 30
0.000000
  70
    32
  0
VERTEX
  8
0
  5
AA50
 10
167.279
 20
109.149
 30
0.000000
  70
    32
  0
VERTEX
  8
0
  5
AA51
 10
166.971
 20
109.304
 30
0.000000
  70
    32
  0
VERTEX
  8
0
  5
AA52
 10
166.656
 20
109.444
 30
0.000000
  70
    32
  0
VERTEX
  8
0
  5
AA53
 10
166.334
 20
109.569
 30
0.000000
  70
    32
  0
VERTEX
  8
0
  5
AA54
 10
166.006
 20
109.677
 30
0.000000
  70
    32
  0
VERTEX
  8
0
  5
AA55
 10
165.674
 20
109.769
 30
0.000000
  70
    32
  0
VERTEX
  8
0
  5
AA56
 10
165.337
 20
109.845
 30
0.000000
  70
    32
  0
VERTEX
  8
0
  5
AA57
 10
164.997
 20
109.904
 30
0.000000
  70
    32
  0
VERTEX
  8
0
  5
AA58
 10
164.655
 20
109.947
 30
0.000000
  70
    32
  0
VERTEX
  8
0
  5
AA59
 10
164.311
 20
109.972
 30
0.000000
  70
    32
  0
VERTEX
  8
0
  5
AA5A
 10
163.966
 20
109.980
 30
0.000000
  70
    32
  0
SEQEND
  8
0
  5
AA5B
  0
LINE
  5
55AC
  8
1
 10
140.08466903454939
 20
154.21751164983729
 30
0.0
 11
140.08466903454939
 21
183.21751164983729
 31
0.0
  0
LINE
  5
55AD
  8
1
 10
179.58466903454931
 20
168.71751164983729
 30
0.0
 11
100.58466903454941
 21
168.71751164983729
 31
0.0
  0
ARC
  5
55AE
  8
0
 10
140.08466903454951
 20
168.71751164983729
 30
0.0
 40
35.000000000000142
 50
174.78409142954729
 51
185.2159085704526
  0
ARC
  5
55AF
  8
0
 10
140.08466903454919
 20
168.71751164983729
 30
0.0
 40
35.000000000000121
 50
354.78409142954729
 51
5.215908570452636
  0
POLYLINE
  5
55B6
  8
0
 66
     1
 10
0.0
 20
0.0
 30
0.0
  0
VERTEX
  5
A6DA
  8
0
 10
128.11016800527369
 20
165.05107779136591
 30
0.0
  0
VERTEX
  5
A6DB
  8
0
 10
128.22226243844449
 20
165.0566562764117
 30
0.0
  0
VERTEX
  5
A6DC
  8
0
 10
128.44992348089531
 20
165.0583029993735
 30
0.0
  0
VERTEX
  5
A6DD
  8
0
 10
128.68091455141959
 20
165.04671061090579
 30
0.0
  0
VERTEX
  5
A6DE
  8
0
 10
128.79716950106231
 20
165.0357909286293
 30
0.0
  0
VERTEX
  5
A6DF
  8
0
 10
128.91367394430441
 20
165.02139709078779
 30
0.0
  0
VERTEX
  5
A6E0
  8
0
 10
129.1466799819903
 20
164.98208556835769
 30
0.0
  0
VERTEX
  5
A6E1
  8
0
 10
129.37842606239809
 20
164.92869972616381
 30
0.0
  0
VERTEX
  5
A6E2
  8
0
 10
129.60741902391629
 20
164.86136530778589
 30
0.0
  0
VERTEX
  5
A6E3
  8
0
 10
129.832297188692
 20
164.78037055975199
 30
0.0
  0
VERTEX
  5
A6E4
  8
0
 10
130.05183668858791
 20
164.68613512757199
 30
0.0
  0
VERTEX
  5
A6E5
  8
0
 10
130.159187236002
 20
164.63424839398041
 30
0.0
  0
VERTEX
  5
A6E6
  8
0
 10
130.26471018685481
 20
164.57931113623209
 30
0.0
  0
VERTEX
  5
A6E7
  8
0
 10
130.46967155001281
 20
164.4607354372425
 30
0.0
  0
VERTEX
  5
A6E8
  8
0
 10
130.66559114924189
 20
164.33141181350109
 30
0.0
  0
VERTEX
  5
A6E9
  8
0
 10
130.85142515411559
 20
164.19253424856711
 30
0.0
  0
VERTEX
  5
A6EA
  8
0
 10
131.02625933270409
 20
164.04546785993841
 30
0.0
  0
VERTEX
  5
A6EB
  8
0
 10
131.19295222061649
 20
163.88811963574841
 30
0.0
  0
VERTEX
  5
A6EC
  8
0
 10
131.2738647256536
 20
163.8048524763534
 30
0.0
  0
VERTEX
  5
A6ED
  8
0
 10
131.35288734588741
 20
163.7186420638219
 30
0.0
  0
VERTEX
  5
A6EE
  8
0
 10
131.5045225572841
 20
163.5378091845472
 30
0.0
  0
VERTEX
  5
A6EF
  8
0
 10
131.64649766744731
 20
163.3465304488536
 30
0.0
  0
VERTEX
  5
A6F0
  8
0
 10
131.71348642019899
 20
163.24729212616211
 30
0.0
  0
SEQEND
  5
A6F1
  8
0
  0
POLYLINE
  5
55B7
  8
0
 66
     1
 10
0.0
 20
0.0
 30
0.0
  0
VERTEX
  5
A6F2
  8
0
 10
148.45585164889971
 20
163.24729212616211
 30
0.0
  0
VERTEX
  5
A6F3
  8
0
 10
148.51960976622371
 20
163.3418886661016
 30
0.0
  0
VERTEX
  5
A6F4
  8
0
 10
148.6569355139535
 20
163.52779528023751
 30
0.0
  0
VERTEX
  5
A6F5
  8
0
 10
148.80694496868711
 20
163.70792377681741
 30
0.0
  0
VERTEX
  5
A6F6
  8
0
 10
148.88651410500489
 20
163.79532956291399
 30
0.0
  0
VERTEX
  5
A6F7
  8
0
 10
148.96900496104601
 20
163.88072199487399
 30
0.0
  0
VERTEX
  5
A6F8
  8
0
 10
149.14233877408449
 20
164.04480826878691
 30
0.0
  0
VERTEX
  5
A6F9
  8
0
 10
149.32601207553989
 20
164.19894420432769
 30
0.0
  0
VERTEX
  5
A6FA
  8
0
 10
149.51893467815751
 20
164.34203731161611
 30
0.0
  0
VERTEX
  5
A6FB
  8
0
 10
149.7199847409147
 20
164.47322349609101
 30
0.0
  0
VERTEX
  5
A6FC
  8
0
 10
149.92799457300239
 20
164.5918216572253
 30
0.0
  0
VERTEX
  5
A6FD
  8
0
 10
150.03417270225529
 20
164.6462033303323
 30
0.0
  0
VERTEX
  5
A6FE
  8
0
 10
150.1415535101612
 20
164.69722465584169
 30
0.0
  0
VERTEX
  5
A6FF
  8
0
 10
150.35916276705279
 20
164.7890175832045
 30
0.0
  0
VERTEX
  5
A700
  8
0
 10
150.57926118186921
 20
164.86698836908749
 30
0.0
  0
VERTEX
  5
A701
  8
0
 10
150.80018851943291
 20
164.93111735053469
 30
0.0
  0
VERTEX
  5
A702
  8
0
 10
151.02048196763911
 20
164.9816513309074
 30
0.0
  0
VERTEX
  5
A703
  8
0
 10
151.24463669223701
 20
165.01985443251471
 30
0.0
  0
VERTEX
  5
A704
  8
0
 10
151.35867834568791
 20
165.0343017157083
 30
0.0
  0
VERTEX
  5
A705
  8
0
 10
151.47379159994591
 20
165.04552440836949
 30
0.0
  0
VERTEX
  5
A706
  8
0
 10
151.70651295596031
 20
165.05800824584091
 30
0.0
  0
VERTEX
  5
A707
  8
0
 10
151.94137750652911
 20
165.05685569303199
 30
0.0
  0
VERTEX
  5
A708
  8
0
 10
152.05917006382501
 20
165.05107779136591
 30
0.0
  0
SEQEND
  5
A709
  8
0
  0
LINE
  5
55B8
  8
0
 10
152.05917006382501
 20
165.05107779136591
 30
0.0
 11
172.94802248485931
 21
163.71751164983741
 31
0.0
  0
POLYLINE
  5
55B9
  8
0
 66
     1
 10
0.0
 20
0.0
 30
0.0
  0
VERTEX
  5
A70A
  8
0
 10
172.94802248485931
 20
163.71751164983741
 30
0.0
  0
VERTEX
  5
A70B
  8
0
 10
173.0475483629624
 20
163.71998953491899
 30
0.0
  0
VERTEX
  5
A70C
  8
0
 10
173.2400971181178
 20
163.73895348576761
 30
0.0
  0
VERTEX
  5
A70D
  8
0
 10
173.42359330197201
 20
163.7748762239504
 30
0.0
  0
VERTEX
  5
A70E
  8
0
 10
173.51174171500409
 20
163.79860033621051
 30
0.0
  0
VERTEX
  5
A70F
  8
0
 10
173.59737558858811
 20
163.82586143199109
 30
0.0
  0
VERTEX
  5
A710
  8
0
 10
173.76122945126539
 20
163.8903021846175
 30
0.0
  0
VERTEX
  5
A711
  8
0
 10
173.91514572131501
 20
163.9668910040356
 30
0.0
  0
VERTEX
  5
A712
  8
0
 10
174.05887748693399
 20
164.054381719746
 30
0.0
  0
VERTEX
  5
A713
  8
0
 10
174.192200603212
 20
164.15161867462729
 30
0.0
  0
VERTEX
  5
A714
  8
0
 10
174.31491653010909
 20
164.25751142070689
 30
0.0
  0
VERTEX
  5
A715
  8
0
 10
174.37224300354049
 20
164.3133763592875
 30
0.0
  0
VERTEX
  5
A716
  8
0
 10
174.42685748910301
 20
164.37101730145579
 30
0.0
  0
VERTEX
  5
A717
  8
0
 10
174.527946747605
 20
164.4912003826677
 30
0.0
  0
VERTEX
  5
A718
  8
0
 10
174.61827638654901
 20
164.6173971540278
 30
0.0
  0
VERTEX
  5
A719
  8
0
 10
174.69780706672
 20
164.74887657041759
 30
0.0
  0
VERTEX
  5
A71A
  8
0
 10
174.76648447714859
 20
164.884927730584
 30
0.0
  0
VERTEX
  5
A71B
  8
0
 10
174.82425261536869
 20
165.02486419451191
 30
0.0
  0
VERTEX
  5
A71C
  8
0
 10
174.8490281779053
 20
165.0960799520563
 30
0.0
  0
VERTEX
  5
A71D
  8
0
 10
174.87105553756359
 20
165.1680174476777
 30
0.0
  0
VERTEX
  5
A71E
  8
0
 10
174.9068389215584
 20
165.31373179977331
 30
0.0
  0
VERTEX
  5
A71F
  8
0
 10
174.93155128939779
 20
165.46136036335531
 30
0.0
  0
VERTEX
  5
A720
  8
0
 10
174.93974087578721
 20
165.53569346801919
 30
0.0
  0
SEQEND
  5
A721
  8
0
  0
LINE
  5
55BA
  8
0
 10
128.11016800527369
 20
172.38394550830881
 30
0.0
 11
107.22131558423941
 21
173.71751164983741
 31
0.0
  0
POLYLINE
  5
55BB
  8
0
 66
     1
 10
0.0
 20
0.0
 30
0.0
  0
VERTEX
  5
A722
  8
0
 10
107.22131558423931
 20
173.71751164983741
 30
0.0
  0
VERTEX
  5
A723
  8
0
 10
107.1217897061361
 20
173.71503376475559
 30
0.0
  0
VERTEX
  5
A724
  8
0
 10
106.9292409509805
 20
173.696069813907
 30
0.0
  0
VERTEX
  5
A725
  8
0
 10
106.7457447671261
 20
173.6601470757241
 30
0.0
  0
VERTEX
  5
A726
  8
0
 10
106.6575963540939
 20
173.63642296346401
 30
0.0
  0
VERTEX
  5
A727
  8
0
 10
106.5719624805098
 20
173.60916186768341
 30
0.0
  0
VERTEX
  5
A728
  8
0
 10
106.4081086178324
 20
173.54472111505669
 30
0.0
  0
VERTEX
  5
A729
  8
0
 10
106.25419234778271
 20
173.46813229563861
 30
0.0
  0
VERTEX
  5
A72A
  8
0
 10
106.1104605821637
 20
173.38064157992801
 30
0.0
  0
VERTEX
  5
A72B
  8
0
 10
105.9771374658856
 20
173.2834046250465
 30
0.0
  0
VERTEX
  5
A72C
  8
0
 10
105.8544215389885
 20
173.17751187896661
 30
0.0
  0
VERTEX
  5
A72D
  8
0
 10
105.7970950655571
 20
173.121646940386
 30
0.0
  0
VERTEX
  5
A72E
  8
0
 10
105.74248057999461
 20
173.06400599821771
 30
0.0
  0
VERTEX
  5
A72F
  8
0
 10
105.64139132149261
 20
172.94382291700569
 30
0.0
  0
VERTEX
  5
A730
  8
0
 10
105.551061682549
 20
172.8176261456459
 30
0.0
  0
VERTEX
  5
A731
  8
0
 10
105.4715310023783
 20
172.68614672925639
 30
0.0
  0
VERTEX
  5
A732
  8
0
 10
105.40285359195001
 20
172.55009556909059
 30
0.0
  0
VERTEX
  5
A733
  8
0
 10
105.34508545373021
 20
172.4101591051631
 30
0.0
  0
VERTEX
  5
A734
  8
0
 10
105.3203098911936
 20
172.33894334761891
 30
0.0
  0
VERTEX
  5
A735
  8
0
 10
105.29828253153531
 20
172.26700585199771
 30
0.0
  0
VERTEX
  5
A736
  8
0
 10
105.2624991475405
 20
172.12129149990199
 30
0.0
  0
VERTEX
  5
A737
  8
0
 10
105.237786779701
 20
171.97366293631941
 30
0.0
  0
VERTEX
  5
A738
  8
0
 10
105.22959719331151
 20
171.89932983165559
 30
0.0
  0
SEQEND
  5
A739
  8
0
  0
POLYLINE
  5
55BC
  8
0
 66
     1
 10
0.0
 20
0.0
 30
0.0
  0
VERTEX
  5
A73A
  8
0
 10
174.93974087578721
 20
171.89932983165559
 30
0.0
  0
VERTEX
  5
A73B
  8
0
 10
174.9315512893977
 20
171.9736629363195
 30
0.0
  0
VERTEX
  5
A73C
  8
0
 10
174.90683892155849
 20
172.12129149990091
 30
0.0
  0
VERTEX
  5
A73D
  8
0
 10
174.87105553756371
 20
172.26700585199629
 30
0.0
  0
VERTEX
  5
A73E
  8
0
 10
174.8490281779053
 20
172.33894334761791
 30
0.0
  0
VERTEX
  5
A73F
  8
0
 10
174.82425261536881
 20
172.41015910516239
 30
0.0
  0
VERTEX
  5
A740
  8
0
 10
174.76648447714851
 20
172.55009556909079
 30
0.0
  0
VERTEX
  5
A741
  8
0
 10
174.69780706671969
 20
172.68614672925781
 30
0.0
  0
VERTEX
  5
A742
  8
0
 10
174.61827638654819
 20
172.81762614564801
 30
0.0
  0
VERTEX
  5
A743
  8
0
 10
174.52794674760409
 20
172.94382291700839
 30
0.0
  0
VERTEX
  5
A744
  8
0
 10
174.42685748910191
 20
173.0640059982201
 30
0.0
  0
VERTEX
  5
A745
  8
0
 10
174.37224300353941
 20
173.1216469403883
 30
0.0
  0
VERTEX
  5
A746
  8
0
 10
174.31491653010801
 20
173.1775118789688
 30
0.0
  0
VERTEX
  5
A747
  8
0
 10
174.19220060321089
 20
173.28340462504841
 30
0.0
  0
VERTEX
  5
A748
  8
0
 10
174.058877486933
 20
173.3806415799294
 30
0.0
  0
VERTEX
  5
A749
  8
0
 10
173.91514572131399
 20
173.46813229563969
 30
0.0
  0
VERTEX
  5
A74A
  8
0
 10
173.76122945126451
 20
173.5447211150576
 30
0.0
  0
VERTEX
  5
A74B
  8
0
 10
173.59737558858731
 20
173.60916186768389
 30
0.0
  0
VERTEX
  5
A74C
  8
0
 10
173.51174171500341
 20
173.6364229634643
 30
0.0
  0
VERTEX
  5
A74D
  8
0
 10
173.42359330197129
 20
173.6601470757245
 30
0.0
  0
VERTEX
  5
A74E
  8
0
 10
173.24009711811721
 20
173.69606981390709
 30
0.0
  0
VERTEX
  5
A74F
  8
0
 10
173.04754836296209
 20
173.71503376475579
 30
0.0
  0
VERTEX
  5
A750
  8
0
 10
172.94802248485931
 20
173.71751164983741
 30
0.0
  0
SEQEND
  5
A751
  8
0
  0
LINE
  5
55BD
  8
0
 10
107.22131558423941
 20
163.71751164983741
 30
0.0
 11
128.11016800527369
 21
165.05107779136591
 31
0.0
  0
POLYLINE
  5
55BE
  8
0
 66
     1
 10
0.0
 20
0.0
 30
0.0
  0
VERTEX
  5
A752
  8
0
 10
105.22959719331151
 20
165.53569346801919
 30
0.0
  0
VERTEX
  5
A753
  8
0
 10
105.237786779701
 20
165.46136036335511
 30
0.0
  0
VERTEX
  5
A754
  8
0
 10
105.2624991475403
 20
165.31373179977371
 30
0.0
  0
VERTEX
  5
A755
  8
0
 10
105.29828253153499
 20
165.16801744767821
 30
0.0
  0
VERTEX
  5
A756
  8
0
 10
105.3203098911933
 20
165.09607995205681
 30
0.0
  0
VERTEX
  5
A757
  8
0
 10
105.34508545372989
 20
165.02486419451219
 30
0.0
  0
VERTEX
  5
A758
  8
0
 10
105.4028535919502
 20
164.88492773058371
 30
0.0
  0
VERTEX
  5
A759
  8
0
 10
105.47153100237909
 20
164.7488765704168
 30
0.0
  0
VERTEX
  5
A75A
  8
0
 10
105.5510616825505
 20
164.61739715402649
 30
0.0
  0
VERTEX
  5
A75B
  8
0
 10
105.64139132149469
 20
164.49120038266631
 30
0.0
  0
VERTEX
  5
A75C
  8
0
 10
105.74248057999689
 20
164.37101730145449
 30
0.0
  0
VERTEX
  5
A75D
  8
0
 10
105.7970950655594
 20
164.31337635928631
 30
0.0
  0
VERTEX
  5
A75E
  8
0
 10
105.85442153899091
 20
164.25751142070581
 30
0.0
  0
VERTEX
  5
A75F
  8
0
 10
105.97713746588791
 20
164.15161867462629
 30
0.0
  0
VERTEX
  5
A760
  8
0
 10
106.1104605821659
 20
164.05438171974521
 30
0.0
  0
VERTEX
  5
A761
  8
0
 10
106.25419234778479
 20
163.96689100403501
 30
0.0
  0
VERTEX
  5
A762
  8
0
 10
106.4081086178344
 20
163.8903021846171
 30
0.0
  0
VERTEX
  5
A763
  8
0
 10
106.5719624805116
 20
163.8258614319908
 30
0.0
  0
VERTEX
  5
A764
  8
0
 10
106.6575963540955
 20
163.79860033621031
 30
0.0
  0
VERTEX
  5
A765
  8
0
 10
106.7457447671276
 20
163.77487622395029
 30
0.0
  0
VERTEX
  5
A766
  8
0
 10
106.92924095098149
 20
163.73895348576761
 30
0.0
  0
VERTEX
  5
A767
  8
0
 10
107.1217897061367
 20
163.71998953491899
 30
0.0
  0
VERTEX
  5
A768
  8
0
 10
107.22131558423951
 20
163.71751164983741
 30
0.0
  0
SEQEND
  5
A769
  8
0
  0
LINE
  5
55BF
  8
0
 10
172.94802248485931
 20
173.71751164983741
 30
0.0
 11
152.05917006382489
 21
172.38394550830881
 31
0.0
  0
POLYLINE
  5
55C0
  8
0
 66
     1
 10
0.0
 20
0.0
 30
0.0
  0
VERTEX
  5
A76A
  8
0
 10
152.05917006382501
 20
172.38394550830881
 30
0.0
  0
VERTEX
  5
A76B
  8
0
 10
151.94707563335069
 20
172.37836702335929
 30
0.0
  0
VERTEX
  5
A76C
  8
0
 10
151.71941459644029
 20
172.37672030012629
 30
0.0
  0
VERTEX
  5
A76D
  8
0
 10
151.4884235315595
 20
172.38831268766921
 30
0.0
  0
VERTEX
  5
A76E
  8
0
 10
151.37216858474221
 20
172.39923236922999
 30
0.0
  0
VERTEX
  5
A76F
  8
0
 10
151.25566414431049
 20
172.4136262061844
 30
0.0
  0
VERTEX
  5
A770
  8
0
 10
151.02265811214619
 20
172.45293772632809
 30
0.0
  0
VERTEX
  5
A771
  8
0
 10
150.7909120370376
 20
172.50632356556559
 30
0.0
  0
VERTEX
  5
A772
  8
0
 10
150.56191908049379
 20
172.5736579803503
 30
0.0
  0
VERTEX
  5
A773
  8
0
 10
150.3370409203076
 20
172.65465272418959
 30
0.0
  0
VERTEX
  5
A774
  8
0
 10
150.11750142451001
 20
172.74888815163939
 30
0.0
  0
VERTEX
  5
A775
  8
0
 10
150.01015087893111
 20
172.8007748826916
 30
0.0
  0
VERTEX
  5
A776
  8
0
 10
149.90462792975899
 20
172.8557121378002
 30
0.0
  0
VERTEX
  5
A777
  8
0
 10
149.6996665694694
 20
172.9742878312581
 30
0.0
  0
VERTEX
  5
A778
  8
0
 10
149.50374697240429
 20
173.10361144922899
 30
0.0
  0
VERTEX
  5
A779
  8
0
 10
149.3179129689384
 20
173.24248900829221
 30
0.0
  0
VERTEX
  5
A77A
  8
0
 10
149.14307879113119
 20
173.3895553909571
 30
0.0
  0
VERTEX
  5
A77B
  8
0
 10
148.9763859052145
 20
173.54690360721349
 30
0.0
  0
VERTEX
  5
A77C
  8
0
 10
148.89547340084781
 20
173.63017076250659
 30
0.0
  0
VERTEX
  5
A77D
  8
0
 10
148.8164507810551
 20
173.71638117086539
 30
0.0
  0
VERTEX
  5
A77E
  8
0
 10
148.66481556983331
 20
173.89721404163839
 30
0.0
  0
VERTEX
  5
A77F
  8
0
 10
148.5228404588851
 20
174.0884927687114
 30
0.0
  0
VERTEX
  5
A780
  8
0
 10
148.45585170537331
 20
174.1877310870899
 30
0.0
  0
SEQEND
  5
A781
  8
0
  0
POLYLINE
  5
55C1
  8
0
 66
     1
 10
0.0
 20
0.0
 30
0.0
  0
VERTEX
  5
A782
  8
0
 10
131.71348642019899
 20
174.18773117351259
 30
0.0
  0
VERTEX
  5
A783
  8
0
 10
131.6497283028751
 20
174.0931346335731
 30
0.0
  0
VERTEX
  5
A784
  8
0
 10
131.5124025551452
 20
173.90722801943721
 30
0.0
  0
VERTEX
  5
A785
  8
0
 10
131.36239310041159
 20
173.7270995228572
 30
0.0
  0
VERTEX
  5
A786
  8
0
 10
131.28282396409381
 20
173.63969373676051
 30
0.0
  0
VERTEX
  5
A787
  8
0
 10
131.20033310805269
 20
173.55430130480079
 30
0.0
  0
VERTEX
  5
A788
  8
0
 10
131.02699929501421
 20
173.39021503088779
 30
0.0
  0
VERTEX
  5
A789
  8
0
 10
130.84332599355869
 20
173.23607909534689
 30
0.0
  0
VERTEX
  5
A78A
  8
0
 10
130.65040339094119
 20
173.09298598805859
 30
0.0
  0
VERTEX
  5
A78B
  8
0
 10
130.44935332818409
 20
172.96179980358369
 30
0.0
  0
VERTEX
  5
A78C
  8
0
 10
130.24134349609619
 20
172.8432016424494
 30
0.0
  0
VERTEX
  5
A78D
  8
0
 10
130.13516536684341
 20
172.7888199693424
 30
0.0
  0
VERTEX
  5
A78E
  8
0
 10
130.0277845589375
 20
172.73779864383289
 30
0.0
  0
VERTEX
  5
A78F
  8
0
 10
129.81017530204591
 20
172.64600571647011
 30
0.0
  0
VERTEX
  5
A790
  8
0
 10
129.59007688722949
 20
172.56803493058709
 30
0.0
  0
VERTEX
  5
A791
  8
0
 10
129.36914954966579
 20
172.50390594914001
 30
0.0
  0
VERTEX
  5
A792
  8
0
 10
129.14885610145959
 20
172.45337196876719
 30
0.0
  0
VERTEX
  5
A793
  8
0
 10
128.92470137686169
 20
172.41516886715999
 30
0.0
  0
VERTEX
  5
A794
  8
0
 10
128.81065972341079
 20
172.4007215839664
 30
0.0
  0
VERTEX
  5
A795
  8
0
 10
128.69554646915279
 20
172.38949889130521
 30
0.0
  0
VERTEX
  5
A796
  8
0
 10
128.46282511313839
 20
172.37701505383379
 30
0.0
  0
VERTEX
  5
A797
  8
0
 10
128.22796056256959
 20
172.37816760664271
 30
0.0
  0
VERTEX
  5
A798
  8
0
 10
128.11016800527369
 20
172.38394550830881
 30
0.0
  0
SEQEND
  5
A799
  8
0
  0
LINE
  5
5670
  8
0
 10
64.47200421161574
 20
113.7384704324611
 30
0.0
 11
55.630156508006849
 21
113.7384704324611
 31
0.0
  0
LINE
  5
5671
  8
0
 10
50.051080359811287
 20
110.488731711144
 30
0.0
 11
50.051080359811287
 21
77.738470432461085
 31
0.0
  0
LINE
  5
5672
  8
0
 10
70.05108035981128
 20
77.738470432461085
 30
0.0
 11
70.05108035981128
 21
110.488731711144
 31
0.0
  0
LINE
  5
5676
  8
0
 10
50.051080359811287
 20
110.488731711144
 30
0.0
 11
54.58086083613604
 21
110.488731711144
 31
0.0
  0
LINE
  5
5677
  8
0
 10
65.521299883486563
 20
85.738470432461042
 30
0.0
 11
54.580860836136019
 21
85.738470432461042
 31
0.0
  0
LINE
  5
5678
  8
0
 10
65.521299883486563
 20
110.488731711144
 30
0.0
 11
70.05108035981128
 21
110.488731711144
 31
0.0
  0
LINE
  5
5679
  8
0
 10
70.05108035981128
 20
77.738470432461085
 30
0.0
 11
50.051080359811287
 21
77.738470432461085
 31
0.0
  0
POLYLINE
  5
567A
  8
0
 66
     1
 10
0.0
 20
0.0
 30
0.0
  0
VERTEX
  5
A79A
  8
0
 10
64.965007402480381
 20
110.50198125003121
 30
0.0
  0
VERTEX
  5
A79B
  8
0
 10
65.051042513010941
 20
110.4979875901132
 30
0.0
  0
VERTEX
  5
A79C
  8
0
 10
65.231479128325901
 20
110.49209700956899
 30
0.0
  0
VERTEX
  5
A79D
  8
0
 10
65.422306049273516
 20
110.4891084053951
 30
0.0
  0
VERTEX
  5
A79E
  8
0
 10
65.521299883486563
 20
110.488731711144
 30
0.0
  0
SEQEND
  5
A79F
  8
0
  0
LINE
  5
567B
  8
0
 10
65.521299883486563
 20
110.488731711144
 30
0.0
 11
65.521299883486563
 21
85.738470432461042
 31
0.0
  0
POLYLINE
  5
567C
  8
0
 66
     1
 10
0.0
 20
0.0
 30
0.0
  0
VERTEX
  5
A7A0
  8
0
 10
65.521299883486563
 20
85.738470432461042
 30
0.0
  0
VERTEX
  5
A7A1
  8
0
 10
65.428287831562244
 20
85.739070027792707
 30
0.0
  0
VERTEX
  5
A7A2
  8
0
 10
65.247947701190142
 20
85.743851934616075
 30
0.0
  0
VERTEX
  5
A7A3
  8
0
 10
65.075498891327015
 20
85.753371800696925
 30
0.0
  0
VERTEX
  5
A7A4
  8
0
 10
64.99235153899636
 20
85.759891200135542
 30
0.0
  0
VERTEX
  5
A7A5
  8
0
 10
64.911318648240041
 20
85.767573017812694
 30
0.0
  0
VERTEX
  5
A7A6
  8
0
 10
64.756082858139564
 20
85.786347123210746
 30
0.0
  0
VERTEX
  5
A7A7
  8
0
 10
64.610484741051067
 20
85.809525659174184
 30
0.0
  0
VERTEX
  5
A7A8
  8
0
 10
64.474783565135056
 20
85.836964564860367
 30
0.0
  0
VERTEX
  5
A7A9
  8
0
 10
64.34923804115013
 20
85.868514890520643
 30
0.0
  0
VERTEX
  5
A7AA
  8
0
 10
64.234316632097347
 20
85.903952514689763
 30
0.0
  0
VERTEX
  5
A7AB
  8
0
 10
64.180996648592554
 20
85.92303821261612
 30
0.0
  0
VERTEX
  5
A7AC
  8
0
 10
64.130455264744171
 20
85.943001925939313
 30
0.0
  0
VERTEX
  5
A7AD
  8
0
 10
64.037762670887332
 20
85.985465110859934
 30
0.0
  0
VERTEX
  5
A7AE
  8
0
 10
63.956348662486619
 20
86.031147358802727
 30
0.0
  0
VERTEX
  5
A7AF
  8
0
 10
63.88632323395899
 20
86.079857098748832
 30
0.0
  0
VERTEX
  5
A7B0
  8
0
 10
63.827806251711181
 20
86.131394503303355
 30
0.0
  0
VERTEX
  5
A7B1
  8
0
 10
63.780988328413983
 20
86.185447451731164
 30
0.0
  0
VERTEX
  5
A7B2
  8
0
 10
63.761977486070649
 20
86.213344323794047
 30
0.0
  0
VERTEX
  5
A7B3
  8
0
 10
63.745896699306492
 20
86.241789728123507
 30
0.0
  0
VERTEX
  5
A7B4
  8
0
 10
63.722519253366052
 20
86.300233173183514
 30
0.0
  0
VERTEX
  5
A7B5
  8
0
 10
63.710844047766102
 20
86.360582882531929
 30
0.0
  0
VERTEX
  5
A7B6
  8
0
 10
63.70938769295666
 20
86.391390163830323
 30
0.0
  0
SEQEND
  5
A7B7
  8
0
  0
POLYLINE
  5
567D
  8
0
 66
     1
 10
0.0
 20
0.0
 30
0.0
  0
VERTEX
  5
A7B8
  8
0
 10
63.70938769295666
 20
86.391390163830323
 30
0.0
  0
VERTEX
  5
A7B9
  8
0
 10
63.709613907557269
 20
86.403648873692916
 30
0.0
  0
VERTEX
  5
A7BA
  8
0
 10
63.711421907104352
 20
86.428342171074476
 30
0.0
  0
VERTEX
  5
A7BB
  8
0
 10
63.715033508273223
 20
86.453261254613551
 30
0.0
  0
VERTEX
  5
A7BC
  8
0
 10
63.71751421828278
 20
86.465802227641177
 30
0.0
  0
SEQEND
  5
A7BD
  8
0
  0
POLYLINE
  5
567F
  8
0
 66
     1
 10
0.0
 20
0.0
 30
0.0
  0
VERTEX
  5
A7BE
  8
0
 10
55.630156508006849
 20
113.7384704324611
 30
0.0
  0
VERTEX
  5
A7BF
  8
0
 10
55.611994197509873
 20
113.7347607413319
 30
0.0
  0
VERTEX
  5
A7C0
  8
0
 10
55.574602206940881
 20
113.7037007314003
 30
0.0
  0
VERTEX
  5
A7C1
  8
0
 10
55.536329946146061
 20
113.63896095353959
 30
0.0
  0
VERTEX
  5
A7C2
  8
0
 10
55.517064556323128
 20
113.5935722935356
 30
0.0
  0
VERTEX
  5
A7C3
  8
0
 10
55.49781888614028
 20
113.5395274860156
 30
0.0
  0
VERTEX
  5
A7C4
  8
0
 10
55.459687691993722
 20
113.4061978730392
 30
0.0
  0
VERTEX
  5
A7C5
  8
0
 10
55.422529637224983
 20
113.24157344260441
 30
0.0
  0
VERTEX
  5
A7C6
  8
0
 10
55.386919334520599
 20
113.05009081420791
 30
0.0
  0
VERTEX
  5
A7C7
  8
0
 10
55.353196355211153
 20
112.83656626865491
 30
0.0
  0
VERTEX
  5
A7C8
  8
0
 10
55.319452583414943
 20
112.5894370006572
 30
0.0
  0
VERTEX
  5
A7C9
  8
0
 10
55.302506479636399
 20
112.451887559874
 30
0.0
  0
VERTEX
  5
A7CA
  8
0
 10
55.285619603193027
 20
112.305361606685
 30
0.0
  0
VERTEX
  5
A7CB
  8
0
 10
55.252329138228589
 20
111.9870389352179
 30
0.0
  0
VERTEX
  5
A7CC
  8
0
 10
55.220149843761646
 20
111.63876042017721
 30
0.0
  0
VERTEX
  5
A7CD
  8
0
 10
55.189578684804019
 20
111.26632537645931
 30
0.0
  0
VERTEX
  5
A7CE
  8
0
 10
55.161052165194491
 20
110.87716886459719
 30
0.0
  0
VERTEX
  5
A7CF
  8
0
 10
55.134868283415919
 20
110.4791547621985
 30
0.0
  0
VERTEX
  5
A7D0
  8
0
 10
55.122205407711313
 20
110.27072426321121
 30
0.0
  0
VERTEX
  5
A7D1
  8
0
 10
55.109658040534413
 20
110.05273766108419
 30
0.0
  0
VERTEX
  5
A7D2
  8
0
 10
55.085204567099957
 20
109.5908289402457
 30
0.0
  0
VERTEX
  5
A7D3
  8
0
 10
55.062039392854381
 20
109.0996214910671
 30
0.0
  0
VERTEX
  5
A7D4
  8
0
 10
55.051080359811287
 20
108.8452927097911
 30
0.0
  0
SEQEND
  5
A7D5
  8
0
  0
POLYLINE
  5
5680
  8
0
 66
     1
 10
0.0
 20
0.0
 30
0.0
  0
VERTEX
  5
A7D6
  8
0
 10
55.051080359811287
 20
97.031648155130995
 30
0.0
  0
VERTEX
  5
A7D7
  8
0
 10
55.05784274325201
 20
96.872878662098785
 30
0.0
  0
VERTEX
  5
A7D8
  8
0
 10
55.071879217102612
 20
96.561525324617563
 30
0.0
  0
VERTEX
  5
A7D9
  8
0
 10
55.086516609473932
 20
96.259960444644776
 30
0.0
  0
VERTEX
  5
A7DA
  8
0
 10
55.094026443018748
 20
96.113391498540196
 30
0.0
  0
VERTEX
  5
A7DB
  8
0
 10
55.101643746576599
 20
95.969897244176664
 30
0.0
  0
VERTEX
  5
A7DC
  8
0
 10
55.117135833348698
 20
95.692860515575433
 30
0.0
  0
VERTEX
  5
A7DD
  8
0
 10
55.132854070855359
 20
95.430203252016042
 30
0.0
  0
VERTEX
  5
A7DE
  8
0
 10
55.148786563419819
 20
95.180980362507796
 30
0.0
  0
VERTEX
  5
A7DF
  8
0
 10
55.165588603635797
 20
94.934956532089998
 30
0.0
  0
VERTEX
  5
A7E0
  8
0
 10
55.183301800375368
 20
94.692595071014722
 30
0.0
  0
VERTEX
  5
A7E1
  8
0
 10
55.192473418868033
 20
94.573467644326286
 30
0.0
  0
VERTEX
  5
A7E2
  8
0
 10
55.201839538153649
 20
94.456043693941439
 30
0.0
  0
VERTEX
  5
A7E3
  8
0
 10
55.221104328579138
 20
94.227231198825564
 30
0.0
  0
VERTEX
  5
A7E4
  8
0
 10
55.240986792514718
 20
94.007873498014604
 30
0.0
  0
VERTEX
  5
A7E5
  8
0
 10
55.261369116954
 20
93.799432079701475
 30
0.0
  0
VERTEX
  5
A7E6
  8
0
 10
55.282126066995019
 20
93.603111445409496
 30
0.0
  0
VERTEX
  5
A7E7
  8
0
 10
55.303118125749961
 20
93.419925830797112
 30
0.0
  0
VERTEX
  5
A7E8
  8
0
 10
55.313656331280932
 20
93.333507589513545
 30
0.0
  0
VERTEX
  5
A7E9
  8
0
 10
55.324197180346573
 20
93.250640116293695
 30
0.0
  0
VERTEX
  5
A7EA
  8
0
 10
55.3452069273456
 20
93.095772596563549
 30
0.0
  0
VERTEX
  5
A7EB
  8
0
 10
55.365985584412023
 20
92.955584603746914
 30
0.0
  0
VERTEX
  5
A7EC
  8
0
 10
55.376444306535518
 20
92.889730458436233
 30
0.0
  0
SEQEND
  5
A7ED
  8
0
  0
POLYLINE
  5
5681
  8
0
 66
     1
 10
0.0
 20
0.0
 30
0.0
  0
VERTEX
  5
A7EE
  8
0
 10
55.376444306535518
 20
92.889730458436233
 30
0.0
  0
VERTEX
  5
A7EF
  8
0
 10
55.532693855975502
 20
91.653871094455198
 30
0.0
  0
VERTEX
  5
A7F0
  8
0
 10
55.862827437760281
 20
89.3435817255899
 30
0.0
  0
VERTEX
  5
A7F1
  8
0
 10
56.208861830137131
 20
87.333329626521888
 30
0.0
  0
VERTEX
  5
A7F2
  8
0
 10
56.38464650133983
 20
86.465802227641234
 30
0.0
  0
SEQEND
  5
A7F3
  8
0
  0
LINE
  5
5682
  8
0
 10
55.051080359811287
 20
108.8452927097911
 30
0.0
 11
55.051080359811287
 21
97.031648155130995
 31
0.0
  0
POLYLINE
  5
5685
  8
0
 66
     1
 10
0.0
 20
0.0
 30
0.0
  0
VERTEX
  5
A7F4
  8
0
 10
64.725716413087071
 20
92.889730458436233
 30
0.0
  0
VERTEX
  5
A7F5
  8
0
 10
64.736175135210772
 20
92.955584603748378
 30
0.0
  0
VERTEX
  5
A7F6
  8
0
 10
64.756953792277244
 20
93.095772596565212
 30
0.0
  0
VERTEX
  5
A7F7
  8
0
 10
64.777963539276243
 20
93.250640116295514
 30
0.0
  0
VERTEX
  5
A7F8
  8
0
 10
64.788504388341892
 20
93.333507589515477
 30
0.0
  0
VERTEX
  5
A7F9
  8
0
 10
64.799042593872883
 20
93.419925830799158
 30
0.0
  0
VERTEX
  5
A7FA
  8
0
 10
64.820034652627783
 20
93.603111445411685
 30
0.0
  0
VERTEX
  5
A7FB
  8
0
 10
64.840791602668816
 20
93.799432079703905
 30
0.0
  0
VERTEX
  5
A7FC
  8
0
 10
64.861173927108084
 20
94.007873498017076
 30
0.0
  0
VERTEX
  5
A7FD
  8
0
 10
64.881056391043671
 20
94.227231198828235
 30
0.0
  0
VERTEX
  5
A7FE
  8
0
 10
64.900321181469167
 20
94.456043693944224
 30
0.0
  0
VERTEX
  5
A7FF
  8
0
 10
64.909687300754783
 20
94.573467644329114
 30
0.0
  0
VERTEX
  5
A800
  8
0
 10
64.918858919247413
 20
94.692595071017564
 30
0.0
  0
VERTEX
  5
A801
  8
0
 10
64.936572115986962
 20
94.934956532092855
 30
0.0
  0
VERTEX
  5
A802
  8
0
 10
64.953374156202969
 20
95.180980362510752
 30
0.0
  0
VERTEX
  5
A803
  8
0
 10
64.969306648767414
 20
95.430203252019055
 30
0.0
  0
VERTEX
  5
A804
  8
0
 10
64.985024886274061
 20
95.692860515578573
 30
0.0
  0
VERTEX
  5
A805
  8
0
 10
65.000516973046189
 20
95.969897244180075
 30
0.0
  0
VERTEX
  5
A806
  8
0
 10
65.008134276604011
 20
96.113391498543663
 30
0.0
  0
VERTEX
  5
A807
  8
0
 10
65.015644110148827
 20
96.259960444648357
 30
0.0
  0
VERTEX
  5
A808
  8
0
 10
65.030281502520182
 20
96.5615253246213
 30
0.0
  0
VERTEX
  5
A809
  8
0
 10
65.044317976370735
 20
96.872878662102693
 30
0.0
  0
VERTEX
  5
A80A
  8
0
 10
65.05108035981128
 20
97.031648155130995
 30
0.0
  0
SEQEND
  5
A80B
  8
0
  0
POLYLINE
  5
5686
  8
0
 66
     1
 10
0.0
 20
0.0
 30
0.0
  0
VERTEX
  5
A80C
  8
0
 10
65.05108035981128
 20
108.8452927097911
 30
0.0
  0
VERTEX
  5
A80D
  8
0
 10
65.04012132676803
 20
109.09962149107091
 30
0.0
  0
VERTEX
  5
A80E
  8
0
 10
65.016956152522454
 20
109.590828940249
 30
0.0
  0
VERTEX
  5
A80F
  8
0
 10
64.992502679088034
 20
110.05273766108721
 30
0.0
  0
VERTEX
  5
A810
  8
0
 10
64.979955311911112
 20
110.27072426321401
 30
0.0
  0
VERTEX
  5
A811
  8
0
 10
64.967292436206492
 20
110.47915476220101
 30
0.0
  0
VERTEX
  5
A812
  8
0
 10
64.941108554427956
 20
110.8771688645995
 30
0.0
  0
VERTEX
  5
A813
  8
0
 10
64.912582034818399
 20
111.2663253764613
 30
0.0
  0
VERTEX
  5
A814
  8
0
 10
64.8820108758608
 20
111.638760420179
 30
0.0
  0
VERTEX
  5
A815
  8
0
 10
64.849831581393843
 20
111.9870389352194
 30
0.0
  0
VERTEX
  5
A816
  8
0
 10
64.81654111642942
 20
112.3053616066863
 30
0.0
  0
VERTEX
  5
A817
  8
0
 10
64.799654239986054
 20
112.4518875598751
 30
0.0
  0
VERTEX
  5
A818
  8
0
 10
64.782708136207532
 20
112.58943700065809
 30
0.0
  0
VERTEX
  5
A819
  8
0
 10
64.748964364411336
 20
112.8365662686557
 30
0.0
  0
VERTEX
  5
A81A
  8
0
 10
64.715241385101876
 20
113.0500908142085
 30
0.0
  0
VERTEX
  5
A81B
  8
0
 10
64.679631082397535
 20
113.2415734426049
 30
0.0
  0
VERTEX
  5
A81C
  8
0
 10
64.642473027628796
 20
113.4061978730396
 30
0.0
  0
VERTEX
  5
A81D
  8
0
 10
64.604341833482223
 20
113.5395274860158
 30
0.0
  0
VERTEX
  5
A81E
  8
0
 10
64.585096163299397
 20
113.5935722935357
 30
0.0
  0
VERTEX
  5
A81F
  8
0
 10
64.565830773476506
 20
113.63896095353969
 30
0.0
  0
VERTEX
  5
A820
  8
0
 10
64.527558512681708
 20
113.7037007314003
 30
0.0
  0
VERTEX
  5
A821
  8
0
 10
64.490166522112673
 20
113.7347607413319
 30
0.0
  0
VERTEX
  5
A822
  8
0
 10
64.47200421161574
 20
113.7384704324611
 30
0.0
  0
SEQEND
  5
A823
  8
0
  0
POLYLINE
  5
5687
  8
0
 66
     1
 10
0.0
 20
0.0
 30
0.0
  0
VERTEX
  5
A824
  8
0
 10
63.71751421828278
 20
86.465802227641177
 30
0.0
  0
VERTEX
  5
A825
  8
0
 10
63.893298889485457
 20
87.333329626521888
 30
0.0
  0
VERTEX
  5
A826
  8
0
 10
64.239333281862315
 20
89.3435817255899
 30
0.0
  0
VERTEX
  5
A827
  8
0
 10
64.569466863647079
 20
91.653871094455141
 30
0.0
  0
VERTEX
  5
A828
  8
0
 10
64.725716413087071
 20
92.889730458436233
 30
0.0
  0
SEQEND
  5
A829
  8
0
  0
LINE
  5
5689
  8
0
 10
65.05108035981128
 20
108.8452927097911
 30
0.0
 11
65.05108035981128
 21
97.031648155130995
 31
0.0
  0
LINE
  5
568C
  8
0
 10
54.58086083613604
 20
110.488731711144
 30
0.0
 11
54.58086083613604
 21
85.738470432461042
 31
0.0
  0
POLYLINE
  5
568D
  8
0
 66
     1
 10
0.0
 20
0.0
 30
0.0
  0
VERTEX
  5
A82A
  8
0
 10
54.580860836136019
 20
110.488731711144
 30
0.0
  0
VERTEX
  5
A82B
  8
0
 10
54.676882590101002
 20
110.4890859095686
 30
0.0
  0
VERTEX
  5
A82C
  8
0
 10
54.865525989798869
 20
110.4919745161306
 30
0.0
  0
VERTEX
  5
A82D
  8
0
 10
55.048177220803282
 20
110.4978653022162
 30
0.0
  0
VERTEX
  5
A82E
  8
0
 10
55.136742914962468
 20
110.5019602353705
 30
0.0
  0
SEQEND
  5
A82F
  8
0
  0
POLYLINE
  5
568E
  8
0
 66
     1
 10
0.0
 20
0.0
 30
0.0
  0
VERTEX
  5
A830
  8
0
 10
56.38464650133983
 20
86.465802227641234
 30
0.0
  0
VERTEX
  5
A831
  8
0
 10
56.387127249172401
 20
86.453261044798694
 30
0.0
  0
VERTEX
  5
A832
  8
0
 10
56.39073885370567
 20
86.428341794112839
 30
0.0
  0
VERTEX
  5
A833
  8
0
 10
56.392546819758032
 20
86.403648664705145
 30
0.0
  0
VERTEX
  5
A834
  8
0
 10
56.392773026665921
 20
86.391390163830323
 30
0.0
  0
SEQEND
  5
A835
  8
0
  0
POLYLINE
  5
568F
  8
0
 66
     1
 10
0.0
 20
0.0
 30
0.0
  0
VERTEX
  5
A836
  8
0
 10
56.392773026665921
 20
86.391390163830323
 30
0.0
  0
VERTEX
  5
A837
  8
0
 10
56.391311889321557
 20
86.360532697567862
 30
0.0
  0
VERTEX
  5
A838
  8
0
 10
56.37959702137104
 20
86.300082576284979
 30
0.0
  0
VERTEX
  5
A839
  8
0
 10
56.3561348944
 20
86.241536320418504
 30
0.0
  0
VERTEX
  5
A83A
  8
0
 10
56.339994371111281
 20
86.213041348173334
 30
0.0
  0
VERTEX
  5
A83B
  8
0
 10
56.320911789823128
 20
86.185096366609059
 30
0.0
  0
VERTEX
  5
A83C
  8
0
 10
56.273913110270939
 20
86.13095231550966
 30
0.0
  0
VERTEX
  5
A83D
  8
0
 10
56.215223076198548
 20
86.079378297304444
 30
0.0
  0
VERTEX
  5
A83E
  8
0
 10
56.145037610162497
 20
86.030664968432603
 30
0.0
  0
VERTEX
  5
A83F
  8
0
 10
56.063476212388323
 20
85.984998667794002
 30
0.0
  0
VERTEX
  5
A840
  8
0
 10
55.970659991772649
 20
85.942568550579054
 30
0.0
  0
VERTEX
  5
A841
  8
0
 10
55.920069285999531
 20
85.922626957183013
 30
0.0
  0
VERTEX
  5
A842
  8
0
 10
55.866710279029348
 20
85.903566611468747
 30
0.0
  0
VERTEX
  5
A843
  8
0
 10
55.751746550349957
 20
85.868187381170344
 30
0.0
  0
VERTEX
  5
A844
  8
0
 10
55.62590153502412
 20
85.836631605325408
 30
0.0
  0
VERTEX
  5
A845
  8
0
 10
55.489935023605817
 20
85.809212644659524
 30
0.0
  0
VERTEX
  5
A846
  8
0
 10
55.344450135176928
 20
85.786120276353273
 30
0.0
  0
VERTEX
  5
A847
  8
0
 10
55.189779294699918
 20
85.767463350283094
 30
0.0
  0
VERTEX
  5
A848
  8
0
 10
55.109102746115809
 20
85.759830138788061
 30
0.0
  0
VERTEX
  5
A849
  8
0
 10
55.026253880864928
 20
85.753343055213179
 30
0.0
  0
VERTEX
  5
A84A
  8
0
 10
54.854203830417703
 20
85.743851561837403
 30
0.0
  0
VERTEX
  5
A84B
  8
0
 10
54.67395676507369
 20
85.739071119958624
 30
0.0
  0
VERTEX
  5
A84C
  8
0
 10
54.580860836136019
 20
85.738470432461042
 30
0.0
  0
SEQEND
  5
A84D
  8
0
  0
LINE
  5
5D09
  8
1
 10
60.051080359811287
 20
41.238470432461099
 30
0.0000000000000002
 11
60.051080359811287
 21
118.238470432461
 31
0.0
  0
ARC
  5
5D53
  8
0
 10
140.08466903454931
 20
103.45905914955171
 30
-0.0000000000000016
 40
10.27941128290936
 50
43.145975360487462
 51
136.85402463951249
  0
ARC
  5
5D90
  8
0
 10
60.051080359811209
 20
103.45905914955171
 30
-0.0000000000000016
 40
10.27941128290936
 50
43.145975360487462
 51
62.58955591470685
  0
ARC
  5
5D91
  8
0
 10
60.051080359811209
 20
103.45905914955171
 30
-0.0000000000000016
 40
10.27941128290936
 50
117.41044408529309
 51
136.85402463951249
  0
CIRCLE
  5
5EE5
  8
0
 10
140.08466903454951
 20
168.71751164983729
 30
0.0
 40
7.5
  0
CIRCLE
  5
5EE6
  8
0
 10
140.08466903454939
 20
168.71751164983729
 30
0.0
 40
0.7500000000000001
  0
CIRCLE
  5
5EE7
  8
0
 10
137.58466903454939
 20
168.71751164983729
 30
0.0
 40
0.7500000000000001
  0
CIRCLE
  5
5EE8
  8
0
 10
135.08466903454939
 20
168.71751164983729
 30
0.0
 40
0.7500000000000001
  0
CIRCLE
  5
5EE9
  8
0
 10
142.58466903454939
 20
168.71751164983729
 30
0.0
 40
0.7500000000000001
  0
CIRCLE
  5
5EEA
  8
0
 10
145.08466903454939
 20
168.71751164983729
 30
0.0
 40
0.7500000000000001
  0
ARC
  5
96E5
  8
0
 10
140.08466903454939
 20
168.71751164983729
 30
0.0
 40
10.0
 50
33.162944778229317
 51
146.8370546302524
  0
ARC
  5
96E6
  8
0
 10
140.08466903454939
 20
168.71751164983729
 30
0.0
 40
10.0
 50
213.1629453697438
 51
326.83705463026018
  0
LINE
  5
A11C
  8
0
 10
145.08466903454959
 20
75.738470432461312
 30
0.0
 11
135.08466903454939
 21
75.738470432461312
 31
0.0
  0
LINE
  5
A132
  8
0
 10
65.051080359811493
 20
75.738470432461312
 30
0.0
 11
55.051080359811323
 21
75.738470432461312
 31
0.0
  0
TEXT
  5
A2FC
  8
0
 62
     3
 10
0.0
 20
0.0
 30
0.0
 40
10.0
  1
EWN70AX30-BS-GR
  7
STANDARD1
  0
LINE
  5
A483
  8
0
 10
135.08466903454939
 20
48.658470432461101
 30
0.0
 11
136.00466903454929
 21
47.738470432461092
 31
0.0
  0
LINE
  5
A484
  8
0
 10
144.16466903454941
 20
47.738470432461092
 30
0.0
 11
145.08466903454939
 21
48.658470432461101
 31
0.0
  0
LINE
  5
A485
  8
0
 10
135.08466903454939
 20
77.738470432461085
 30
0.0
 11
135.08466903454939
 21
48.658470432461101
 31
0.0
  0
LINE
  5
A486
  8
0
 10
145.08466903454939
 20
48.658470432461101
 30
0.0
 11
145.08466903454939
 21
77.738470432461085
 31
0.0
  0
LINE
  5
A488
  8
0
 10
137.08466903454939
 20
47.738470432461092
 30
0.0
 11
137.08466903454939
 21
45.738470432461099
 31
0.0
  0
LINE
  5
A489
  8
0
 10
143.08466903454939
 20
45.738470432461099
 30
0.0
 11
143.08466903454939
 21
47.738470432461092
 31
0.0
  0
LINE
  5
A4AC
  8
0
 10
144.16466903454941
 20
47.738470432461092
 30
0.0
 11
136.00466903454929
 21
47.738470432461092
 31
0.0
  0
LINE
  5
A4AD
  8
0
 10
145.08466903454939
 20
48.658470432461101
 30
0.0
 11
135.08466903454939
 21
48.658470432461101
 31
0.0
  0
LINE
  5
A4AE
  8
0
 10
143.08466903454939
 20
45.738470432461099
 30
0.0
 11
137.08466903454939
 21
45.738470432461099
 31
0.0
  0
LINE
  5
A4CE
  8
0
 10
55.051080359811287
 20
48.658470432461101
 30
0.0
 11
55.971080359811289
 21
47.738470432461092
 31
0.0
  0
LINE
  5
A4CF
  8
0
 10
64.131080359811293
 20
47.738470432461092
 30
0.0
 11
65.05108035981128
 21
48.658470432461101
 31
0.0
  0
LINE
  5
A4D0
  8
0
 10
55.051080359811287
 20
77.738470432461085
 30
0.0
 11
55.051080359811287
 21
48.658470432461101
 31
0.0
  0
LINE
  5
A4D1
  8
0
 10
65.05108035981128
 20
48.658470432461101
 30
0.0
 11
65.05108035981128
 21
77.738470432461085
 31
0.0
  0
LINE
  5
A4D4
  8
0
 10
57.051080359811301
 20
47.738470432461092
 30
0.0
 11
57.051080359811301
 21
45.738470432461099
 31
0.0
  0
LINE
  5
A4D5
  8
0
 10
63.05108035981128
 20
45.738470432461099
 30
0.0
 11
63.05108035981128
 21
47.738470432461092
 31
0.0
  0
LINE
  5
A4F1
  8
0
 10
64.131080359811293
 20
47.738470432461092
 30
0.0
 11
55.971080359811289
 21
47.738470432461092
 31
0.0
  0
LINE
  5
A4F2
  8
0
 10
65.05108035981128
 20
48.658470432461101
 30
0.0
 11
55.051080359811287
 21
48.658470432461101
 31
0.0
  0
LINE
  5
A4F3
  8
0
 10
63.05108035981128
 20
45.738470432461099
 30
0.0
 11
57.051080359811301
 21
45.738470432461099
 31
0.0
  0
LINE
  5
A57D
  8
3
 10
64.239080359811396
 20
47.846470432461203
 30
0.0
 11
64.239080359811396
 21
75.738470432461312
 31
0.0
  0
LINE
  5
A57E
  8
3
 10
55.863080359811192
 20
47.846470432461189
 30
0.0
 11
55.8630803598112
 21
75.738470432461312
 31
0.0
  0
LINE
  5
A57F
  8
3
 10
144.27266903454949
 20
47.84647043246121
 30
0.0
 11
144.27266903454949
 21
75.738470432461312
 31
0.0
  0
LINE
  5
A580
  8
3
 10
135.89666903454929
 20
47.846470432461082
 30
0.0
 11
135.89666903454929
 21
75.738470432461298
 31
0.0
  0
LINE
  5
A581
  8
3
 10
55.8630803598112
 20
75.738470432461312
 30
0.0
 11
55.05108035981128
 21
77.1448956882071
 31
0.0
  0
LINE
  5
A582
  8
3
 10
64.239080359811624
 20
75.738470432461312
 30
0.0
 11
65.051080359811536
 21
77.1448956882071
 31
0.0
  0
LINE
  5
A583
  8
3
 10
135.8966690345494
 20
75.738470432461312
 30
0.0
 11
135.08466903454951
 21
77.1448956882071
 31
0.0
  0
LINE
  5
A584
  8
3
 10
144.27266903454981
 20
75.738470432461312
 30
0.0
 11
145.08466903454971
 21
77.1448956882071
 31
0.0
  0
ENDSEC
  0
EOF
