  0
SECTION
  2
HEADER
  9
$ACADVER
  1
AC1009
  9
$INSBASE
 10
0.0
 20
0.0
 30
0.0
  9
$EXTMIN
 10
0.0
 20
-2.960436562073669
 30
0.0
  9
$EXTMAX
 10
177.49999999999949
 20
146.49999999999989
 30
0.0
  9
$LIMMIN
 10
0.0
 20
0.0
  9
$LIMMAX
 10
187.5
 20
135.0
  9
$ORTHOMODE
 70
     1
  9
$REGENMODE
 70
     1
  9
$FILLMODE
 70
     1
  9
$QTEXTMODE
 70
     0
  9
$MIRRTEXT
 70
     0
  9
$DRAGMODE
 70
     2
  9
$LTSCALE
 40
5.0
  9
$OSMODE
 70
    37
  9
$ATTMODE
 70
     1
  9
$TEXTSIZE
 40
0.2
  9
$TRACEWID
 40
0.05
  9
$TEXTSTYLE
  7
STANDARD
  9
$CLAYER
  8
0
  9
$CELTYPE
  6
BYLAYER
  9
$CECOLOR
 62
     6
  9
$DIMSCALE
 40
1.0
  9
$DIMASZ
 40
3.0
  9
$DIMEXO
 40
2.0
  9
$DIMDLI
 40
0.3799999999999999
  9
$DIMRND
 40
0.0
  9
$DIMDLE
 40
0.0
  9
$DIMEXE
 40
2.0
  9
$DIMTP
 40
0.0
  9
$DIMTM
 40
0.0
  9
$DIMTXT
 40
3.2000000000000002
  9
$DIMCEN
 40
0.09
  9
$DIMTSZ
 40
0.0
  9
$DIMTOL
 70
     0
  9
$DIMLIM
 70
     0
  9
$DIMTIH
 70
     0
  9
$DIMTOH
 70
     0
  9
$DIMSE1
 70
     0
  9
$DIMSE2
 70
     0
  9
$DIMTAD
 70
     1
  9
$DIMZIN
 70
     8
  9
$DIMBLK
  1

  9
$DIMASO
 70
     0
  9
$DIMSHO
 70
     0
  9
$DIMPOST
  1

  9
$DIMAPOST
  1

  9
$DIMALT
 70
     0
  9
$DIMALTD
 70
     2
  9
$DIMALTF
 40
25.399999999999999
  9
$DIMLFAC
 40
1.0
  9
$DIMTOFL
 70
     0
  9
$DIMTVP
 40
1.6000000000000001
  9
$DIMTIX
 70
     1
  9
$DIMSOXD
 70
     0
  9
$DIMSAH
 70
     0
  9
$DIMBLK1
  1

  9
$DIMBLK2
  1

  9
$DIMSTYLE
  2
STANDARD
  9
$DIMCLRD
 70
     0
  9
$DIMCLRE
 70
     0
  9
$DIMCLRT
 70
     0
  9
$DIMTFAC
 40
1.0
  9
$DIMGAP
 40
1.0
  9
$LUNITS
 70
     2
  9
$LUPREC
 70
     1
  9
$SKETCHINC
 40
0.1
  9
$FILLETRAD
 40
0.4
  9
$AUNITS
 70
     0
  9
$AUPREC
 70
     1
  9
$MENU
  1
E:\r13\win\SUPPORT\ACAD
  9
$ELEVATION
 40
0.0
  9
$PELEVATION
 40
0.0
  9
$THICKNESS
 40
0.0
  9
$LIMCHECK
 70
     0
  9
$BLIPMODE
 70
     0
  9
$CHAMFERA
 40
0.0
  9
$CHAMFERB
 40
0.0
  9
$SKPOLY
 70
     0
  9
$TDCREATE
 40
2456129.6740617128
  9
$TDUPDATE
 40
2457892.4265046879
  9
$TDINDWG
 40
0.5768952431
  9
$TDUSRTIMER
 40
0.5768950694
  9
$USRTIMER
 70
     1
  9
$ANGBASE
 50
0.0
  9
$ANGDIR
 70
     0
  9
$PDMODE
 70
     0
  9
$PDSIZE
 40
0.0
  9
$PLINEWID
 40
0.0
  9
$COORDS
 70
     1
  9
$SPLFRAME
 70
     0
  9
$SPLINETYPE
 70
     6
  9
$SPLINESEGS
 70
     8
  9
$ATTDIA
 70
     0
  9
$ATTREQ
 70
     1
  9
$HANDLING
 70
     1
  9
$HANDSEED
  5
AB71
  9
$SURFTAB1
 70
     6
  9
$SURFTAB2
 70
     6
  9
$SURFTYPE
 70
     6
  9
$SURFU
 70
     6
  9
$SURFV
 70
     6
  9
$UCSNAME
  2

  9
$UCSORG
 10
0.0
 20
0.0
 30
0.0
  9
$UCSXDIR
 10
1.0
 20
0.0
 30
0.0
  9
$UCSYDIR
 10
0.0
 20
1.0
 30
0.0
  9
$PUCSNAME
  2

  9
$PUCSORG
 10
0.0
 20
0.0
 30
0.0
  9
$PUCSXDIR
 10
1.0
 20
0.0
 30
0.0
  9
$PUCSYDIR
 10
0.0
 20
1.0
 30
0.0
  9
$USERI1
 70
     0
  9
$USERI2
 70
     1
  9
$USERI3
 70
     0
  9
$USERI4
 70
     0
  9
$USERI5
 70
     0
  9
$USERR1
 40
0.0
  9
$USERR2
 40
0.0
  9
$USERR3
 40
0.0
  9
$USERR4
 40
0.0
  9
$USERR5
 40
0.0
  9
$WORLDVIEW
 70
     1
  9
$SHADEDGE
 70
     3
  9
$SHADEDIF
 70
    70
  9
$TILEMODE
 70
     1
  9
$MAXACTVP
 70
    16
  9
$PLIMCHECK
 70
     0
  9
$PEXTMIN
 10
1.0000000000000000E+020
 20
1.0000000000000000E+020
 30
1.0000000000000000E+020
  9
$PEXTMAX
 10
-1.0000000000000000E+020
 20
-1.0000000000000000E+020
 30
-1.0000000000000000E+020
  9
$PLIMMIN
 10
0.0
 20
0.0
  9
$PLIMMAX
 10
12.0
 20
9.0
  9
$UNITMODE
 70
     0
  9
$VISRETAIN
 70
     0
  9
$PLINEGEN
 70
     0
  9
$PSLTSCALE
 70
     0
  0
ENDSEC
  0
SECTION
  2
TABLES
  0
TABLE
  2
VPORT
 70
     1
  0
VPORT
  2
*ACTIVE
 70
     0
 10
0.0
 20
0.0
 11
1.0
 21
1.0
 12
181.62393162393161
 22
100.0
 13
0.0
 23
0.0
 14
5.0
 24
5.0
 15
5.0
 25
5.0
 16
0.0
 26
0.0
 36
1.0
 17
0.0
 27
0.0
 37
0.0
 40
200.0
 41
1.816239316239316
 42
50.0
 43
0.0
 44
0.0
 50
0.0
 51
0.0
 71
     0
 72
   500
 73
     1
 74
     0
 75
     0
 76
     0
 77
     0
 78
     2
  0
ENDTAB
  0
TABLE
  2
LTYPE
 70
     4
  0
LTYPE
  2
CONTINUOUS
 70
     0
  3
Solid Line
 72
    65
 73
     0
 40
0.0
  0
LTYPE
  2
CENTER
 70
     0
  3
____ _ ____ _ ____ _ ____ _ ____ _ ____ _ ____
 72
    65
 73
     4
 40
2.0
 49
1.25
 49
-0.25
 49
0.25
 49
-0.25
  0
LTYPE
  2
HIDDEN
 70
     0
  3
__ __ __ __ __ __ __ __ __ __ __ __ __ __ __ __
 72
    65
 73
     2
 40
0.375
 49
0.25
 49
-0.125
  0
LTYPE
  2
PHANTOM2
 70
     0
  3
___ _ _ ___ _ _ ___ _ _ ___ _ _
 72
    65
 73
     6
 40
1.25
 49
0.625
 49
-0.125
 49
0.125
 49
-0.125
 49
0.125
 49
-0.125
  0
ENDTAB
  0
TABLE
  2
LAYER
 70
     4
  0
LAYER
  2
0
 70
     0
 62
     7
  6
CONTINUOUS
  0
LAYER
  2
1
 70
     0
 62
     1
  6
CENTER
  0
LAYER
  2
2
 70
     0
 62
     2
  6
HIDDEN
  0
LAYER
  2
DEFPOINTS
 70
     0
 62
     7
  6
CONTINUOUS
  0
ENDTAB
  0
TABLE
  2
STYLE
 70
     2
  0
STYLE
  2
STANDARD
 70
     0
 40
0.0
 41
1.0
 50
0.0
 71
     0
 42
0.2
  3
TXT
  4
BIGFONT
  0
STYLE
  2
STANDARD1
 70
     0
 40
0.0
 41
1.0
 50
0.0
 71
     0
 42
3.0
  3
txt
  4

  0
ENDTAB
  0
TABLE
  2
VIEW
 70
     0
  0
ENDTAB
  0
TABLE
  2
UCS
 70
     0
  0
ENDTAB
  0
TABLE
  2
APPID
 70
     7
  0
APPID
  2
ACAD
 70
     0
  0
APPID
  2
ACAD_MLEADERVER
 70
     0
  0
APPID
  2
ACAD_PSEXT
 70
     0
  0
APPID
  2
ACAD_EXEMPT_FROM_CAD_STANDARDS
 70
     0
  0
APPID
  2
ACAD_DSTYLE_DIMJAG
 70
     0
  0
APPID
  2
ACAD_DSTYLE_DIMTALN
 70
     0
  0
APPID
  2
ACAD_NAV_VCDISPLAY
 70
     0
  0
ENDTAB
  0
TABLE
  2
DIMSTYLE
 70
     1
  0
DIMSTYLE
  2
STANDARD
 70
     0
  3

  4

  5

  6

  7

 40
1.0
 41
0.18
 42
0.0625
 43
0.38
 44
0.18
 45
0.0
 46
0.0
 47
0.0
 48
0.0
140
0.18
141
0.09
142
0.0
143
25.399999999999999
144
1.0
145
0.0
146
1.0
147
0.09
 71
     0
 72
     0
 73
     1
 74
     1
 75
     0
 76
     0
 77
     0
 78
     0
170
     0
171
     2
172
     0
173
     0
174
     0
175
     0
176
     0
177
     0
178
     0
  0
ENDTAB
  0
ENDSEC
  0
SECTION
  2
BLOCKS
  0
BLOCK
  8
0
  2
$MODEL_SPACE
 70
     0
 10
0.0
 20
0.0
 30
0.0
  3
$MODEL_SPACE
  1

  0
ENDBLK
  5
9
  8
0
  0
BLOCK
 67
     1
  8
0
  2
$PAPER_SPACE
 70
     0
 10
0.0
 20
0.0
 30
0.0
  3
$PAPER_SPACE
  1

  0
ENDBLK
  5
E
 67
     1
  8
0
  0
ENDSEC
  0
SECTION
  2
ENTITIES
  0
TEXT
  5
9FA2
  8
0
 62
     3
 10
0.0
 20
0.0
 30
0.0
 40
10.0
  1
EWN63A-SUS-YE
  7
STANDARD1
  0
LINE
  5
A55E
  8
1
 10
140.99999999999969
 20
117.4999999999999
 30
0.0
 11
140.99999999999969
 21
146.49999999999989
 31
0.0
  0
LINE
  5
A55F
  8
1
 10
177.49999999999949
 20
131.99999999999989
 30
0.0
 11
104.5
 21
131.99999999999989
 31
0.0
  0
LINE
  5
A560
  8
0
 10
152.37077291243941
 20
128.6922909687205
 30
0.0
 11
170.57701810527871
 21
127.4999999999999
 31
0.0
  0
LINE
  5
A561
  8
0
 10
129.62922708756011
 20
135.30770903127919
 30
0.0
 11
111.42298189472081
 21
136.49999999999989
 31
0.0
  0
LINE
  5
A562
  8
0
 10
111.4229818678986
 20
127.4999999999999
 30
0.0
 11
129.62922708756011
 21
128.6922909687205
 31
0.0
  0
LINE
  5
A563
  8
0
 10
170.57701810527871
 20
136.49999999999989
 30
0.0
 11
152.37077291243941
 21
135.30770903127919
 31
0.0
  0
POLYLINE
  5
A564
  8
0
 66
     1
 10
0.0
 20
0.0
 30
0.0
  0
VERTEX
  5
A854
  8
0
 10
132.92462300389639
 20
126.9961728276443
 30
0.0
  0
VERTEX
  5
A855
  8
0
 10
132.6954930968017
 20
127.3233364394269
 30
0.0
  0
VERTEX
  5
A856
  8
0
 10
132.4309516804733
 20
127.6240985697804
 30
0.0
  0
VERTEX
  5
A857
  8
0
 10
132.136050296539
 20
127.8928282348607
 30
0.0
  0
VERTEX
  5
A858
  8
0
 10
131.8133073708247
 20
128.12654708163711
 30
0.0
  0
VERTEX
  5
A859
  8
0
 10
131.46619607105569
 20
128.32372651520339
 30
0.0
  0
VERTEX
  5
A85A
  8
0
 10
131.10124160589589
 20
128.4808763906276
 30
0.0
  0
VERTEX
  5
A85B
  8
0
 10
130.7190907993573
 20
128.5967992465846
 30
0.0
  0
VERTEX
  5
A85C
  8
0
 10
130.32595047282069
 20
128.67001458789139
 30
0.0
  0
VERTEX
  5
A85D
  8
0
 10
129.92903343746141
 20
128.69940703637721
 30
0.0
  0
VERTEX
  5
A85E
  8
0
 10
129.62922708756011
 20
128.6922909687205
 30
0.0
  0
SEQEND
  5
A85F
  8
0
  0
ARC
  5
A565
  8
0
 10
140.99999999999969
 20
131.99999999999989
 30
0.0
 40
9.5000000000000018
 50
211.7840141265205
 51
328.21598671654669
  0
POLYLINE
  5
A566
  8
0
 66
     1
 10
0.0
 20
0.0
 30
0.0
  0
VERTEX
  5
A860
  8
0
 10
152.37077291243941
 20
128.6922909687205
 30
0.0
  0
VERTEX
  5
A861
  8
0
 10
151.9674284535001
 20
128.69577771708791
 30
0.0
  0
VERTEX
  5
A862
  8
0
 10
151.56429226429529
 20
128.65409281276931
 30
0.0
  0
VERTEX
  5
A863
  8
0
 10
151.16890300472841
 20
128.56778798974619
 30
0.0
  0
VERTEX
  5
A864
  8
0
 10
150.78491289514821
 20
128.43670582805521
 30
0.0
  0
VERTEX
  5
A865
  8
0
 10
150.4162272586475
 20
128.26256004966189
 30
0.0
  0
VERTEX
  5
A866
  8
0
 10
150.070034160771
 20
128.04850555160391
 30
0.0
  0
VERTEX
  5
A867
  8
0
 10
149.75360243930481
 20
127.7989320295208
 30
0.0
  0
VERTEX
  5
A868
  8
0
 10
149.46569634061589
 20
127.5145013221959
 30
0.0
  0
VERTEX
  5
A869
  8
0
 10
149.2119305755993
 20
127.2006107869957
 30
0.0
  0
VERTEX
  5
A86A
  8
0
 10
149.07537706973059
 20
126.9961729464673
 30
0.0
  0
SEQEND
  5
A86B
  8
0
  0
POLYLINE
  5
A567
  8
0
 66
     1
 10
0.0
 20
0.0
 30
0.0
  0
VERTEX
  5
A86C
  8
0
 10
149.07537711412959
 20
137.0038269818794
 30
0.0
  0
VERTEX
  5
A86D
  8
0
 10
149.30450704190159
 20
136.67666338396069
 30
0.0
  0
VERTEX
  5
A86E
  8
0
 10
149.56904847729149
 20
136.37590126980709
 30
0.0
  0
VERTEX
  5
A86F
  8
0
 10
149.86394987828999
 20
136.1071716229406
 30
0.0
  0
VERTEX
  5
A870
  8
0
 10
150.1866928188465
 20
135.87345279622991
 30
0.0
  0
VERTEX
  5
A871
  8
0
 10
150.5338041311484
 20
135.67627338432951
 30
0.0
  0
VERTEX
  5
A872
  8
0
 10
150.89875860631651
 20
135.51912353174259
 30
0.0
  0
VERTEX
  5
A873
  8
0
 10
151.2809094206867
 20
135.4032006996363
 30
0.0
  0
VERTEX
  5
A874
  8
0
 10
151.67404975239481
 20
135.32998538299589
 30
0.0
  0
VERTEX
  5
A875
  8
0
 10
152.07096679019179
 20
135.30059295953981
 30
0.0
  0
VERTEX
  5
A876
  8
0
 10
152.37077291243941
 20
135.30770903127919
 30
0.0
  0
SEQEND
  5
A877
  8
0
  0
ARC
  5
A568
  8
0
 10
140.99999999999969
 20
131.99999999999989
 30
0.0
 40
9.5000000000000089
 50
31.784012775069471
 51
148.21598569977451
  0
POLYLINE
  5
A569
  8
0
 66
     1
 10
0.0
 20
0.0
 30
0.0
  0
VERTEX
  5
A878
  8
0
 10
129.62922708756011
 20
135.30770903127919
 30
0.0
  0
VERTEX
  5
A879
  8
0
 10
130.03257154649941
 20
135.30422228291189
 30
0.0
  0
VERTEX
  5
A87A
  8
0
 10
130.43570773570411
 20
135.34590718723041
 30
0.0
  0
VERTEX
  5
A87B
  8
0
 10
130.8310969952708
 20
135.43221201025349
 30
0.0
  0
VERTEX
  5
A87C
  8
0
 10
131.21508710485131
 20
135.56329417194451
 30
0.0
  0
VERTEX
  5
A87D
  8
0
 10
131.58377274135199
 20
135.73743995033789
 30
0.0
  0
VERTEX
  5
A87E
  8
0
 10
131.92996583922849
 20
135.95149444839581
 30
0.0
  0
VERTEX
  5
A87F
  8
0
 10
132.24639756069459
 20
136.2010679704789
 30
0.0
  0
VERTEX
  5
A880
  8
0
 10
132.53430365938351
 20
136.4854986778038
 30
0.0
  0
VERTEX
  5
A881
  8
0
 10
132.78806942440019
 20
136.7993892130041
 30
0.0
  0
VERTEX
  5
A882
  8
0
 10
132.92462301906701
 20
137.0038271968385
 30
0.0
  0
SEQEND
  5
A883
  8
0
  0
CIRCLE
  5
A56A
  8
0
 10
140.99999999999969
 20
131.99999999999989
 30
0.0
 40
7.0099999999999989
  0
POLYLINE
  5
A56B
  8
0
 66
     1
 10
0.0
 20
0.0
 30
0.0
  0
VERTEX
  5
A884
  8
0
 10
109.6304353428857
 20
134.8636363636362
 30
0.0
  0
VERTEX
  5
A885
  8
0
 10
109.6311785091529
 20
134.87158271319601
 30
0.0
  0
VERTEX
  5
A886
  8
0
 10
109.6572469018147
 20
135.0495354098843
 30
0.0
  0
VERTEX
  5
A887
  8
0
 10
109.7010970472457
 20
135.22451174632781
 30
0.0
  0
VERTEX
  5
A888
  8
0
 10
109.76313852336349
 20
135.3963594838487
 30
0.0
  0
VERTEX
  5
A889
  8
0
 10
109.8430604623788
 20
135.56246638637509
 30
0.0
  0
VERTEX
  5
A88A
  8
0
 10
109.9432824266507
 20
135.7249340670466
 30
0.0
  0
VERTEX
  5
A88B
  8
0
 10
110.0621178665253
 20
135.8781549544791
 30
0.0
  0
VERTEX
  5
A88C
  8
0
 10
110.2008693657716
 20
136.02153307232831
 30
0.0
  0
VERTEX
  5
A88D
  8
0
 10
110.3584434355173
 20
136.15146748805341
 30
0.0
  0
VERTEX
  5
A88E
  8
0
 10
110.5786591994766
 20
136.28969153809641
 30
0.0
  0
VERTEX
  5
A88F
  8
0
 10
110.8282606859463
 20
136.39891338326399
 30
0.0
  0
VERTEX
  5
A890
  8
0
 10
111.11091253718151
 20
136.47274158186821
 30
0.0
  0
VERTEX
  5
A891
  8
0
 10
111.263747753142
 20
136.4929466612985
 30
0.0
  0
VERTEX
  5
A892
  8
0
 10
111.42298189472081
 20
136.49999999999989
 30
0.0
  0
SEQEND
  5
A893
  8
0
  0
POLYLINE
  5
A56C
  8
0
 66
     1
 10
0.0
 20
0.0
 30
0.0
  0
VERTEX
  5
A894
  8
0
 10
111.4229818678986
 20
127.4999999999999
 30
0.0
  0
VERTEX
  5
A895
  8
0
 10
111.17991723809931
 20
127.5164678584793
 30
0.0
  0
VERTEX
  5
A896
  8
0
 10
110.95254882242079
 20
127.5625614472774
 30
0.0
  0
VERTEX
  5
A897
  8
0
 10
110.7379488343022
 20
127.6354379844808
 30
0.0
  0
VERTEX
  5
A898
  8
0
 10
110.5415531975973
 20
127.7305786251336
 30
0.0
  0
VERTEX
  5
A899
  8
0
 10
110.3471019858443
 20
127.8568906734797
 30
0.0
  0
VERTEX
  5
A89A
  8
0
 10
110.17533391176831
 20
128.00253211338651
 30
0.0
  0
VERTEX
  5
A89B
  8
0
 10
110.0266999848056
 20
128.16404365046711
 30
0.0
  0
VERTEX
  5
A89C
  8
0
 10
109.8981129113526
 20
128.34356531945679
 30
0.0
  0
VERTEX
  5
A89D
  8
0
 10
109.7939222892341
 20
128.53440025581421
 30
0.0
  0
VERTEX
  5
A89E
  8
0
 10
109.71433743087231
 20
128.73384269309651
 30
0.0
  0
VERTEX
  5
A89F
  8
0
 10
109.6616398852009
 20
128.928955089645
 30
0.0
  0
VERTEX
  5
A8A0
  8
0
 10
109.631178509153
 20
129.1284172868026
 30
0.0
  0
VERTEX
  5
A8A1
  8
0
 10
109.6304353428859
 20
129.13636363636351
 30
0.0
  0
SEQEND
  5
A8A2
  8
0
  0
ARC
  5
A56D
  8
0
 10
140.9999999999979
 20
131.99999999999989
 30
0.0
 40
31.4999999999979
 50
174.78413699482101
 51
185.2159727318716
  0
POLYLINE
  5
A56E
  8
0
 66
     1
 10
0.0
 20
0.0
 30
0.0
  0
VERTEX
  5
A8A3
  8
0
 10
172.3695646571139
 20
129.13636363636351
 30
0.0
  0
VERTEX
  5
A8A4
  8
0
 10
172.36882149084639
 20
129.12841728680289
 30
0.0
  0
VERTEX
  5
A8A5
  8
0
 10
172.3427837719635
 20
128.9506125211758
 30
0.0
  0
VERTEX
  5
A8A6
  8
0
 10
172.29890295275121
 20
128.77548825366381
 30
0.0
  0
VERTEX
  5
A8A7
  8
0
 10
172.2369267232865
 20
128.6037935795579
 30
0.0
  0
VERTEX
  5
A8A8
  8
0
 10
172.15693953761229
 20
128.4375336136095
 30
0.0
  0
VERTEX
  5
A8A9
  8
0
 10
172.05683500758121
 20
128.27523566823311
 30
0.0
  0
VERTEX
  5
A8AA
  8
0
 10
171.9378821334567
 20
128.12184504550049
 30
0.0
  0
VERTEX
  5
A8AB
  8
0
 10
171.7993245550978
 20
127.9786495761029
 30
0.0
  0
VERTEX
  5
A8AC
  8
0
 10
171.641556564452
 20
127.84853251192411
 30
0.0
  0
VERTEX
  5
A8AD
  8
0
 10
171.42134080049479
 20
127.7103084618884
 30
0.0
  0
VERTEX
  5
A8AE
  8
0
 10
171.1717393140288
 20
127.6010866167273
 30
0.0
  0
VERTEX
  5
A8AF
  8
0
 10
170.88908746279961
 20
127.5272584181283
 30
0.0
  0
VERTEX
  5
A8B0
  8
0
 10
170.73646091358111
 20
127.5070755758033
 30
0.0
  0
VERTEX
  5
A8B1
  8
0
 10
170.57701810527871
 20
127.4999999999999
 30
0.0
  0
SEQEND
  5
A8B2
  8
0
  0
POLYLINE
  5
A56F
  8
0
 66
     1
 10
0.0
 20
0.0
 30
0.0
  0
VERTEX
  5
A8B3
  8
0
 10
170.57701810527871
 20
136.49999999999989
 30
0.0
  0
VERTEX
  5
A8B4
  8
0
 10
170.82008273671019
 20
136.48353214495401
 30
0.0
  0
VERTEX
  5
A8B5
  8
0
 10
171.04745115416861
 20
136.43743855906101
 30
0.0
  0
VERTEX
  5
A8B6
  8
0
 10
171.26205114428649
 20
136.3645620243307
 30
0.0
  0
VERTEX
  5
A8B7
  8
0
 10
171.45844678302541
 20
136.26942138574859
 30
0.0
  0
VERTEX
  5
A8B8
  8
0
 10
171.65289799568339
 20
136.14310934029211
 30
0.0
  0
VERTEX
  5
A8B9
  8
0
 10
171.82466607099599
 20
135.9974679031875
 30
0.0
  0
VERTEX
  5
A8BA
  8
0
 10
171.97329999951819
 20
135.83595636880071
 30
0.0
  0
VERTEX
  5
A8BB
  8
0
 10
172.10188707490121
 20
135.65643470245919
 30
0.0
  0
VERTEX
  5
A8BC
  8
0
 10
172.2060776992916
 20
135.4655997686009
 30
0.0
  0
VERTEX
  5
A8BD
  8
0
 10
172.28566256026829
 20
135.26615733363931
 30
0.0
  0
VERTEX
  5
A8BE
  8
0
 10
172.3383601119026
 20
135.07104492410261
 30
0.0
  0
VERTEX
  5
A8BF
  8
0
 10
172.36882149084639
 20
134.8715827131966
 30
0.0
  0
VERTEX
  5
A8C0
  8
0
 10
172.36956465711361
 20
134.8636363636362
 30
0.0
  0
SEQEND
  5
A8C1
  8
0
  0
ARC
  5
A570
  8
0
 10
141.00000000000159
 20
131.99999999999989
 30
0.0
 40
31.499999999997939
 50
354.78402617101023
 51
5.2158656981293641
  0
LINE
  5
A595
  8
1
 10
59.499999999999943
 20
45.0
 30
0.0
 11
59.499999999999943
 21
86.999999999999886
 31
0.0
  0
ARC
  5
A596
  8
0
 10
59.5
 20
71.456819048024045
 30
0.0
 40
10.543180951975931
 50
113.7156809581833
 51
129.3398660450932
  0
ARC
  5
A597
  8
0
 10
59.500000000000057
 20
71.456819048024101
 30
0.0
 40
10.5431809519759
 50
50.660133954906797
 51
66.278021530493533
  0
LINE
  5
A598
  8
0
 10
69.0
 20
50.0
 30
0.0
 11
69.0
 21
79.610908026839638
 31
0.0
  0
LINE
  5
A599
  8
0
 10
50.0
 20
79.610908026839638
 30
0.0
 11
50.0
 21
50.0
 31
0.0
  0
LINE
  5
A59A
  8
0
 10
50.0
 20
50.0
 30
0.0
 11
69.0
 21
50.0
 31
0.0
  0
LINE
  5
A59B
  8
0
 10
54.496172946467482
 20
79.610908026839581
 30
0.0
 11
54.496172946467482
 21
57.5
 31
0.0
  0
POLYLINE
  5
A59C
  8
0
 66
     1
 10
0.0
 20
0.0
 30
0.0
  0
VERTEX
  5
A8C2
  8
0
 10
55.11524282475682
 20
79.626197132708342
 30
0.0
  0
VERTEX
  5
A8C3
  8
0
 10
55.014501322196111
 20
79.621375167373458
 30
0.0
  0
VERTEX
  5
A8C4
  8
0
 10
54.70061078699581
 20
79.612403016136113
 30
0.0
  0
VERTEX
  5
A8C5
  8
0
 10
54.496172946467603
 20
79.610908026839525
 30
0.0
  0
SEQEND
  5
A8C6
  8
0
  0
POLYLINE
  5
A59D
  8
0
 66
     1
 10
0.0
 20
0.0
 30
0.0
  0
VERTEX
  5
A8C7
  8
0
 10
56.199985849580571
 20
58.051949650006911
 30
0.0
  0
VERTEX
  5
A8C8
  8
0
 10
56.195735240716431
 20
58.00744539649741
 30
0.0
  0
VERTEX
  5
A8C9
  8
0
 10
56.153572739456081
 20
57.905492009983618
 30
0.0
  0
VERTEX
  5
A8CA
  8
0
 10
56.065978071473978
 20
57.811843341755832
 30
0.0
  0
VERTEX
  5
A8CB
  8
0
 10
55.932161168899142
 20
57.727692543427793
 30
0.0
  0
VERTEX
  5
A8CC
  8
0
 10
55.753528591209538
 20
57.654409465452488
 30
0.0
  0
VERTEX
  5
A8CD
  8
0
 10
55.533034238764458
 20
57.593983924212068
 30
0.0
  0
VERTEX
  5
A8CE
  8
0
 10
55.281672719461142
 20
57.54918020585302
 30
0.0
  0
VERTEX
  5
A8CF
  8
0
 10
54.995099421167993
 20
57.518282499026043
 30
0.0
  0
VERTEX
  5
A8D0
  8
0
 10
54.67891776946572
 20
57.502251899832338
 30
0.0
  0
VERTEX
  5
A8D1
  8
0
 10
54.496172946467539
 20
57.499999999999943
 30
0.0
  0
SEQEND
  5
A8D2
  8
0
  0
LINE
  5
A59E
  8
0
 10
64.503826981879627
 20
79.610908026839581
 30
0.0
 11
64.503826981879627
 21
57.5
 31
0.0
  0
LINE
  5
A59F
  8
0
 10
62.800014150193249
 20
58.05194812056169
 30
0.0
 11
62.807709031279387
 21
58.115563498401507
 31
0.0
  0
POLYLINE
  5
A5A0
  8
0
 66
     1
 10
0.0
 20
0.0
 30
0.0
  0
VERTEX
  5
A8D3
  8
0
 10
64.503826981879627
 20
79.610908026839581
 30
0.0
  0
VERTEX
  5
A8D4
  8
0
 10
64.176663383960886
 20
79.614905132824958
 30
0.0
  0
VERTEX
  5
A8D5
  8
0
 10
63.887597542823748
 20
79.626044084856005
 30
0.0
  0
SEQEND
  5
A8D6
  8
0
  0
LINE
  5
A5A1
  8
0
 10
64.503826981879627
 20
79.610908026839581
 30
0.0
 11
69.000000000000057
 21
79.610908026839638
 31
0.0
  0
LINE
  5
A5A2
  8
0
 10
50.0
 20
79.610908026839638
 30
0.0
 11
54.496172946467482
 21
79.610908026839581
 31
0.0
  0
POLYLINE
  5
A5A3
  8
0
 66
     1
 10
0.0
 20
0.0
 30
0.0
  0
VERTEX
  5
A8D7
  8
0
 10
56.19229096872067
 20
58.115563498401507
 30
0.0
  0
VERTEX
  5
A8D8
  8
0
 10
56.09749988341985
 20
58.530710683916368
 30
0.0
  0
VERTEX
  5
A8D9
  8
0
 10
56.003318272523749
 20
58.977166000701907
 30
0.0
  0
VERTEX
  5
A8DA
  8
0
 10
55.909612641253261
 20
59.455470750248708
 30
0.0
  0
VERTEX
  5
A8DB
  8
0
 10
55.816600479587457
 20
59.964488277140042
 30
0.0
  0
VERTEX
  5
A8DC
  8
0
 10
55.723807438237941
 20
60.507020749990033
 30
0.0
  0
VERTEX
  5
A8DD
  8
0
 10
55.631798877845597
 20
61.079987829646598
 30
0.0
  0
VERTEX
  5
A8DE
  8
0
 10
55.540448020038859
 20
61.68423588059273
 30
0.0
  0
VERTEX
  5
A8DF
  8
0
 10
55.449967663486518
 20
62.318414147378689
 30
0.0
  0
VERTEX
  5
A8E0
  8
0
 10
55.377202954621623
 20
62.854897284188041
 30
0.0
  0
VERTEX
  5
A8E1
  8
0
 10
55.305060598644438
 20
63.41071443030296
 30
0.0
  0
SEQEND
  5
A8E2
  8
0
  0
POLYLINE
  5
A5A4
  8
0
 66
     1
 10
0.0
 20
0.0
 30
0.0
  0
VERTEX
  5
A8E3
  8
0
 10
63.694939401355668
 20
63.41071443030291
 30
0.0
  0
VERTEX
  5
A8E4
  8
0
 10
63.588922190373353
 20
62.602168446379778
 30
0.0
  0
VERTEX
  5
A8E5
  8
0
 10
63.481588389884728
 20
61.835377941999809
 30
0.0
  0
VERTEX
  5
A8E6
  8
0
 10
63.372719288196379
 20
61.109040664509912
 30
0.0
  0
VERTEX
  5
A8E7
  8
0
 10
63.262666609723283
 20
60.425749075056437
 30
0.0
  0
VERTEX
  5
A8E8
  8
0
 10
63.150598855274779
 20
59.781047540178633
 30
0.0
  0
VERTEX
  5
A8E9
  8
0
 10
63.037473405307082
 20
59.181164856777571
 30
0.0
  0
VERTEX
  5
A8EA
  8
0
 10
62.923049548628171
 20
58.625216796209202
 30
0.0
  0
VERTEX
  5
A8EB
  8
0
 10
62.807709031279387
 20
58.115563498401507
 30
0.0
  0
SEQEND
  5
A8EC
  8
0
  0
LINE
  5
A5A5
  8
0
 10
54.496172946467482
 20
57.5
 30
0.0
 11
64.503826981879627
 21
57.5
 31
0.0
  0
POLYLINE
  5
A5A6
  8
0
 66
     1
 10
0.0
 20
0.0
 30
0.0
  0
VERTEX
  5
A8ED
  8
0
 10
64.503826981879627
 20
57.5
 30
0.0
  0
VERTEX
  5
A8EE
  8
0
 10
64.184796851565807
 20
57.507204571642262
 30
0.0
  0
VERTEX
  5
A8EF
  8
0
 10
63.890925477983217
 20
57.528401157770531
 30
0.0
  0
VERTEX
  5
A8F0
  8
0
 10
63.62768132062422
 20
57.56296407438316
 30
0.0
  0
VERTEX
  5
A8F1
  8
0
 10
63.39798965012443
 20
57.61039326995455
 30
0.0
  0
VERTEX
  5
A8F2
  8
0
 10
63.20278457610015
 20
57.669680179599823
 30
0.0
  0
VERTEX
  5
A8F3
  8
0
 10
63.045062739930472
 20
57.739350487772533
 30
0.0
  0
VERTEX
  5
A8F4
  8
0
 10
62.923754789844111
 20
57.820545318130662
 30
0.0
  0
VERTEX
  5
A8F5
  8
0
 10
62.843134798544838
 20
57.910492942069538
 30
0.0
  0
VERTEX
  5
A8F6
  8
0
 10
62.804008817656609
 20
58.007350550764329
 30
0.0
  0
VERTEX
  5
A8F7
  8
0
 10
62.800014150193249
 20
58.05194812056169
 30
0.0
  0
SEQEND
  5
A8F8
  8
0
  0
LINE
  5
A5A7
  8
0
 10
56.19229096872067
 20
58.115563498401507
 30
0.0
 11
56.199985849580571
 21
58.051949650006911
 31
0.0
  0
LINE
  5
A5A8
  8
0
 10
55.0
 20
77.680295231047523
 30
0.0
 11
55.0
 21
67.119704768950442
 31
0.0
  0
LINE
  5
A5A9
  8
0
 10
64.0
 20
77.680295231026093
 30
0.0
 11
64.0
 21
67.119704768952303
 31
0.0
  0
POLYLINE
  5
A5AA
  8
0
 66
     1
 10
0.0
 20
0.0
 30
0.0
  0
VERTEX
  5
A8F9
  8
0
 10
55.000000000000682
 20
77.680295231041043
 30
0.0
  0
VERTEX
  5
A8FA
  8
0
 10
55.014788302018701
 20
78.00767123997764
 30
0.0
  0
VERTEX
  5
A8FB
  8
0
 10
55.030478860813218
 20
78.325920507310911
 30
0.0
  0
VERTEX
  5
A8FC
  8
0
 10
55.047108194886732
 20
78.635507275201576
 30
0.0
  0
VERTEX
  5
A8FD
  8
0
 10
55.064598431335178
 20
78.934718333084675
 30
0.0
  0
VERTEX
  5
A8FE
  8
0
 10
55.083264123181941
 20
79.22812053356472
 30
0.0
  0
VERTEX
  5
A8FF
  8
0
 10
55.102765747884519
 20
79.509589633740006
 30
0.0
  0
VERTEX
  5
A900
  8
0
 10
55.123148104122031
 20
79.779519196768547
 30
0.0
  0
VERTEX
  5
A901
  8
0
 10
55.144307458136893
 20
80.036290823309344
 30
0.0
  0
VERTEX
  5
A902
  8
0
 10
55.165349876054499
 20
80.270242147629062
 30
0.0
  0
VERTEX
  5
A903
  8
0
 10
55.187043588367708
 20
80.491055647232145
 30
0.0
  0
VERTEX
  5
A904
  8
0
 10
55.20943258447312
 20
80.698985559543928
 30
0.0
  0
VERTEX
  5
A905
  8
0
 10
55.232407035194001
 20
80.892822587031958
 30
0.0
  0
VERTEX
  5
A906
  8
0
 10
55.256358783267039
 20
81.075264975420282
 30
0.0
  0
VERTEX
  5
A907
  8
0
 10
55.280838908507008
 20
81.242292021950334
 30
0.0
  0
VERTEX
  5
A908
  8
0
 10
55.305897531740811
 20
81.394051079057022
 30
0.0
  0
VERTEX
  5
A909
  8
0
 10
55.331403043156222
 20
81.529552982527946
 30
0.0
  0
VERTEX
  5
A90A
  8
0
 10
55.356394407512653
 20
81.644579327711597
 30
0.0
  0
VERTEX
  5
A90B
  8
0
 10
55.38171780291804
 20
81.74389533344754
 30
0.0
  0
VERTEX
  5
A90C
  8
0
 10
55.407420119302166
 20
81.827521904130677
 30
0.0
  0
VERTEX
  5
A90D
  8
0
 10
55.433371706535752
 20
81.894874921726455
 30
0.0
  0
VERTEX
  5
A90E
  8
0
 10
55.459999818938741
 20
81.946528083559656
 30
0.0
  0
VERTEX
  5
A90F
  8
0
 10
55.486794894359093
 20
81.980954873025794
 30
0.0
  0
VERTEX
  5
A910
  8
0
 10
55.51380727555113
 20
81.998044238770774
 30
0.0
  0
VERTEX
  5
A911
  8
0
 10
55.526954240529051
 20
81.999998094306477
 30
0.0
  0
SEQEND
  5
A912
  8
0
  0
POLYLINE
  5
A5AB
  8
0
 66
     1
 10
0.0
 20
0.0
 30
0.0
  0
VERTEX
  5
A913
  8
0
 10
55.305060598644438
 20
63.41071443030296
 30
0.0
  0
VERTEX
  5
A914
  8
0
 10
55.27274131768916
 20
63.610902814240369
 30
0.0
  0
VERTEX
  5
A915
  8
0
 10
55.241168544294403
 20
63.838234110279529
 30
0.0
  0
VERTEX
  5
A916
  8
0
 10
55.210487413138253
 20
64.091692354208362
 30
0.0
  0
VERTEX
  5
A917
  8
0
 10
55.17992745425795
 20
64.379264484434827
 30
0.0
  0
VERTEX
  5
A918
  8
0
 10
55.150462025595402
 20
64.693228051947017
 30
0.0
  0
VERTEX
  5
A919
  8
0
 10
55.12223544121241
 20
65.032075399762903
 30
0.0
  0
VERTEX
  5
A91A
  8
0
 10
55.088366720631711
 20
65.495931913612992
 30
0.0
  0
VERTEX
  5
A91B
  8
0
 10
55.056775585491209
 20
65.996006153335202
 30
0.0
  0
VERTEX
  5
A91C
  8
0
 10
55.02702931697474
 20
66.541782971880764
 30
0.0
  0
VERTEX
  5
A91D
  8
0
 10
55.0
 20
67.119704768950442
 30
0.0
  0
SEQEND
  5
A91E
  8
0
  0
POLYLINE
  5
A5AC
  8
0
 66
     1
 10
0.0
 20
0.0
 30
0.0
  0
VERTEX
  5
A91F
  8
0
 10
64.0
 20
67.119704768952303
 30
0.0
  0
VERTEX
  5
A920
  8
0
 10
63.979999495230913
 20
66.683608619491224
 30
0.0
  0
VERTEX
  5
A921
  8
0
 10
63.958433240308629
 20
66.264826503349752
 30
0.0
  0
VERTEX
  5
A922
  8
0
 10
63.935401568664822
 20
65.865281666915166
 30
0.0
  0
VERTEX
  5
A923
  8
0
 10
63.91022079752679
 20
65.475222430290501
 30
0.0
  0
VERTEX
  5
A924
  8
0
 10
63.883607607751181
 20
65.107439837912409
 30
0.0
  0
VERTEX
  5
A925
  8
0
 10
63.855692541863156
 20
64.763709176690384
 30
0.0
  0
VERTEX
  5
A926
  8
0
 10
63.818449748822097
 20
64.36303764676677
 30
0.0
  0
VERTEX
  5
A927
  8
0
 10
63.779414649181717
 20
64.004533819653773
 30
0.0
  0
VERTEX
  5
A928
  8
0
 10
63.737891576491961
 20
63.683822344643147
 30
0.0
  0
VERTEX
  5
A929
  8
0
 10
63.694939401355668
 20
63.41071443030291
 30
0.0
  0
SEQEND
  5
A92A
  8
0
  0
LINE
  5
A5AD
  8
0
 10
63.474206519697411
 20
81.999999999999886
 30
0.0
 11
55.525809549939531
 21
81.999999999999886
 31
0.0
  0
POLYLINE
  5
A5AE
  8
0
 66
     1
 10
0.0
 20
0.0
 30
0.0
  0
VERTEX
  5
A92B
  8
0
 10
63.472989183781117
 20
81.99999751402504
 30
0.0
  0
VERTEX
  5
A92C
  8
0
 10
63.497080156219113
 20
81.993275175853213
 30
0.0
  0
VERTEX
  5
A92D
  8
0
 10
63.52369100108001
 20
81.969564161451785
 30
0.0
  0
VERTEX
  5
A92E
  8
0
 10
63.550746662786651
 20
81.927789006254599
 30
0.0
  0
VERTEX
  5
A92F
  8
0
 10
63.577709940865532
 20
81.8681884661043
 30
0.0
  0
VERTEX
  5
A930
  8
0
 10
63.604630202505462
 20
81.790436947801936
 30
0.0
  0
VERTEX
  5
A931
  8
0
 10
63.631355418419503
 20
81.694753378742405
 30
0.0
  0
VERTEX
  5
A932
  8
0
 10
63.65666914216456
 20
81.586599418185244
 30
0.0
  0
VERTEX
  5
A933
  8
0
 10
63.681710419409463
 20
81.462219547882114
 30
0.0
  0
VERTEX
  5
A934
  8
0
 10
63.706520196018118
 20
81.321212554165299
 30
0.0
  0
VERTEX
  5
A935
  8
0
 10
63.730964784671869
 20
81.164135908297837
 30
0.0
  0
VERTEX
  5
A936
  8
0
 10
63.755436042352812
 20
80.987846918764262
 30
0.0
  0
VERTEX
  5
A937
  8
0
 10
63.779434619772701
 20
80.795297486370416
 30
0.0
  0
VERTEX
  5
A938
  8
0
 10
63.802999868833119
 20
80.585933509281475
 30
0.0
  0
VERTEX
  5
A939
  8
0
 10
63.825993877371502
 20
80.360734220690802
 30
0.0
  0
VERTEX
  5
A93A
  8
0
 10
63.847379850906691
 20
80.131149968747138
 30
0.0
  0
VERTEX
  5
A93B
  8
0
 10
63.868159900649168
 20
79.88774719210295
 30
0.0
  0
VERTEX
  5
A93C
  8
0
 10
63.888363789295738
 20
79.629946097444872
 30
0.0
  0
VERTEX
  5
A93D
  8
0
 10
63.907878590078433
 20
79.358946967788015
 30
0.0
  0
VERTEX
  5
A93E
  8
0
 10
63.927003082030978
 20
79.06983493455931
 30
0.0
  0
VERTEX
  5
A93F
  8
0
 10
63.945334202042893
 20
78.767895548080787
 30
0.0
  0
VERTEX
  5
A940
  8
0
 10
63.962896949996662
 20
78.452415742162543
 30
0.0
  0
VERTEX
  5
A941
  8
0
 10
63.979583791000778
 20
78.125008680802978
 30
0.0
  0
VERTEX
  5
A942
  8
0
 10
64.0
 20
77.680295231026207
 30
0.0
  0
SEQEND
  5
A943
  8
0
  0
CIRCLE
  5
A5AF
  8
0
 10
145.66666666666629
 20
131.99999999999989
 30
0.0
 40
0.7000000000000001
  0
CIRCLE
  5
A5B0
  8
0
 10
140.99999999999969
 20
131.99999999999989
 30
0.0
 40
0.7000000000000001
  0
CIRCLE
  5
A5B1
  8
0
 10
136.333333333333
 20
131.99999999999989
 30
0.0
 40
0.7000000000000001
  0
CIRCLE
  5
A5B2
  8
0
 10
138.66666666666629
 20
131.99999999999989
 30
0.0
 40
0.7000000000000001
  0
CIRCLE
  5
A5B3
  8
0
 10
143.3333333333332
 20
131.99999999999989
 30
0.0
 40
0.7000000000000001
  0
LINE
  5
A681
  8
2
 10
145.1879999999997
 20
50.812000000000012
 30
0.0
 11
145.18799999999979
 21
69.187999999999988
 31
0.0
  0
LINE
  5
A682
  8
2
 10
136.81199999999981
 20
69.187999999999988
 30
0.0
 11
136.81199999999981
 21
50.812000000000012
 31
0.0
  0
LINE
  5
A683
  8
2
 10
145.18799999999979
 20
69.187999999999988
 30
0.0
 11
145.9999999999998
 21
70.0
 31
0.0
  0
LINE
  5
A684
  8
2
 10
135.99999999999969
 20
70.0
 30
0.0
 11
136.81199999999981
 21
69.187999999999988
 31
0.0
  0
LINE
  5
A685
  8
2
 10
136.81199999999981
 20
69.187999999999988
 30
0.0
 11
145.18799999999979
 21
69.187999999999988
 31
0.0
  0
LINE
  5
A686
  8
2
 10
136.81199999999981
 20
50.812000000000012
 30
0.0
 11
135.99999999999969
 21
50.0
 31
0.0
  0
LINE
  5
A687
  8
2
 10
145.9999999999998
 20
50.0
 30
0.0
 11
145.1879999999997
 21
50.812000000000012
 31
0.0
  0
LINE
  5
A688
  8
2
 10
136.81199999999981
 20
50.812000000000012
 30
0.0
 11
145.1879999999997
 21
50.812000000000012
 31
0.0
  0
LINE
  5
A689
  8
2
 10
146.24999999999969
 20
70.0
 30
0.0
 11
146.24999999999969
 21
72.0
 31
0.0
  0
LINE
  5
A68A
  8
2
 10
135.74999999999969
 20
72.0
 30
0.0
 11
135.74999999999969
 21
70.0
 31
0.0
  0
LINE
  5
A68B
  8
2
 10
135.74999999999969
 20
70.0
 30
0.0
 11
146.24999999999969
 21
70.0
 31
0.0
  0
LINE
  5
A68C
  8
2
 10
147.99999999999969
 20
72.0
 30
0.0
 11
147.99999999999969
 21
79.610908026839581
 31
0.0
  0
LINE
  5
A68D
  8
2
 10
133.9999999999998
 20
79.610908026839638
 30
0.0
 11
133.9999999999998
 21
72.0
 31
0.0
  0
LINE
  5
A68E
  8
2
 10
133.9999999999998
 20
72.0
 30
0.0
 11
147.99999999999969
 21
72.0
 31
0.0
  0
LINE
  5
A68F
  8
2
 10
135.99999999999969
 20
50.0
 30
0.0
 11
135.99999999999969
 21
70.0
 31
0.0
  0
LINE
  5
A690
  8
2
 10
145.9999999999998
 20
50.0
 30
0.0
 11
145.9999999999998
 21
70.0
 31
0.0
  0
LINE
  5
A691
  8
1
 10
140.99999999999969
 20
45.0
 30
0.0
 11
140.99999999999969
 21
87.0
 31
0.0
  0
POLYLINE
  5
A692
  8
0
 10
119.4058821529952
 20
66.144002877238492
 30
0.0
 66
     1
 70
     8
  0
VERTEX
  8
0
  5
A969
 10
119.406
 20
66.1440
 30
0.000000
  70
    32
  0
VERTEX
  8
0
  5
A96A
 10
119.712
 20
66.1515
 30
0.000000
  70
    32
  0
VERTEX
  8
0
  5
A96B
 10
120.018
 20
66.1741
 30
0.000000
  70
    32
  0
VERTEX
  8
0
  5
A96C
 10
120.322
 20
66.2117
 30
0.000000
  70
    32
  0
VERTEX
  8
0
  5
A96D
 10
120.624
 20
66.2642
 30
0.000000
  70
    32
  0
VERTEX
  8
0
  5
A96E
 10
120.923
 20
66.3315
 30
0.000000
  70
    32
  0
VERTEX
  8
0
  5
A96F
 10
121.218
 20
66.4134
 30
0.000000
  70
    32
  0
VERTEX
  8
0
  5
A970
 10
121.509
 20
66.5097
 30
0.000000
  70
    32
  0
VERTEX
  8
0
  5
A971
 10
121.795
 20
66.6202
 30
0.000000
  70
    32
  0
VERTEX
  8
0
  5
A972
 10
122.075
 20
66.7446
 30
0.000000
  70
    32
  0
VERTEX
  8
0
  5
A973
 10
122.349
 20
66.8827
 30
0.000000
  70
    32
  0
VERTEX
  8
0
  5
A974
 10
122.615
 20
67.0341
 30
0.000000
  70
    32
  0
VERTEX
  8
0
  5
A975
 10
122.874
 20
67.1983
 30
0.000000
  70
    32
  0
VERTEX
  8
0
  5
A976
 10
123.125
 20
67.3751
 30
0.000000
  70
    32
  0
VERTEX
  8
0
  5
A977
 10
123.366
 20
67.5640
 30
0.000000
  70
    32
  0
VERTEX
  8
0
  5
A978
 10
123.598
 20
67.7646
 30
0.000000
  70
    32
  0
VERTEX
  8
0
  5
A979
 10
123.820
 20
67.9763
 30
0.000000
  70
    32
  0
VERTEX
  8
0
  5
A97A
 10
124.031
 20
68.1987
 30
0.000000
  70
    32
  0
VERTEX
  8
0
  5
A97B
 10
124.231
 20
68.4312
 30
0.000000
  70
    32
  0
VERTEX
  8
0
  5
A97C
 10
124.420
 20
68.6733
 30
0.000000
  70
    32
  0
VERTEX
  8
0
  5
A97D
 10
124.596
 20
68.9244
 30
0.000000
  70
    32
  0
VERTEX
  8
0
  5
A97E
 10
124.760
 20
69.1838
 30
0.000000
  70
    32
  0
VERTEX
  8
0
  5
A97F
 10
124.911
 20
69.4509
 30
0.000000
  70
    32
  0
VERTEX
  8
0
  5
A980
 10
125.049
 20
69.7252
 30
0.000000
  70
    32
  0
VERTEX
  8
0
  5
A981
 10
125.173
 20
70.0059
 30
0.000000
  70
    32
  0
VERTEX
  8
0
  5
A982
 10
125.284
 20
70.2924
 30
0.000000
  70
    32
  0
VERTEX
  8
0
  5
A983
 10
125.380
 20
70.5840
 30
0.000000
  70
    32
  0
VERTEX
  8
0
  5
A984
 10
125.461
 20
70.8799
 30
0.000000
  70
    32
  0
VERTEX
  8
0
  5
A985
 10
125.529
 20
71.1795
 30
0.000000
  70
    32
  0
VERTEX
  8
0
  5
A986
 10
125.581
 20
71.4821
 30
0.000000
  70
    32
  0
VERTEX
  8
0
  5
A987
 10
125.618
 20
71.7868
 30
0.000000
  70
    32
  0
VERTEX
  8
0
  5
A988
 10
125.641
 20
72.0930
 30
0.000000
  70
    32
  0
VERTEX
  8
0
  5
A989
 10
125.649
 20
72.4000
 30
0.000000
  70
    32
  0
VERTEX
  8
0
  5
A98A
 10
125.641
 20
72.7070
 30
0.000000
  70
    32
  0
VERTEX
  8
0
  5
A98B
 10
125.618
 20
73.0132
 30
0.000000
  70
    32
  0
VERTEX
  8
0
  5
A98C
 10
125.581
 20
73.3179
 30
0.000000
  70
    32
  0
VERTEX
  8
0
  5
A98D
 10
125.529
 20
73.6205
 30
0.000000
  70
    32
  0
VERTEX
  8
0
  5
A98E
 10
125.461
 20
73.9201
 30
0.000000
  70
    32
  0
VERTEX
  8
0
  5
A98F
 10
125.380
 20
74.2160
 30
0.000000
  70
    32
  0
VERTEX
  8
0
  5
A990
 10
125.284
 20
74.5076
 30
0.000000
  70
    32
  0
VERTEX
  8
0
  5
A991
 10
125.173
 20
74.7941
 30
0.000000
  70
    32
  0
VERTEX
  8
0
  5
A992
 10
125.049
 20
75.0748
 30
0.000000
  70
    32
  0
VERTEX
  8
0
  5
A993
 10
124.911
 20
75.3491
 30
0.000000
  70
    32
  0
VERTEX
  8
0
  5
A994
 10
124.760
 20
75.6162
 30
0.000000
  70
    32
  0
VERTEX
  8
0
  5
A995
 10
124.596
 20
75.8756
 30
0.000000
  70
    32
  0
VERTEX
  8
0
  5
A996
 10
124.420
 20
76.1267
 30
0.000000
  70
    32
  0
VERTEX
  8
0
  5
A997
 10
124.231
 20
76.3688
 30
0.000000
  70
    32
  0
VERTEX
  8
0
  5
A998
 10
124.031
 20
76.6013
 30
0.000000
  70
    32
  0
VERTEX
  8
0
  5
A999
 10
123.820
 20
76.8237
 30
0.000000
  70
    32
  0
VERTEX
  8
0
  5
A99A
 10
123.598
 20
77.0354
 30
0.000000
  70
    32
  0
VERTEX
  8
0
  5
A99B
 10
123.366
 20
77.2360
 30
0.000000
  70
    32
  0
VERTEX
  8
0
  5
A99C
 10
123.125
 20
77.4249
 30
0.000000
  70
    32
  0
VERTEX
  8
0
  5
A99D
 10
122.874
 20
77.6017
 30
0.000000
  70
    32
  0
VERTEX
  8
0
  5
A99E
 10
122.615
 20
77.7659
 30
0.000000
  70
    32
  0
VERTEX
  8
0
  5
A99F
 10
122.349
 20
77.9173
 30
0.000000
  70
    32
  0
VERTEX
  8
0
  5
A9A0
 10
122.075
 20
78.0554
 30
0.000000
  70
    32
  0
VERTEX
  8
0
  5
A9A1
 10
121.795
 20
78.1798
 30
0.000000
  70
    32
  0
VERTEX
  8
0
  5
A9A2
 10
121.509
 20
78.2903
 30
0.000000
  70
    32
  0
VERTEX
  8
0
  5
A9A3
 10
121.218
 20
78.3866
 30
0.000000
  70
    32
  0
VERTEX
  8
0
  5
A9A4
 10
120.923
 20
78.4685
 30
0.000000
  70
    32
  0
VERTEX
  8
0
  5
A9A5
 10
120.624
 20
78.5358
 30
0.000000
  70
    32
  0
VERTEX
  8
0
  5
A9A6
 10
120.322
 20
78.5883
 30
0.000000
  70
    32
  0
VERTEX
  8
0
  5
A9A7
 10
120.018
 20
78.6259
 30
0.000000
  70
    32
  0
VERTEX
  8
0
  5
A9A8
 10
119.712
 20
78.6485
 30
0.000000
  70
    32
  0
VERTEX
  8
0
  5
A9A9
 10
119.406
 20
78.6560
 30
0.000000
  70
    32
  0
VERTEX
  8
0
  5
A9AA
 10
119.100
 20
78.6485
 30
0.000000
  70
    32
  0
VERTEX
  8
0
  5
A9AB
 10
118.794
 20
78.6259
 30
0.000000
  70
    32
  0
VERTEX
  8
0
  5
A9AC
 10
118.490
 20
78.5883
 30
0.000000
  70
    32
  0
VERTEX
  8
0
  5
A9AD
 10
118.188
 20
78.5358
 30
0.000000
  70
    32
  0
VERTEX
  8
0
  5
A9AE
 10
117.889
 20
78.4685
 30
0.000000
  70
    32
  0
VERTEX
  8
0
  5
A9AF
 10
117.594
 20
78.3866
 30
0.000000
  70
    32
  0
VERTEX
  8
0
  5
A9B0
 10
117.303
 20
78.2903
 30
0.000000
  70
    32
  0
VERTEX
  8
0
  5
A9B1
 10
117.017
 20
78.1798
 30
0.000000
  70
    32
  0
VERTEX
  8
0
  5
A9B2
 10
116.737
 20
78.0554
 30
0.000000
  70
    32
  0
VERTEX
  8
0
  5
A9B3
 10
116.463
 20
77.9173
 30
0.000000
  70
    32
  0
VERTEX
  8
0
  5
A9B4
 10
116.197
 20
77.7659
 30
0.000000
  70
    32
  0
VERTEX
  8
0
  5
A9B5
 10
115.938
 20
77.6017
 30
0.000000
  70
    32
  0
VERTEX
  8
0
  5
A9B6
 10
115.687
 20
77.4249
 30
0.000000
  70
    32
  0
VERTEX
  8
0
  5
A9B7
 10
115.446
 20
77.2360
 30
0.000000
  70
    32
  0
VERTEX
  8
0
  5
A9B8
 10
115.214
 20
77.0354
 30
0.000000
  70
    32
  0
VERTEX
  8
0
  5
A9B9
 10
114.992
 20
76.8237
 30
0.000000
  70
    32
  0
VERTEX
  8
0
  5
A9BA
 10
114.780
 20
76.6013
 30
0.000000
  70
    32
  0
VERTEX
  8
0
  5
A9BB
 10
114.580
 20
76.3688
 30
0.000000
  70
    32
  0
VERTEX
  8
0
  5
A9BC
 10
114.392
 20
76.1267
 30
0.000000
  70
    32
  0
VERTEX
  8
0
  5
A9BD
 10
114.215
 20
75.8756
 30
0.000000
  70
    32
  0
VERTEX
  8
0
  5
A9BE
 10
114.051
 20
75.6162
 30
0.000000
  70
    32
  0
VERTEX
  8
0
  5
A9BF
 10
113.900
 20
75.3491
 30
0.000000
  70
    32
  0
VERTEX
  8
0
  5
A9C0
 10
113.763
 20
75.0748
 30
0.000000
  70
    32
  0
VERTEX
  8
0
  5
A9C1
 10
113.638
 20
74.7941
 30
0.000000
  70
    32
  0
VERTEX
  8
0
  5
A9C2
 10
113.528
 20
74.5076
 30
0.000000
  70
    32
  0
VERTEX
  8
0
  5
A9C3
 10
113.432
 20
74.2160
 30
0.000000
  70
    32
  0
VERTEX
  8
0
  5
A9C4
 10
113.350
 20
73.9201
 30
0.000000
  70
    32
  0
VERTEX
  8
0
  5
A9C5
 10
113.283
 20
73.6205
 30
0.000000
  70
    32
  0
VERTEX
  8
0
  5
A9C6
 10
113.231
 20
73.3179
 30
0.000000
  70
    32
  0
VERTEX
  8
0
  5
A9C7
 10
113.193
 20
73.0132
 30
0.000000
  70
    32
  0
VERTEX
  8
0
  5
A9C8
 10
113.171
 20
72.7070
 30
0.000000
  70
    32
  0
VERTEX
  8
0
  5
A9C9
 10
113.163
 20
72.4000
 30
0.000000
  70
    32
  0
VERTEX
  8
0
  5
A9CA
 10
113.171
 20
72.0930
 30
0.000000
  70
    32
  0
VERTEX
  8
0
  5
A9CB
 10
113.193
 20
71.7868
 30
0.000000
  70
    32
  0
VERTEX
  8
0
  5
A9CC
 10
113.231
 20
71.4821
 30
0.000000
  70
    32
  0
VERTEX
  8
0
  5
A9CD
 10
113.283
 20
71.1795
 30
0.000000
  70
    32
  0
VERTEX
  8
0
  5
A9CE
 10
113.350
 20
70.8799
 30
0.000000
  70
    32
  0
VERTEX
  8
0
  5
A9CF
 10
113.432
 20
70.5840
 30
0.000000
  70
    32
  0
VERTEX
  8
0
  5
A9D0
 10
113.528
 20
70.2924
 30
0.000000
  70
    32
  0
VERTEX
  8
0
  5
A9D1
 10
113.638
 20
70.0059
 30
0.000000
  70
    32
  0
VERTEX
  8
0
  5
A9D2
 10
113.763
 20
69.7252
 30
0.000000
  70
    32
  0
VERTEX
  8
0
  5
A9D3
 10
113.900
 20
69.4509
 30
0.000000
  70
    32
  0
VERTEX
  8
0
  5
A9D4
 10
114.051
 20
69.1838
 30
0.000000
  70
    32
  0
VERTEX
  8
0
  5
A9D5
 10
114.215
 20
68.9244
 30
0.000000
  70
    32
  0
VERTEX
  8
0
  5
A9D6
 10
114.392
 20
68.6733
 30
0.000000
  70
    32
  0
VERTEX
  8
0
  5
A9D7
 10
114.580
 20
68.4312
 30
0.000000
  70
    32
  0
VERTEX
  8
0
  5
A9D8
 10
114.780
 20
68.1987
 30
0.000000
  70
    32
  0
VERTEX
  8
0
  5
A9D9
 10
114.992
 20
67.9763
 30
0.000000
  70
    32
  0
VERTEX
  8
0
  5
A9DA
 10
115.214
 20
67.7646
 30
0.000000
  70
    32
  0
VERTEX
  8
0
  5
A9DB
 10
115.446
 20
67.5640
 30
0.000000
  70
    32
  0
VERTEX
  8
0
  5
A9DC
 10
115.687
 20
67.3751
 30
0.000000
  70
    32
  0
VERTEX
  8
0
  5
A9DD
 10
115.938
 20
67.1983
 30
0.000000
  70
    32
  0
VERTEX
  8
0
  5
A9DE
 10
116.197
 20
67.0341
 30
0.000000
  70
    32
  0
VERTEX
  8
0
  5
A9DF
 10
116.463
 20
66.8827
 30
0.000000
  70
    32
  0
VERTEX
  8
0
  5
A9E0
 10
116.737
 20
66.7446
 30
0.000000
  70
    32
  0
VERTEX
  8
0
  5
A9E1
 10
117.017
 20
66.6202
 30
0.000000
  70
    32
  0
VERTEX
  8
0
  5
A9E2
 10
117.303
 20
66.5097
 30
0.000000
  70
    32
  0
VERTEX
  8
0
  5
A9E3
 10
117.594
 20
66.4134
 30
0.000000
  70
    32
  0
VERTEX
  8
0
  5
A9E4
 10
117.889
 20
66.3315
 30
0.000000
  70
    32
  0
VERTEX
  8
0
  5
A9E5
 10
118.188
 20
66.2642
 30
0.000000
  70
    32
  0
VERTEX
  8
0
  5
A9E6
 10
118.490
 20
66.2117
 30
0.000000
  70
    32
  0
VERTEX
  8
0
  5
A9E7
 10
118.794
 20
66.1741
 30
0.000000
  70
    32
  0
VERTEX
  8
0
  5
A9E8
 10
119.100
 20
66.1515
 30
0.000000
  70
    32
  0
VERTEX
  8
0
  5
A9E9
 10
119.406
 20
66.1440
 30
0.000000
  70
    32
  0
SEQEND
  8
0
  5
A9EA
  0
POLYLINE
  5
A693
  8
0
 10
162.59411784700441
 20
66.144002877238492
 30
0.0
 66
     1
 70
     8
  0
VERTEX
  8
0
  5
A9EB
 10
162.594
 20
66.1440
 30
0.000000
  70
    32
  0
VERTEX
  8
0
  5
A9EC
 10
162.900
 20
66.1515
 30
0.000000
  70
    32
  0
VERTEX
  8
0
  5
A9ED
 10
163.206
 20
66.1741
 30
0.000000
  70
    32
  0
VERTEX
  8
0
  5
A9EE
 10
163.510
 20
66.2117
 30
0.000000
  70
    32
  0
VERTEX
  8
0
  5
A9EF
 10
163.812
 20
66.2642
 30
0.000000
  70
    32
  0
VERTEX
  8
0
  5
A9F0
 10
164.111
 20
66.3315
 30
0.000000
  70
    32
  0
VERTEX
  8
0
  5
A9F1
 10
164.406
 20
66.4134
 30
0.000000
  70
    32
  0
VERTEX
  8
0
  5
A9F2
 10
164.697
 20
66.5097
 30
0.000000
  70
    32
  0
VERTEX
  8
0
  5
A9F3
 10
164.983
 20
66.6202
 30
0.000000
  70
    32
  0
VERTEX
  8
0
  5
A9F4
 10
165.263
 20
66.7446
 30
0.000000
  70
    32
  0
VERTEX
  8
0
  5
A9F5
 10
165.537
 20
66.8827
 30
0.000000
  70
    32
  0
VERTEX
  8
0
  5
A9F6
 10
165.803
 20
67.0341
 30
0.000000
  70
    32
  0
VERTEX
  8
0
  5
A9F7
 10
166.062
 20
67.1983
 30
0.000000
  70
    32
  0
VERTEX
  8
0
  5
A9F8
 10
166.313
 20
67.3751
 30
0.000000
  70
    32
  0
VERTEX
  8
0
  5
A9F9
 10
166.554
 20
67.5640
 30
0.000000
  70
    32
  0
VERTEX
  8
0
  5
A9FA
 10
166.786
 20
67.7646
 30
0.000000
  70
    32
  0
VERTEX
  8
0
  5
A9FB
 10
167.008
 20
67.9763
 30
0.000000
  70
    32
  0
VERTEX
  8
0
  5
A9FC
 10
167.220
 20
68.1987
 30
0.000000
  70
    32
  0
VERTEX
  8
0
  5
A9FD
 10
167.420
 20
68.4312
 30
0.000000
  70
    32
  0
VERTEX
  8
0
  5
A9FE
 10
167.608
 20
68.6733
 30
0.000000
  70
    32
  0
VERTEX
  8
0
  5
A9FF
 10
167.785
 20
68.9244
 30
0.000000
  70
    32
  0
VERTEX
  8
0
  5
AA00
 10
167.949
 20
69.1838
 30
0.000000
  70
    32
  0
VERTEX
  8
0
  5
AA01
 10
168.100
 20
69.4509
 30
0.000000
  70
    32
  0
VERTEX
  8
0
  5
AA02
 10
168.237
 20
69.7252
 30
0.000000
  70
    32
  0
VERTEX
  8
0
  5
AA03
 10
168.362
 20
70.0059
 30
0.000000
  70
    32
  0
VERTEX
  8
0
  5
AA04
 10
168.472
 20
70.2924
 30
0.000000
  70
    32
  0
VERTEX
  8
0
  5
AA05
 10
168.568
 20
70.5840
 30
0.000000
  70
    32
  0
VERTEX
  8
0
  5
AA06
 10
168.650
 20
70.8799
 30
0.000000
  70
    32
  0
VERTEX
  8
0
  5
AA07
 10
168.717
 20
71.1795
 30
0.000000
  70
    32
  0
VERTEX
  8
0
  5
AA08
 10
168.769
 20
71.4821
 30
0.000000
  70
    32
  0
VERTEX
  8
0
  5
AA09
 10
168.807
 20
71.7868
 30
0.000000
  70
    32
  0
VERTEX
  8
0
  5
AA0A
 10
168.829
 20
72.0930
 30
0.000000
  70
    32
  0
VERTEX
  8
0
  5
AA0B
 10
168.837
 20
72.4000
 30
0.000000
  70
    32
  0
VERTEX
  8
0
  5
AA0C
 10
168.829
 20
72.7070
 30
0.000000
  70
    32
  0
VERTEX
  8
0
  5
AA0D
 10
168.807
 20
73.0132
 30
0.000000
  70
    32
  0
VERTEX
  8
0
  5
AA0E
 10
168.769
 20
73.3179
 30
0.000000
  70
    32
  0
VERTEX
  8
0
  5
AA0F
 10
168.717
 20
73.6205
 30
0.000000
  70
    32
  0
VERTEX
  8
0
  5
AA10
 10
168.650
 20
73.9201
 30
0.000000
  70
    32
  0
VERTEX
  8
0
  5
AA11
 10
168.568
 20
74.2160
 30
0.000000
  70
    32
  0
VERTEX
  8
0
  5
AA12
 10
168.472
 20
74.5076
 30
0.000000
  70
    32
  0
VERTEX
  8
0
  5
AA13
 10
168.362
 20
74.7941
 30
0.000000
  70
    32
  0
VERTEX
  8
0
  5
AA14
 10
168.237
 20
75.0748
 30
0.000000
  70
    32
  0
VERTEX
  8
0
  5
AA15
 10
168.100
 20
75.3491
 30
0.000000
  70
    32
  0
VERTEX
  8
0
  5
AA16
 10
167.949
 20
75.6162
 30
0.000000
  70
    32
  0
VERTEX
  8
0
  5
AA17
 10
167.785
 20
75.8756
 30
0.000000
  70
    32
  0
VERTEX
  8
0
  5
AA18
 10
167.608
 20
76.1267
 30
0.000000
  70
    32
  0
VERTEX
  8
0
  5
AA19
 10
167.420
 20
76.3688
 30
0.000000
  70
    32
  0
VERTEX
  8
0
  5
AA1A
 10
167.220
 20
76.6013
 30
0.000000
  70
    32
  0
VERTEX
  8
0
  5
AA1B
 10
167.008
 20
76.8237
 30
0.000000
  70
    32
  0
VERTEX
  8
0
  5
AA1C
 10
166.786
 20
77.0354
 30
0.000000
  70
    32
  0
VERTEX
  8
0
  5
AA1D
 10
166.554
 20
77.2360
 30
0.000000
  70
    32
  0
VERTEX
  8
0
  5
AA1E
 10
166.313
 20
77.4249
 30
0.000000
  70
    32
  0
VERTEX
  8
0
  5
AA1F
 10
166.062
 20
77.6017
 30
0.000000
  70
    32
  0
VERTEX
  8
0
  5
AA20
 10
165.803
 20
77.7659
 30
0.000000
  70
    32
  0
VERTEX
  8
0
  5
AA21
 10
165.537
 20
77.9173
 30
0.000000
  70
    32
  0
VERTEX
  8
0
  5
AA22
 10
165.263
 20
78.0554
 30
0.000000
  70
    32
  0
VERTEX
  8
0
  5
AA23
 10
164.983
 20
78.1798
 30
0.000000
  70
    32
  0
VERTEX
  8
0
  5
AA24
 10
164.697
 20
78.2903
 30
0.000000
  70
    32
  0
VERTEX
  8
0
  5
AA25
 10
164.406
 20
78.3866
 30
0.000000
  70
    32
  0
VERTEX
  8
0
  5
AA26
 10
164.111
 20
78.4685
 30
0.000000
  70
    32
  0
VERTEX
  8
0
  5
AA27
 10
163.812
 20
78.5358
 30
0.000000
  70
    32
  0
VERTEX
  8
0
  5
AA28
 10
163.510
 20
78.5883
 30
0.000000
  70
    32
  0
VERTEX
  8
0
  5
AA29
 10
163.206
 20
78.6259
 30
0.000000
  70
    32
  0
VERTEX
  8
0
  5
AA2A
 10
162.900
 20
78.6485
 30
0.000000
  70
    32
  0
VERTEX
  8
0
  5
AA2B
 10
162.594
 20
78.6560
 30
0.000000
  70
    32
  0
VERTEX
  8
0
  5
AA2C
 10
162.288
 20
78.6485
 30
0.000000
  70
    32
  0
VERTEX
  8
0
  5
AA2D
 10
161.982
 20
78.6259
 30
0.000000
  70
    32
  0
VERTEX
  8
0
  5
AA2E
 10
161.678
 20
78.5883
 30
0.000000
  70
    32
  0
VERTEX
  8
0
  5
AA2F
 10
161.376
 20
78.5358
 30
0.000000
  70
    32
  0
VERTEX
  8
0
  5
AA30
 10
161.077
 20
78.4685
 30
0.000000
  70
    32
  0
VERTEX
  8
0
  5
AA31
 10
160.782
 20
78.3866
 30
0.000000
  70
    32
  0
VERTEX
  8
0
  5
AA32
 10
160.491
 20
78.2903
 30
0.000000
  70
    32
  0
VERTEX
  8
0
  5
AA33
 10
160.205
 20
78.1798
 30
0.000000
  70
    32
  0
VERTEX
  8
0
  5
AA34
 10
159.925
 20
78.0554
 30
0.000000
  70
    32
  0
VERTEX
  8
0
  5
AA35
 10
159.651
 20
77.9173
 30
0.000000
  70
    32
  0
VERTEX
  8
0
  5
AA36
 10
159.385
 20
77.7659
 30
0.000000
  70
    32
  0
VERTEX
  8
0
  5
AA37
 10
159.126
 20
77.6017
 30
0.000000
  70
    32
  0
VERTEX
  8
0
  5
AA38
 10
158.875
 20
77.4249
 30
0.000000
  70
    32
  0
VERTEX
  8
0
  5
AA39
 10
158.634
 20
77.2360
 30
0.000000
  70
    32
  0
VERTEX
  8
0
  5
AA3A
 10
158.402
 20
77.0354
 30
0.000000
  70
    32
  0
VERTEX
  8
0
  5
AA3B
 10
158.180
 20
76.8237
 30
0.000000
  70
    32
  0
VERTEX
  8
0
  5
AA3C
 10
157.969
 20
76.6013
 30
0.000000
  70
    32
  0
VERTEX
  8
0
  5
AA3D
 10
157.769
 20
76.3688
 30
0.000000
  70
    32
  0
VERTEX
  8
0
  5
AA3E
 10
157.580
 20
76.1267
 30
0.000000
  70
    32
  0
VERTEX
  8
0
  5
AA3F
 10
157.404
 20
75.8756
 30
0.000000
  70
    32
  0
VERTEX
  8
0
  5
AA40
 10
157.240
 20
75.6162
 30
0.000000
  70
    32
  0
VERTEX
  8
0
  5
AA41
 10
157.089
 20
75.3491
 30
0.000000
  70
    32
  0
VERTEX
  8
0
  5
AA42
 10
156.951
 20
75.0748
 30
0.000000
  70
    32
  0
VERTEX
  8
0
  5
AA43
 10
156.827
 20
74.7941
 30
0.000000
  70
    32
  0
VERTEX
  8
0
  5
AA44
 10
156.716
 20
74.5076
 30
0.000000
  70
    32
  0
VERTEX
  8
0
  5
AA45
 10
156.620
 20
74.2160
 30
0.000000
  70
    32
  0
VERTEX
  8
0
  5
AA46
 10
156.539
 20
73.9201
 30
0.000000
  70
    32
  0
VERTEX
  8
0
  5
AA47
 10
156.471
 20
73.6205
 30
0.000000
  70
    32
  0
VERTEX
  8
0
  5
AA48
 10
156.419
 20
73.3179
 30
0.000000
  70
    32
  0
VERTEX
  8
0
  5
AA49
 10
156.382
 20
73.0132
 30
0.000000
  70
    32
  0
VERTEX
  8
0
  5
AA4A
 10
156.359
 20
72.7070
 30
0.000000
  70
    32
  0
VERTEX
  8
0
  5
AA4B
 10
156.351
 20
72.4000
 30
0.000000
  70
    32
  0
VERTEX
  8
0
  5
AA4C
 10
156.359
 20
72.0930
 30
0.000000
  70
    32
  0
VERTEX
  8
0
  5
AA4D
 10
156.382
 20
71.7868
 30
0.000000
  70
    32
  0
VERTEX
  8
0
  5
AA4E
 10
156.419
 20
71.4821
 30
0.000000
  70
    32
  0
VERTEX
  8
0
  5
AA4F
 10
156.471
 20
71.1795
 30
0.000000
  70
    32
  0
VERTEX
  8
0
  5
AA50
 10
156.539
 20
70.8799
 30
0.000000
  70
    32
  0
VERTEX
  8
0
  5
AA51
 10
156.620
 20
70.5840
 30
0.000000
  70
    32
  0
VERTEX
  8
0
  5
AA52
 10
156.716
 20
70.2924
 30
0.000000
  70
    32
  0
VERTEX
  8
0
  5
AA53
 10
156.827
 20
70.0059
 30
0.000000
  70
    32
  0
VERTEX
  8
0
  5
AA54
 10
156.951
 20
69.7252
 30
0.000000
  70
    32
  0
VERTEX
  8
0
  5
AA55
 10
157.089
 20
69.4509
 30
0.000000
  70
    32
  0
VERTEX
  8
0
  5
AA56
 10
157.240
 20
69.1838
 30
0.000000
  70
    32
  0
VERTEX
  8
0
  5
AA57
 10
157.404
 20
68.9244
 30
0.000000
  70
    32
  0
VERTEX
  8
0
  5
AA58
 10
157.580
 20
68.6733
 30
0.000000
  70
    32
  0
VERTEX
  8
0
  5
AA59
 10
157.769
 20
68.4312
 30
0.000000
  70
    32
  0
VERTEX
  8
0
  5
AA5A
 10
157.969
 20
68.1987
 30
0.000000
  70
    32
  0
VERTEX
  8
0
  5
AA5B
 10
158.180
 20
67.9763
 30
0.000000
  70
    32
  0
VERTEX
  8
0
  5
AA5C
 10
158.402
 20
67.7646
 30
0.000000
  70
    32
  0
VERTEX
  8
0
  5
AA5D
 10
158.634
 20
67.5640
 30
0.000000
  70
    32
  0
VERTEX
  8
0
  5
AA5E
 10
158.875
 20
67.3751
 30
0.000000
  70
    32
  0
VERTEX
  8
0
  5
AA5F
 10
159.126
 20
67.1983
 30
0.000000
  70
    32
  0
VERTEX
  8
0
  5
AA60
 10
159.385
 20
67.0341
 30
0.000000
  70
    32
  0
VERTEX
  8
0
  5
AA61
 10
159.651
 20
66.8827
 30
0.000000
  70
    32
  0
VERTEX
  8
0
  5
AA62
 10
159.925
 20
66.7446
 30
0.000000
  70
    32
  0
VERTEX
  8
0
  5
AA63
 10
160.205
 20
66.6202
 30
0.000000
  70
    32
  0
VERTEX
  8
0
  5
AA64
 10
160.491
 20
66.5097
 30
0.000000
  70
    32
  0
VERTEX
  8
0
  5
AA65
 10
160.782
 20
66.4134
 30
0.000000
  70
    32
  0
VERTEX
  8
0
  5
AA66
 10
161.077
 20
66.3315
 30
0.000000
  70
    32
  0
VERTEX
  8
0
  5
AA67
 10
161.376
 20
66.2642
 30
0.000000
  70
    32
  0
VERTEX
  8
0
  5
AA68
 10
161.678
 20
66.2117
 30
0.000000
  70
    32
  0
VERTEX
  8
0
  5
AA69
 10
161.982
 20
66.1741
 30
0.000000
  70
    32
  0
VERTEX
  8
0
  5
AA6A
 10
162.288
 20
66.1515
 30
0.000000
  70
    32
  0
VERTEX
  8
0
  5
AA6B
 10
162.594
 20
66.1440
 30
0.000000
  70
    32
  0
SEQEND
  8
0
  5
AA6C
  0
LINE
  5
A694
  8
0
 10
162.89999999999949
 20
81.999999999999886
 30
0.0
 11
162.5244256898506
 21
81.999992451905015
 31
0.0
  0
ARC
  5
A695
  8
0
 10
162.89999999999949
 20
72.399999999999864
 30
0.0
 40
9.5999999999999996
 50
290.54711163620237
 51
90.0
  0
POLYLINE
  5
A696
  8
0
 66
     1
 10
0.0
 20
0.0
 30
0.0
  0
VERTEX
  5
A944
  8
0
 10
162.5244256898506
 20
81.999992451905015
 30
0.0
  0
VERTEX
  5
A945
  8
0
 10
162.31761804685419
 20
81.997527746841456
 30
0.0
  0
VERTEX
  5
A946
  8
0
 10
161.51433676266049
 20
81.945919449268217
 30
0.0
  0
VERTEX
  5
A947
  8
0
 10
160.7180418805238
 20
81.828060492591874
 30
0.0
  0
VERTEX
  5
A948
  8
0
 10
159.91191652766969
 20
81.638389103770749
 30
0.0
  0
VERTEX
  5
A949
  8
0
 10
159.12470956182909
 20
81.380996438476643
 30
0.0
  0
VERTEX
  5
A94A
  8
0
 10
158.87212485686271
 20
81.282300001394148
 30
0.0
  0
SEQEND
  5
A94B
  8
0
  0
POLYLINE
  5
A697
  8
0
 66
     1
 10
0.0
 20
0.0
 30
0.0
  0
VERTEX
  5
A94C
  8
0
 10
123.12787514313681
 20
81.282300001394148
 30
0.0
  0
VERTEX
  5
A94D
  8
0
 10
122.45339471289979
 20
81.528147606226639
 30
0.0
  0
VERTEX
  5
A94E
  8
0
 10
121.76272649933919
 20
81.723714049322538
 30
0.0
  0
VERTEX
  5
A94F
  8
0
 10
121.04359092395811
 20
81.870408296439734
 30
0.0
  0
VERTEX
  5
A950
  8
0
 10
120.31548575446121
 20
81.962495195519963
 30
0.0
  0
VERTEX
  5
A951
  8
0
 10
119.5059910373711
 20
81.999847993936612
 30
0.0
  0
VERTEX
  5
A952
  8
0
 10
119.4635850901786
 20
81.999999999999886
 30
0.0
  0
SEQEND
  5
A953
  8
0
  0
LINE
  5
A698
  8
0
 10
119.4635850901786
 20
81.999999999999886
 30
0.0
 11
119.10000000000009
 21
81.999999999999886
 31
0.0
  0
ARC
  5
A699
  8
0
 10
119.10000000000009
 20
72.399999999999864
 30
0.0
 40
9.6000000000000032
 50
90.0
 51
249.4528883637976
  0
ARC
  5
A69A
  8
0
 10
133.58725783871449
 20
126.6132216644266
 30
0.0
 40
71.15250000000195
 50
283.75066048021762
 51
297.34356279218468
  0
ARC
  5
A69B
  8
0
 10
148.41274216128539
 20
126.6132216644274
 30
0.0
 40
71.152500000002917
 50
242.65643720781529
 51
256.2493395197825
  0
ARC
  5
A69C
  8
0
 10
140.99999999999969
 20
71.456819048024045
 30
0.0
 40
10.54318095197595
 50
50.660133954906797
 51
129.3398660450932
  0
LINE
  5
A69D
  8
0
 10
150.49999999999969
 20
50.0
 30
0.0
 11
150.49999999999969
 21
57.5
 31
0.0
  0
LINE
  5
A69E
  8
0
 10
131.49999999999969
 20
57.5
 30
0.0
 11
131.49999999999969
 21
50.0
 31
0.0
  0
LINE
  5
A69F
  8
0
 10
131.49999999999969
 20
50.0
 30
0.0
 11
150.49999999999969
 21
50.0
 31
0.0
  0
POLYLINE
  5
A6A0
  8
0
 10
123.12787514313673
 20
81.282300001394205
 30
0.0
 66
     1
 70
     8
  0
VERTEX
  8
0
  5
AA6D
 10
123.128
 20
81.2823
 30
0.000000
  70
    32
  0
VERTEX
  8
0
  5
AA6E
 10
123.178
 20
81.2696
 30
0.000000
  70
    32
  0
VERTEX
  8
0
  5
AA6F
 10
123.228
 20
81.2570
 30
0.000000
  70
    32
  0
VERTEX
  8
0
  5
AA70
 10
123.279
 20
81.2444
 30
0.000000
  70
    32
  0
VERTEX
  8
0
  5
AA71
 10
123.329
 20
81.2319
 30
0.000000
  70
    32
  0
VERTEX
  8
0
  5
AA72
 10
123.379
 20
81.2194
 30
0.000000
  70
    32
  0
VERTEX
  8
0
  5
AA73
 10
123.430
 20
81.2069
 30
0.000000
  70
    32
  0
VERTEX
  8
0
  5
AA74
 10
123.480
 20
81.1944
 30
0.000000
  70
    32
  0
VERTEX
  8
0
  5
AA75
 10
123.530
 20
81.1820
 30
0.000000
  70
    32
  0
VERTEX
  8
0
  5
AA76
 10
123.581
 20
81.1697
 30
0.000000
  70
    32
  0
VERTEX
  8
0
  5
AA77
 10
123.631
 20
81.1573
 30
0.000000
  70
    32
  0
VERTEX
  8
0
  5
AA78
 10
123.682
 20
81.1450
 30
0.000000
  70
    32
  0
VERTEX
  8
0
  5
AA79
 10
123.732
 20
81.1328
 30
0.000000
  70
    32
  0
VERTEX
  8
0
  5
AA7A
 10
123.782
 20
81.1205
 30
0.000000
  70
    32
  0
VERTEX
  8
0
  5
AA7B
 10
123.833
 20
81.1083
 30
0.000000
  70
    32
  0
VERTEX
  8
0
  5
AA7C
 10
123.883
 20
81.0962
 30
0.000000
  70
    32
  0
VERTEX
  8
0
  5
AA7D
 10
123.934
 20
81.0840
 30
0.000000
  70
    32
  0
VERTEX
  8
0
  5
AA7E
 10
123.984
 20
81.0720
 30
0.000000
  70
    32
  0
VERTEX
  8
0
  5
AA7F
 10
124.035
 20
81.0599
 30
0.000000
  70
    32
  0
VERTEX
  8
0
  5
AA80
 10
124.085
 20
81.0479
 30
0.000000
  70
    32
  0
VERTEX
  8
0
  5
AA81
 10
124.135
 20
81.0359
 30
0.000000
  70
    32
  0
VERTEX
  8
0
  5
AA82
 10
124.186
 20
81.0239
 30
0.000000
  70
    32
  0
VERTEX
  8
0
  5
AA83
 10
124.236
 20
81.0120
 30
0.000000
  70
    32
  0
VERTEX
  8
0
  5
AA84
 10
124.287
 20
81.0002
 30
0.000000
  70
    32
  0
VERTEX
  8
0
  5
AA85
 10
124.337
 20
80.9883
 30
0.000000
  70
    32
  0
VERTEX
  8
0
  5
AA86
 10
124.388
 20
80.9765
 30
0.000000
  70
    32
  0
VERTEX
  8
0
  5
AA87
 10
124.438
 20
80.9647
 30
0.000000
  70
    32
  0
VERTEX
  8
0
  5
AA88
 10
124.489
 20
80.9530
 30
0.000000
  70
    32
  0
VERTEX
  8
0
  5
AA89
 10
124.539
 20
80.9413
 30
0.000000
  70
    32
  0
VERTEX
  8
0
  5
AA8A
 10
124.590
 20
80.9296
 30
0.000000
  70
    32
  0
VERTEX
  8
0
  5
AA8B
 10
124.641
 20
80.9180
 30
0.000000
  70
    32
  0
VERTEX
  8
0
  5
AA8C
 10
124.691
 20
80.9064
 30
0.000000
  70
    32
  0
VERTEX
  8
0
  5
AA8D
 10
124.742
 20
80.8949
 30
0.000000
  70
    32
  0
VERTEX
  8
0
  5
AA8E
 10
124.792
 20
80.8833
 30
0.000000
  70
    32
  0
VERTEX
  8
0
  5
AA8F
 10
124.843
 20
80.8718
 30
0.000000
  70
    32
  0
VERTEX
  8
0
  5
AA90
 10
124.893
 20
80.8604
 30
0.000000
  70
    32
  0
VERTEX
  8
0
  5
AA91
 10
124.944
 20
80.8490
 30
0.000000
  70
    32
  0
VERTEX
  8
0
  5
AA92
 10
124.995
 20
80.8376
 30
0.000000
  70
    32
  0
VERTEX
  8
0
  5
AA93
 10
125.045
 20
80.8263
 30
0.000000
  70
    32
  0
VERTEX
  8
0
  5
AA94
 10
125.096
 20
80.8149
 30
0.000000
  70
    32
  0
VERTEX
  8
0
  5
AA95
 10
125.146
 20
80.8037
 30
0.000000
  70
    32
  0
VERTEX
  8
0
  5
AA96
 10
125.197
 20
80.7924
 30
0.000000
  70
    32
  0
VERTEX
  8
0
  5
AA97
 10
125.248
 20
80.7812
 30
0.000000
  70
    32
  0
VERTEX
  8
0
  5
AA98
 10
125.298
 20
80.7701
 30
0.000000
  70
    32
  0
VERTEX
  8
0
  5
AA99
 10
125.349
 20
80.7589
 30
0.000000
  70
    32
  0
VERTEX
  8
0
  5
AA9A
 10
125.400
 20
80.7478
 30
0.000000
  70
    32
  0
VERTEX
  8
0
  5
AA9B
 10
125.450
 20
80.7368
 30
0.000000
  70
    32
  0
VERTEX
  8
0
  5
AA9C
 10
125.501
 20
80.7257
 30
0.000000
  70
    32
  0
VERTEX
  8
0
  5
AA9D
 10
125.552
 20
80.7148
 30
0.000000
  70
    32
  0
VERTEX
  8
0
  5
AA9E
 10
125.602
 20
80.7038
 30
0.000000
  70
    32
  0
VERTEX
  8
0
  5
AA9F
 10
125.653
 20
80.6929
 30
0.000000
  70
    32
  0
VERTEX
  8
0
  5
AAA0
 10
125.704
 20
80.6820
 30
0.000000
  70
    32
  0
VERTEX
  8
0
  5
AAA1
 10
125.754
 20
80.6712
 30
0.000000
  70
    32
  0
VERTEX
  8
0
  5
AAA2
 10
125.805
 20
80.6603
 30
0.000000
  70
    32
  0
VERTEX
  8
0
  5
AAA3
 10
125.856
 20
80.6496
 30
0.000000
  70
    32
  0
VERTEX
  8
0
  5
AAA4
 10
125.907
 20
80.6388
 30
0.000000
  70
    32
  0
VERTEX
  8
0
  5
AAA5
 10
125.957
 20
80.6281
 30
0.000000
  70
    32
  0
VERTEX
  8
0
  5
AAA6
 10
126.008
 20
80.6175
 30
0.000000
  70
    32
  0
VERTEX
  8
0
  5
AAA7
 10
126.059
 20
80.6068
 30
0.000000
  70
    32
  0
VERTEX
  8
0
  5
AAA8
 10
126.110
 20
80.5962
 30
0.000000
  70
    32
  0
VERTEX
  8
0
  5
AAA9
 10
126.160
 20
80.5857
 30
0.000000
  70
    32
  0
VERTEX
  8
0
  5
AAAA
 10
126.211
 20
80.5751
 30
0.000000
  70
    32
  0
VERTEX
  8
0
  5
AAAB
 10
126.262
 20
80.5647
 30
0.000000
  70
    32
  0
VERTEX
  8
0
  5
AAAC
 10
126.313
 20
80.5542
 30
0.000000
  70
    32
  0
VERTEX
  8
0
  5
AAAD
 10
126.364
 20
80.5438
 30
0.000000
  70
    32
  0
VERTEX
  8
0
  5
AAAE
 10
126.414
 20
80.5334
 30
0.000000
  70
    32
  0
VERTEX
  8
0
  5
AAAF
 10
126.465
 20
80.5231
 30
0.000000
  70
    32
  0
VERTEX
  8
0
  5
AAB0
 10
126.516
 20
80.5127
 30
0.000000
  70
    32
  0
VERTEX
  8
0
  5
AAB1
 10
126.567
 20
80.5025
 30
0.000000
  70
    32
  0
VERTEX
  8
0
  5
AAB2
 10
126.618
 20
80.4922
 30
0.000000
  70
    32
  0
VERTEX
  8
0
  5
AAB3
 10
126.669
 20
80.4820
 30
0.000000
  70
    32
  0
VERTEX
  8
0
  5
AAB4
 10
126.719
 20
80.4719
 30
0.000000
  70
    32
  0
VERTEX
  8
0
  5
AAB5
 10
126.770
 20
80.4617
 30
0.000000
  70
    32
  0
VERTEX
  8
0
  5
AAB6
 10
126.821
 20
80.4516
 30
0.000000
  70
    32
  0
VERTEX
  8
0
  5
AAB7
 10
126.872
 20
80.4416
 30
0.000000
  70
    32
  0
VERTEX
  8
0
  5
AAB8
 10
126.923
 20
80.4315
 30
0.000000
  70
    32
  0
VERTEX
  8
0
  5
AAB9
 10
126.974
 20
80.4215
 30
0.000000
  70
    32
  0
VERTEX
  8
0
  5
AABA
 10
127.025
 20
80.4116
 30
0.000000
  70
    32
  0
VERTEX
  8
0
  5
AABB
 10
127.076
 20
80.4017
 30
0.000000
  70
    32
  0
VERTEX
  8
0
  5
AABC
 10
127.127
 20
80.3918
 30
0.000000
  70
    32
  0
VERTEX
  8
0
  5
AABD
 10
127.178
 20
80.3819
 30
0.000000
  70
    32
  0
VERTEX
  8
0
  5
AABE
 10
127.228
 20
80.3721
 30
0.000000
  70
    32
  0
VERTEX
  8
0
  5
AABF
 10
127.279
 20
80.3624
 30
0.000000
  70
    32
  0
VERTEX
  8
0
  5
AAC0
 10
127.330
 20
80.3526
 30
0.000000
  70
    32
  0
VERTEX
  8
0
  5
AAC1
 10
127.381
 20
80.3429
 30
0.000000
  70
    32
  0
VERTEX
  8
0
  5
AAC2
 10
127.432
 20
80.3332
 30
0.000000
  70
    32
  0
VERTEX
  8
0
  5
AAC3
 10
127.483
 20
80.3236
 30
0.000000
  70
    32
  0
VERTEX
  8
0
  5
AAC4
 10
127.534
 20
80.3140
 30
0.000000
  70
    32
  0
VERTEX
  8
0
  5
AAC5
 10
127.585
 20
80.3045
 30
0.000000
  70
    32
  0
VERTEX
  8
0
  5
AAC6
 10
127.636
 20
80.2949
 30
0.000000
  70
    32
  0
VERTEX
  8
0
  5
AAC7
 10
127.687
 20
80.2854
 30
0.000000
  70
    32
  0
VERTEX
  8
0
  5
AAC8
 10
127.738
 20
80.2760
 30
0.000000
  70
    32
  0
VERTEX
  8
0
  5
AAC9
 10
127.789
 20
80.2666
 30
0.000000
  70
    32
  0
VERTEX
  8
0
  5
AACA
 10
127.840
 20
80.2572
 30
0.000000
  70
    32
  0
VERTEX
  8
0
  5
AACB
 10
127.891
 20
80.2478
 30
0.000000
  70
    32
  0
VERTEX
  8
0
  5
AACC
 10
127.942
 20
80.2385
 30
0.000000
  70
    32
  0
VERTEX
  8
0
  5
AACD
 10
127.993
 20
80.2293
 30
0.000000
  70
    32
  0
VERTEX
  8
0
  5
AACE
 10
128.044
 20
80.2200
 30
0.000000
  70
    32
  0
VERTEX
  8
0
  5
AACF
 10
128.095
 20
80.2108
 30
0.000000
  70
    32
  0
VERTEX
  8
0
  5
AAD0
 10
128.146
 20
80.2017
 30
0.000000
  70
    32
  0
VERTEX
  8
0
  5
AAD1
 10
128.197
 20
80.1925
 30
0.000000
  70
    32
  0
VERTEX
  8
0
  5
AAD2
 10
128.248
 20
80.1834
 30
0.000000
  70
    32
  0
VERTEX
  8
0
  5
AAD3
 10
128.299
 20
80.1744
 30
0.000000
  70
    32
  0
VERTEX
  8
0
  5
AAD4
 10
128.350
 20
80.1654
 30
0.000000
  70
    32
  0
VERTEX
  8
0
  5
AAD5
 10
128.402
 20
80.1564
 30
0.000000
  70
    32
  0
VERTEX
  8
0
  5
AAD6
 10
128.453
 20
80.1474
 30
0.000000
  70
    32
  0
VERTEX
  8
0
  5
AAD7
 10
128.504
 20
80.1385
 30
0.000000
  70
    32
  0
VERTEX
  8
0
  5
AAD8
 10
128.555
 20
80.1296
 30
0.000000
  70
    32
  0
VERTEX
  8
0
  5
AAD9
 10
128.606
 20
80.1208
 30
0.000000
  70
    32
  0
VERTEX
  8
0
  5
AADA
 10
128.657
 20
80.1120
 30
0.000000
  70
    32
  0
VERTEX
  8
0
  5
AADB
 10
128.708
 20
80.1032
 30
0.000000
  70
    32
  0
VERTEX
  8
0
  5
AADC
 10
128.759
 20
80.0945
 30
0.000000
  70
    32
  0
VERTEX
  8
0
  5
AADD
 10
128.810
 20
80.0858
 30
0.000000
  70
    32
  0
VERTEX
  8
0
  5
AADE
 10
128.862
 20
80.0771
 30
0.000000
  70
    32
  0
VERTEX
  8
0
  5
AADF
 10
128.913
 20
80.0685
 30
0.000000
  70
    32
  0
VERTEX
  8
0
  5
AAE0
 10
128.964
 20
80.0599
 30
0.000000
  70
    32
  0
VERTEX
  8
0
  5
AAE1
 10
129.015
 20
80.0513
 30
0.000000
  70
    32
  0
VERTEX
  8
0
  5
AAE2
 10
129.066
 20
80.0428
 30
0.000000
  70
    32
  0
VERTEX
  8
0
  5
AAE3
 10
129.117
 20
80.0343
 30
0.000000
  70
    32
  0
VERTEX
  8
0
  5
AAE4
 10
129.168
 20
80.0259
 30
0.000000
  70
    32
  0
VERTEX
  8
0
  5
AAE5
 10
129.220
 20
80.0175
 30
0.000000
  70
    32
  0
VERTEX
  8
0
  5
AAE6
 10
129.271
 20
80.0091
 30
0.000000
  70
    32
  0
VERTEX
  8
0
  5
AAE7
 10
129.322
 20
80.0007
 30
0.000000
  70
    32
  0
VERTEX
  8
0
  5
AAE8
 10
129.373
 20
79.9924
 30
0.000000
  70
    32
  0
VERTEX
  8
0
  5
AAE9
 10
129.424
 20
79.9842
 30
0.000000
  70
    32
  0
VERTEX
  8
0
  5
AAEA
 10
129.476
 20
79.9759
 30
0.000000
  70
    32
  0
VERTEX
  8
0
  5
AAEB
 10
129.527
 20
79.9677
 30
0.000000
  70
    32
  0
VERTEX
  8
0
  5
AAEC
 10
129.578
 20
79.9596
 30
0.000000
  70
    32
  0
VERTEX
  8
0
  5
AAED
 10
129.629
 20
79.9515
 30
0.000000
  70
    32
  0
SEQEND
  8
0
  5
AAEE
  0
POLYLINE
  5
A6A1
  8
0
 66
     1
 10
0.0
 20
0.0
 30
0.0
  0
VERTEX
  5
A954
  8
0
 10
132.92462300389639
 20
79.610908026839638
 30
0.0
  0
VERTEX
  5
A955
  8
0
 10
132.56733310593989
 20
79.619857845682404
 30
0.0
  0
VERTEX
  5
A956
  8
0
 10
132.13605029653911
 20
79.646183369830396
 30
0.0
  0
VERTEX
  5
A957
  8
0
 10
131.6423899421556
 20
79.689327093302381
 30
0.0
  0
VERTEX
  5
A958
  8
0
 10
131.10124160589589
 20
79.747792103913284
 30
0.0
  0
VERTEX
  5
A959
  8
0
 10
130.52344352539029
 20
79.820616315497034
 30
0.0
  0
VERTEX
  5
A95A
  8
0
 10
129.92903343746141
 20
79.905203999296873
 30
0.0
  0
VERTEX
  5
A95B
  8
0
 10
129.62922708756011
 20
79.951455790993919
 30
0.0
  0
SEQEND
  5
A95C
  8
0
  0
LINE
  5
A6A2
  8
0
 10
132.92462300389639
 20
79.610908026839638
 30
0.0
 11
149.07537706973059
 21
79.610908026839581
 31
0.0
  0
POLYLINE
  5
A6A3
  8
0
 66
     1
 10
0.0
 20
0.0
 30
0.0
  0
VERTEX
  5
A95D
  8
0
 10
152.37077291243949
 20
79.951455790993805
 30
0.0
  0
VERTEX
  5
A95E
  8
0
 10
151.9674284535001
 20
79.889811261603541
 30
0.0
  0
VERTEX
  5
A95F
  8
0
 10
151.5642922642954
 20
79.832499565090359
 30
0.0
  0
VERTEX
  5
A960
  8
0
 10
151.16890300472861
 20
79.780602583379732
 30
0.0
  0
VERTEX
  5
A961
  8
0
 10
150.78491289514821
 20
79.734678155596782
 30
0.0
  0
VERTEX
  5
A962
  8
0
 10
150.4162272586475
 20
79.69514564944626
 30
0.0
  0
VERTEX
  5
A963
  8
0
 10
150.070034160771
 20
79.662787576396511
 30
0.0
  0
VERTEX
  5
A964
  8
0
 10
149.7536024393049
 20
79.63828284757642
 30
0.0
  0
VERTEX
  5
A965
  8
0
 10
149.46569634061589
 20
79.621375167373458
 30
0.0
  0
VERTEX
  5
A966
  8
0
 10
149.2119305755993
 20
79.612403016136113
 30
0.0
  0
VERTEX
  5
A967
  8
0
 10
149.07537706973059
 20
79.610908026839581
 30
0.0
  0
SEQEND
  5
A968
  8
0
  0
POLYLINE
  5
A6A4
  8
0
 10
152.37077291255261
 20
79.95145579027438
 30
0.0
 66
     1
 70
     8
  0
VERTEX
  8
0
  5
AAEF
 10
152.371
 20
79.9515
 30
0.000000
  70
    32
  0
VERTEX
  8
0
  5
AAF0
 10
152.422
 20
79.9596
 30
0.000000
  70
    32
  0
VERTEX
  8
0
  5
AAF1
 10
152.473
 20
79.9677
 30
0.000000
  70
    32
  0
VERTEX
  8
0
  5
AAF2
 10
152.524
 20
79.9759
 30
0.000000
  70
    32
  0
VERTEX
  8
0
  5
AAF3
 10
152.576
 20
79.9842
 30
0.000000
  70
    32
  0
VERTEX
  8
0
  5
AAF4
 10
152.627
 20
79.9924
 30
0.000000
  70
    32
  0
VERTEX
  8
0
  5
AAF5
 10
152.678
 20
80.0007
 30
0.000000
  70
    32
  0
VERTEX
  8
0
  5
AAF6
 10
152.729
 20
80.0091
 30
0.000000
  70
    32
  0
VERTEX
  8
0
  5
AAF7
 10
152.780
 20
80.0175
 30
0.000000
  70
    32
  0
VERTEX
  8
0
  5
AAF8
 10
152.832
 20
80.0259
 30
0.000000
  70
    32
  0
VERTEX
  8
0
  5
AAF9
 10
152.883
 20
80.0343
 30
0.000000
  70
    32
  0
VERTEX
  8
0
  5
AAFA
 10
152.934
 20
80.0428
 30
0.000000
  70
    32
  0
VERTEX
  8
0
  5
AAFB
 10
152.985
 20
80.0513
 30
0.000000
  70
    32
  0
VERTEX
  8
0
  5
AAFC
 10
153.036
 20
80.0599
 30
0.000000
  70
    32
  0
VERTEX
  8
0
  5
AAFD
 10
153.087
 20
80.0685
 30
0.000000
  70
    32
  0
VERTEX
  8
0
  5
AAFE
 10
153.138
 20
80.0771
 30
0.000000
  70
    32
  0
VERTEX
  8
0
  5
AAFF
 10
153.190
 20
80.0858
 30
0.000000
  70
    32
  0
VERTEX
  8
0
  5
AB00
 10
153.241
 20
80.0945
 30
0.000000
  70
    32
  0
VERTEX
  8
0
  5
AB01
 10
153.292
 20
80.1032
 30
0.000000
  70
    32
  0
VERTEX
  8
0
  5
AB02
 10
153.343
 20
80.1120
 30
0.000000
  70
    32
  0
VERTEX
  8
0
  5
AB03
 10
153.394
 20
80.1208
 30
0.000000
  70
    32
  0
VERTEX
  8
0
  5
AB04
 10
153.445
 20
80.1296
 30
0.000000
  70
    32
  0
VERTEX
  8
0
  5
AB05
 10
153.496
 20
80.1385
 30
0.000000
  70
    32
  0
VERTEX
  8
0
  5
AB06
 10
153.547
 20
80.1474
 30
0.000000
  70
    32
  0
VERTEX
  8
0
  5
AB07
 10
153.598
 20
80.1564
 30
0.000000
  70
    32
  0
VERTEX
  8
0
  5
AB08
 10
153.650
 20
80.1654
 30
0.000000
  70
    32
  0
VERTEX
  8
0
  5
AB09
 10
153.701
 20
80.1744
 30
0.000000
  70
    32
  0
VERTEX
  8
0
  5
AB0A
 10
153.752
 20
80.1834
 30
0.000000
  70
    32
  0
VERTEX
  8
0
  5
AB0B
 10
153.803
 20
80.1925
 30
0.000000
  70
    32
  0
VERTEX
  8
0
  5
AB0C
 10
153.854
 20
80.2017
 30
0.000000
  70
    32
  0
VERTEX
  8
0
  5
AB0D
 10
153.905
 20
80.2108
 30
0.000000
  70
    32
  0
VERTEX
  8
0
  5
AB0E
 10
153.956
 20
80.2200
 30
0.000000
  70
    32
  0
VERTEX
  8
0
  5
AB0F
 10
154.007
 20
80.2293
 30
0.000000
  70
    32
  0
VERTEX
  8
0
  5
AB10
 10
154.058
 20
80.2385
 30
0.000000
  70
    32
  0
VERTEX
  8
0
  5
AB11
 10
154.109
 20
80.2478
 30
0.000000
  70
    32
  0
VERTEX
  8
0
  5
AB12
 10
154.160
 20
80.2572
 30
0.000000
  70
    32
  0
VERTEX
  8
0
  5
AB13
 10
154.211
 20
80.2666
 30
0.000000
  70
    32
  0
VERTEX
  8
0
  5
AB14
 10
154.262
 20
80.2760
 30
0.000000
  70
    32
  0
VERTEX
  8
0
  5
AB15
 10
154.313
 20
80.2854
 30
0.000000
  70
    32
  0
VERTEX
  8
0
  5
AB16
 10
154.364
 20
80.2949
 30
0.000000
  70
    32
  0
VERTEX
  8
0
  5
AB17
 10
154.415
 20
80.3045
 30
0.000000
  70
    32
  0
VERTEX
  8
0
  5
AB18
 10
154.466
 20
80.3140
 30
0.000000
  70
    32
  0
VERTEX
  8
0
  5
AB19
 10
154.517
 20
80.3236
 30
0.000000
  70
    32
  0
VERTEX
  8
0
  5
AB1A
 10
154.568
 20
80.3332
 30
0.000000
  70
    32
  0
VERTEX
  8
0
  5
AB1B
 10
154.619
 20
80.3429
 30
0.000000
  70
    32
  0
VERTEX
  8
0
  5
AB1C
 10
154.670
 20
80.3526
 30
0.000000
  70
    32
  0
VERTEX
  8
0
  5
AB1D
 10
154.721
 20
80.3624
 30
0.000000
  70
    32
  0
VERTEX
  8
0
  5
AB1E
 10
154.772
 20
80.3721
 30
0.000000
  70
    32
  0
VERTEX
  8
0
  5
AB1F
 10
154.822
 20
80.3819
 30
0.000000
  70
    32
  0
VERTEX
  8
0
  5
AB20
 10
154.873
 20
80.3918
 30
0.000000
  70
    32
  0
VERTEX
  8
0
  5
AB21
 10
154.924
 20
80.4017
 30
0.000000
  70
    32
  0
VERTEX
  8
0
  5
AB22
 10
154.975
 20
80.4116
 30
0.000000
  70
    32
  0
VERTEX
  8
0
  5
AB23
 10
155.026
 20
80.4215
 30
0.000000
  70
    32
  0
VERTEX
  8
0
  5
AB24
 10
155.077
 20
80.4315
 30
0.000000
  70
    32
  0
VERTEX
  8
0
  5
AB25
 10
155.128
 20
80.4416
 30
0.000000
  70
    32
  0
VERTEX
  8
0
  5
AB26
 10
155.179
 20
80.4516
 30
0.000000
  70
    32
  0
VERTEX
  8
0
  5
AB27
 10
155.230
 20
80.4617
 30
0.000000
  70
    32
  0
VERTEX
  8
0
  5
AB28
 10
155.281
 20
80.4719
 30
0.000000
  70
    32
  0
VERTEX
  8
0
  5
AB29
 10
155.331
 20
80.4820
 30
0.000000
  70
    32
  0
VERTEX
  8
0
  5
AB2A
 10
155.382
 20
80.4922
 30
0.000000
  70
    32
  0
VERTEX
  8
0
  5
AB2B
 10
155.433
 20
80.5025
 30
0.000000
  70
    32
  0
VERTEX
  8
0
  5
AB2C
 10
155.484
 20
80.5127
 30
0.000000
  70
    32
  0
VERTEX
  8
0
  5
AB2D
 10
155.535
 20
80.5231
 30
0.000000
  70
    32
  0
VERTEX
  8
0
  5
AB2E
 10
155.586
 20
80.5334
 30
0.000000
  70
    32
  0
VERTEX
  8
0
  5
AB2F
 10
155.636
 20
80.5438
 30
0.000000
  70
    32
  0
VERTEX
  8
0
  5
AB30
 10
155.687
 20
80.5542
 30
0.000000
  70
    32
  0
VERTEX
  8
0
  5
AB31
 10
155.738
 20
80.5647
 30
0.000000
  70
    32
  0
VERTEX
  8
0
  5
AB32
 10
155.789
 20
80.5751
 30
0.000000
  70
    32
  0
VERTEX
  8
0
  5
AB33
 10
155.840
 20
80.5857
 30
0.000000
  70
    32
  0
VERTEX
  8
0
  5
AB34
 10
155.890
 20
80.5962
 30
0.000000
  70
    32
  0
VERTEX
  8
0
  5
AB35
 10
155.941
 20
80.6068
 30
0.000000
  70
    32
  0
VERTEX
  8
0
  5
AB36
 10
155.992
 20
80.6175
 30
0.000000
  70
    32
  0
VERTEX
  8
0
  5
AB37
 10
156.043
 20
80.6281
 30
0.000000
  70
    32
  0
VERTEX
  8
0
  5
AB38
 10
156.093
 20
80.6388
 30
0.000000
  70
    32
  0
VERTEX
  8
0
  5
AB39
 10
156.144
 20
80.6496
 30
0.000000
  70
    32
  0
VERTEX
  8
0
  5
AB3A
 10
156.195
 20
80.6603
 30
0.000000
  70
    32
  0
VERTEX
  8
0
  5
AB3B
 10
156.246
 20
80.6712
 30
0.000000
  70
    32
  0
VERTEX
  8
0
  5
AB3C
 10
156.296
 20
80.6820
 30
0.000000
  70
    32
  0
VERTEX
  8
0
  5
AB3D
 10
156.347
 20
80.6929
 30
0.000000
  70
    32
  0
VERTEX
  8
0
  5
AB3E
 10
156.398
 20
80.7038
 30
0.000000
  70
    32
  0
VERTEX
  8
0
  5
AB3F
 10
156.448
 20
80.7148
 30
0.000000
  70
    32
  0
VERTEX
  8
0
  5
AB40
 10
156.499
 20
80.7257
 30
0.000000
  70
    32
  0
VERTEX
  8
0
  5
AB41
 10
156.550
 20
80.7368
 30
0.000000
  70
    32
  0
VERTEX
  8
0
  5
AB42
 10
156.600
 20
80.7478
 30
0.000000
  70
    32
  0
VERTEX
  8
0
  5
AB43
 10
156.651
 20
80.7589
 30
0.000000
  70
    32
  0
VERTEX
  8
0
  5
AB44
 10
156.702
 20
80.7701
 30
0.000000
  70
    32
  0
VERTEX
  8
0
  5
AB45
 10
156.752
 20
80.7812
 30
0.000000
  70
    32
  0
VERTEX
  8
0
  5
AB46
 10
156.803
 20
80.7924
 30
0.000000
  70
    32
  0
VERTEX
  8
0
  5
AB47
 10
156.854
 20
80.8037
 30
0.000000
  70
    32
  0
VERTEX
  8
0
  5
AB48
 10
156.904
 20
80.8149
 30
0.000000
  70
    32
  0
VERTEX
  8
0
  5
AB49
 10
156.955
 20
80.8263
 30
0.000000
  70
    32
  0
VERTEX
  8
0
  5
AB4A
 10
157.005
 20
80.8376
 30
0.000000
  70
    32
  0
VERTEX
  8
0
  5
AB4B
 10
157.056
 20
80.8490
 30
0.000000
  70
    32
  0
VERTEX
  8
0
  5
AB4C
 10
157.107
 20
80.8604
 30
0.000000
  70
    32
  0
VERTEX
  8
0
  5
AB4D
 10
157.157
 20
80.8718
 30
0.000000
  70
    32
  0
VERTEX
  8
0
  5
AB4E
 10
157.208
 20
80.8833
 30
0.000000
  70
    32
  0
VERTEX
  8
0
  5
AB4F
 10
157.258
 20
80.8949
 30
0.000000
  70
    32
  0
VERTEX
  8
0
  5
AB50
 10
157.309
 20
80.9064
 30
0.000000
  70
    32
  0
VERTEX
  8
0
  5
AB51
 10
157.359
 20
80.9180
 30
0.000000
  70
    32
  0
VERTEX
  8
0
  5
AB52
 10
157.410
 20
80.9296
 30
0.000000
  70
    32
  0
VERTEX
  8
0
  5
AB53
 10
157.461
 20
80.9413
 30
0.000000
  70
    32
  0
VERTEX
  8
0
  5
AB54
 10
157.511
 20
80.9530
 30
0.000000
  70
    32
  0
VERTEX
  8
0
  5
AB55
 10
157.562
 20
80.9647
 30
0.000000
  70
    32
  0
VERTEX
  8
0
  5
AB56
 10
157.612
 20
80.9765
 30
0.000000
  70
    32
  0
VERTEX
  8
0
  5
AB57
 10
157.663
 20
80.9883
 30
0.000000
  70
    32
  0
VERTEX
  8
0
  5
AB58
 10
157.713
 20
81.0002
 30
0.000000
  70
    32
  0
VERTEX
  8
0
  5
AB59
 10
157.764
 20
81.0120
 30
0.000000
  70
    32
  0
VERTEX
  8
0
  5
AB5A
 10
157.814
 20
81.0239
 30
0.000000
  70
    32
  0
VERTEX
  8
0
  5
AB5B
 10
157.865
 20
81.0359
 30
0.000000
  70
    32
  0
VERTEX
  8
0
  5
AB5C
 10
157.915
 20
81.0479
 30
0.000000
  70
    32
  0
VERTEX
  8
0
  5
AB5D
 10
157.965
 20
81.0599
 30
0.000000
  70
    32
  0
VERTEX
  8
0
  5
AB5E
 10
158.016
 20
81.0720
 30
0.000000
  70
    32
  0
VERTEX
  8
0
  5
AB5F
 10
158.066
 20
81.0840
 30
0.000000
  70
    32
  0
VERTEX
  8
0
  5
AB60
 10
158.117
 20
81.0962
 30
0.000000
  70
    32
  0
VERTEX
  8
0
  5
AB61
 10
158.167
 20
81.1083
 30
0.000000
  70
    32
  0
VERTEX
  8
0
  5
AB62
 10
158.218
 20
81.1205
 30
0.000000
  70
    32
  0
VERTEX
  8
0
  5
AB63
 10
158.268
 20
81.1328
 30
0.000000
  70
    32
  0
VERTEX
  8
0
  5
AB64
 10
158.318
 20
81.1450
 30
0.000000
  70
    32
  0
VERTEX
  8
0
  5
AB65
 10
158.369
 20
81.1573
 30
0.000000
  70
    32
  0
VERTEX
  8
0
  5
AB66
 10
158.419
 20
81.1697
 30
0.000000
  70
    32
  0
VERTEX
  8
0
  5
AB67
 10
158.470
 20
81.1820
 30
0.000000
  70
    32
  0
VERTEX
  8
0
  5
AB68
 10
158.520
 20
81.1944
 30
0.000000
  70
    32
  0
VERTEX
  8
0
  5
AB69
 10
158.570
 20
81.2069
 30
0.000000
  70
    32
  0
VERTEX
  8
0
  5
AB6A
 10
158.621
 20
81.2194
 30
0.000000
  70
    32
  0
VERTEX
  8
0
  5
AB6B
 10
158.671
 20
81.2319
 30
0.000000
  70
    32
  0
VERTEX
  8
0
  5
AB6C
 10
158.721
 20
81.2444
 30
0.000000
  70
    32
  0
VERTEX
  8
0
  5
AB6D
 10
158.772
 20
81.2570
 30
0.000000
  70
    32
  0
VERTEX
  8
0
  5
AB6E
 10
158.822
 20
81.2696
 30
0.000000
  70
    32
  0
VERTEX
  8
0
  5
AB6F
 10
158.872
 20
81.2823
 30
0.000000
  70
    32
  0
SEQEND
  8
0
  5
AB70
  0
ARC
  5
A6A5
  8
2
 10
140.99999999999969
 20
71.456819048024045
 30
0.0
 40
10.54318095197595
 50
48.399231117467281
 51
50.660133954906797
  0
ARC
  5
A6A6
  8
2
 10
140.99999999999969
 20
71.456819048024045
 30
0.0
 40
10.54318095197595
 50
129.3398660450932
 51
131.60076888253221
  0
ENDSEC
  0
EOF
