  0
SECTION
  2
HEADER
  9
$ACADVER
  1
AC1009
  9
$INSBASE
 10
0.0
 20
0.0
 30
0.0
  9
$EXTMIN
 10
0.0
 20
-2.9604365620736979
 30
0.0
  9
$EXTMAX
 10
255.25000000000159
 20
168.50000000000031
 30
0.0
  9
$LIMMIN
 10
0.0
 20
0.0
  9
$LIMMAX
 10
385.0
 20
270.0
  9
$ORTHOMODE
 70
     1
  9
$REGENMODE
 70
     1
  9
$FILLMODE
 70
     1
  9
$QTEXTMODE
 70
     0
  9
$MIRRTEXT
 70
     0
  9
$DRAGMODE
 70
     2
  9
$LTSCALE
 40
5.0
  9
$OSMODE
 70
    37
  9
$ATTMODE
 70
     1
  9
$TEXTSIZE
 40
4.0
  9
$TRACEWID
 40
0.05
  9
$TEXTSTYLE
  7
STANDARD
  9
$CLAYER
  8
0
  9
$CELTYPE
  6
BYLAYER
  9
$CECOLOR
 62
   256
  9
$DIMSCALE
 40
1.0
  9
$DIMASZ
 40
3.0
  9
$DIMEXO
 40
1.0
  9
$DIMDLI
 40
6.0
  9
$DIMRND
 40
0.0
  9
$DIMDLE
 40
0.0
  9
$DIMEXE
 40
1.0
  9
$DIMTP
 40
495.0
  9
$DIMTM
 40
0.0
  9
$DIMTXT
 40
3.0
  9
$DIMCEN
 40
0.0
  9
$DIMTSZ
 40
0.0
  9
$DIMTOL
 70
     0
  9
$DIMLIM
 70
     0
  9
$DIMTIH
 70
     0
  9
$DIMTOH
 70
     0
  9
$DIMSE1
 70
     0
  9
$DIMSE2
 70
     0
  9
$DIMTAD
 70
     1
  9
$DIMZIN
 70
     8
  9
$DIMBLK
  1

  9
$DIMASO
 70
     1
  9
$DIMSHO
 70
     0
  9
$DIMPOST
  1

  9
$DIMAPOST
  1

  9
$DIMALT
 70
     0
  9
$DIMALTD
 70
     2
  9
$DIMALTF
 40
25.399999999999999
  9
$DIMLFAC
 40
1.0
  9
$DIMTOFL
 70
     1
  9
$DIMTVP
 40
0.0
  9
$DIMTIX
 70
     0
  9
$DIMSOXD
 70
     0
  9
$DIMSAH
 70
     0
  9
$DIMBLK1
  1

  9
$DIMBLK2
  1

  9
$DIMSTYLE
  2
STANDARD
  9
$DIMCLRD
 70
     0
  9
$DIMCLRE
 70
     0
  9
$DIMCLRT
 70
     0
  9
$DIMTFAC
 40
1.0
  9
$DIMGAP
 40
1.0
  9
$LUNITS
 70
     2
  9
$LUPREC
 70
     1
  9
$SKETCHINC
 40
0.1
  9
$FILLETRAD
 40
2.0
  9
$AUNITS
 70
     0
  9
$AUPREC
 70
     1
  9
$MENU
  1
E:\r13\win\SUPPORT\ACAD
  9
$ELEVATION
 40
0.0
  9
$PELEVATION
 40
0.0
  9
$THICKNESS
 40
0.0
  9
$LIMCHECK
 70
     0
  9
$BLIPMODE
 70
     0
  9
$CHAMFERA
 40
0.0
  9
$CHAMFERB
 40
0.0
  9
$SKPOLY
 70
     0
  9
$TDCREATE
 40
2450541.3939600689
  9
$TDUPDATE
 40
2459429.5742786578
  9
$TDINDWG
 40
2.0046210068999999
  9
$TDUSRTIMER
 40
2.0046210068999999
  9
$USRTIMER
 70
     1
  9
$ANGBASE
 50
0.0
  9
$ANGDIR
 70
     0
  9
$PDMODE
 70
     0
  9
$PDSIZE
 40
0.0
  9
$PLINEWID
 40
0.0
  9
$COORDS
 70
     1
  9
$SPLFRAME
 70
     0
  9
$SPLINETYPE
 70
     6
  9
$SPLINESEGS
 70
     8
  9
$ATTDIA
 70
     0
  9
$ATTREQ
 70
     1
  9
$HANDLING
 70
     1
  9
$HANDSEED
  5
1F989
  9
$SURFTAB1
 70
     6
  9
$SURFTAB2
 70
     6
  9
$SURFTYPE
 70
     6
  9
$SURFU
 70
     6
  9
$SURFV
 70
     6
  9
$UCSNAME
  2

  9
$UCSORG
 10
0.0
 20
0.0
 30
0.0
  9
$UCSXDIR
 10
1.0
 20
0.0
 30
0.0
  9
$UCSYDIR
 10
0.0
 20
1.0
 30
0.0
  9
$PUCSNAME
  2

  9
$PUCSORG
 10
0.0
 20
0.0
 30
0.0
  9
$PUCSXDIR
 10
1.0
 20
0.0
 30
0.0
  9
$PUCSYDIR
 10
0.0
 20
1.0
 30
0.0
  9
$USERI1
 70
     3
  9
$USERI2
 70
     1
  9
$USERI3
 70
     1
  9
$USERI4
 70
     0
  9
$USERI5
 70
     0
  9
$USERR1
 40
1.0
  9
$USERR2
 40
3.0
  9
$USERR3
 40
3.0
  9
$USERR4
 40
3.0
  9
$USERR5
 40
10.0
  9
$WORLDVIEW
 70
     1
  9
$SHADEDGE
 70
     3
  9
$SHADEDIF
 70
    70
  9
$TILEMODE
 70
     1
  9
$MAXACTVP
 70
    16
  9
$PLIMCHECK
 70
     0
  9
$PEXTMIN
 10
1.0000000000000000E+020
 20
1.0000000000000000E+020
 30
1.0000000000000000E+020
  9
$PEXTMAX
 10
-1.0000000000000000E+020
 20
-1.0000000000000000E+020
 30
-1.0000000000000000E+020
  9
$PLIMMIN
 10
0.0
 20
0.0
  9
$PLIMMAX
 10
12.0
 20
9.0
  9
$UNITMODE
 70
     0
  9
$VISRETAIN
 70
     0
  9
$PLINEGEN
 70
     0
  9
$PSLTSCALE
 70
     0
  0
ENDSEC
  0
SECTION
  2
TABLES
  0
TABLE
  2
VPORT
 70
     1
  0
VPORT
  2
*ACTIVE
 70
     0
 10
0.0
 20
0.0
 11
1.0
 21
1.0
 12
216.90566546926851
 22
82.769668887426818
 13
0.0
 23
0.0
 14
5.0
 24
5.0
 15
10.0
 25
10.0
 16
0.0
 26
0.0
 36
1.0
 17
0.0
 27
0.0
 37
0.0
 40
182.8914736771749
 41
2.3805970149253728
 42
50.0
 43
0.0
 44
0.0
 50
0.0
 51
0.0
 71
     0
 72
   100
 73
     1
 74
     0
 75
     0
 76
     0
 77
     0
 78
     0
  0
ENDTAB
  0
TABLE
  2
LTYPE
 70
     4
  0
LTYPE
  2
CONTINUOUS
 70
     0
  3
Solid Line
 72
    65
 73
     0
 40
0.0
  0
LTYPE
  2
CENTER
 70
     0
  3
____ _ ____ _ ____ _ ____ _ ____ _ ____ _ ____
 72
    65
 73
     4
 40
2.0
 49
1.25
 49
-0.25
 49
0.25
 49
-0.25
  0
LTYPE
  2
HIDDEN
 70
     0
  3
_ _ _ _ _ _ _ _ _ _ _ _ _ _ _ _ _ _ _ _ _ _ _
 72
    65
 73
     2
 40
0.375
 49
0.25
 49
-0.125
  0
LTYPE
  2
PHANTOM2
 70
     0
  3
___ _ _ ___ _ _ ___ _ _ ___ _ _
 72
    65
 73
     6
 40
1.25
 49
0.625
 49
-0.125
 49
0.125
 49
-0.125
 49
0.125
 49
-0.125
  0
ENDTAB
  0
TABLE
  2
LAYER
 70
     5
  0
LAYER
  2
0
 70
     0
 62
     7
  6
CONTINUOUS
  0
LAYER
  2
1
 70
     0
 62
     1
  6
CENTER
  0
LAYER
  2
2
 70
     0
 62
     2
  6
HIDDEN
  0
LAYER
  2
DEFPOINTS
 70
     0
 62
     7
  6
CONTINUOUS
  0
LAYER
  2
4
 70
     0
 62
     4
  6
CONTINUOUS
  0
ENDTAB
  0
TABLE
  2
STYLE
 70
     2
  0
STYLE
  2
STANDARD
 70
     0
 40
0.0
 41
1.0
 50
0.0
 71
     0
 42
4.0
  3
SIMPLEX
  4
BIGFONT
  0
STYLE
  2
STANDARD1
 70
     0
 40
0.0
 41
1.0
 50
0.0
 71
     0
 42
3.0
  3
txt
  4

  0
ENDTAB
  0
TABLE
  2
VIEW
 70
     0
  0
ENDTAB
  0
TABLE
  2
UCS
 70
     0
  0
ENDTAB
  0
TABLE
  2
APPID
 70
    43
  0
APPID
  2
ACAD
 70
     0
  0
APPID
  2
ASM_BASE
 70
     0
  0
APPID
  2
ASM_EXPLO_VER_2_00
 70
     0
  0
APPID
  2
ASM_CADM_VER_12_00
 70
     0
  0
APPID
  2
ASM_BASEFORO
 70
     0
  0
APPID
  2
ASM_BASETRAVI
 70
     0
  0
APPID
  2
ASM_BASETRAVI1
 70
     0
  0
APPID
  2
ASM_GRUPPI
 70
     0
  0
APPID
  2
ASM_CADM_ALBERO
 70
     0
  0
APPID
  2
ASM_GOLE
 70
     0
  0
APPID
  2
ACAD_EXEMPT_FROM_CAD_STANDARDS
 70
     0
  0
APPID
  2
ACAD_DSTYLE_DIMJAG
 70
     0
  0
APPID
  2
ACAD_DSTYLE_DIMTALN
 70
     0
  0
APPID
  2
ACAD_MLEADERVER
 70
     0
  0
APPID
  2
ACAD_NAV_VCDISPLAY
 70
     0
  0
APPID
  2
ACAD_DSTYLE_DIMRADIAL_EXTENSION
 70
     0
  0
APPID
  2
DCO15
 70
     0
  0
APPID
  2
ACADANNOTATIVE
 70
     0
  0
APPID
  2
GENIUS_GENODEF_13
 70
     0
  0
APPID
  2
GENIUS_GENFIL_13
 70
     0
  0
APPID
  2
GENIUS_GENOBJ-N-CHA_13
 70
     0
  0
APPID
  2
GENIUS_GENOREF_13
 70
     0
  0
APPID
  2
GENIUS_GENOENT_13
 70
     0
  0
APPID
  2
GENIUS_GENBH_13
 70
     0
  0
APPID
  2
GENIUS_GENOBJ_13
 70
     0
  0
APPID
  2
GENIUS_GENOLIS_13
 70
     0
  0
APPID
  2
GENIUS_GENOBJ-NBEHI-BHF_13
 70
     0
  0
APPID
  2
GENIUS_GENOBJ-NBEHI-BHB_13
 70
     0
  0
APPID
  2
GENIUS_GENOBJ-F-PART_13
 70
     0
  0
APPID
  2
GENIUS_GEFSTDP_13
 70
     0
  0
APPID
  2
GENIUS_GENOBJ-N-RSSYM_13
 70
     0
  0
APPID
  2
GENIUS_GENSYMENT_13
 70
     0
  0
APPID
  2
GENIUS_GENOBJ-N-TIT_13
 70
     0
  0
APPID
  2
GENIUS_GENTITLE_13
 70
     0
  0
APPID
  2
GENIUS_GENZVEED_13
 70
     0
  0
APPID
  2
GENIUS_GENOBJ-N-LEADER_13
 70
     0
  0
APPID
  2
GENIUS_GENOBJ-N-FIL_13
 70
     0
  0
APPID
  2
GENIUS_GENOBJ-N-SEC_13
 70
     0
  0
APPID
  2
GENIUS_GENOBJ-N-CRS_13
 70
     0
  0
APPID
  2
GENIUS_GENOBJ-N-ZOO_13
 70
     0
  0
APPID
  2
GENIUS_GENZOO_13
 70
     0
  0
APPID
  2
GENIUS_GENOBJ-F-TOL_13
 70
     0
  0
APPID
  2
_CALL_MAC$
 70
     0
  0
ENDTAB
  0
TABLE
  2
DIMSTYLE
 70
     1
  0
DIMSTYLE
  2
STANDARD
 70
     0
  3

  4

  5

  6

  7

 40
1.0
 41
0.18
 42
0.0625
 43
0.38
 44
0.18
 45
0.0
 46
0.0
 47
0.0
 48
0.0
140
0.18
141
0.09
142
0.0
143
25.399999999999999
144
1.0
145
0.0
146
1.0
147
0.09
 71
     0
 72
     0
 73
     1
 74
     1
 75
     0
 76
     0
 77
     0
 78
     0
170
     0
171
     2
172
     0
173
     0
174
     0
175
     0
176
     0
177
     0
178
     0
  0
ENDTAB
  0
ENDSEC
  0
SECTION
  2
BLOCKS
  0
BLOCK
  8
0
  2
$MODEL_SPACE
 70
     0
 10
0.0
 20
0.0
 30
0.0
  3
$MODEL_SPACE
  1

  0
ENDBLK
  5
1CD3
  8
0
  0
BLOCK
 67
     1
  8
0
  2
$PAPER_SPACE
 70
     0
 10
0.0
 20
0.0
 30
0.0
  3
$PAPER_SPACE
  1

  0
ENDBLK
  5
1CD1
 67
     1
  8
0
  0
ENDSEC
  0
SECTION
  2
ENTITIES
  0
TEXT
  5
12011
  8
0
 62
     3
 10
0.0
 20
-0.0000000000000284
 30
0.0
 40
10.0
  1
EWN63A-SUS-LP
  7
STANDARD1
  0
LINE
  5
1EDDA
  8
1
 10
176.2499999999998
 20
56.600000000000023
 30
0.0
 11
176.2499999999998
 21
65.400000000000091
 31
0.0
  0
LINE
  5
1EECC
  8
1
 10
168.74999999999309
 20
51.5
 30
0.0
 11
168.74999999999309
 21
70.500000000000028
 31
0.0
  0
LINE
  5
1EECD
  8
1
 10
255.25000000000159
 20
61.000000000000277
 30
0.0
 11
128.4999999999998
 21
61.000000000000512
 31
0.0
  0
ARC
  5
1EECF
  8
0
 10
168.7499999999998
 20
61.0
 30
0.0
 40
8.0000000000000036
 50
184.48079878597929
 51
329.99999999999932
  0
ARC
  5
1EED0
  8
0
 10
168.7499999999998
 20
61.0
 30
0.0
 40
8.0000000000000053
 50
30.000000000000671
 51
175.51920121401491
  0
ARC
  5
1EED1
  8
0
 10
168.7499999999998
 20
61.0
 30
0.0
 40
7.0
 50
185.1225160997777
 51
325.15009542095322
  0
ARC
  5
1EED3
  8
0
 10
168.7499999999998
 20
61.0
 30
0.0
 40
7.0
 50
34.84990457904658
 51
174.87748390021571
  0
LINE
  5
1EEE3
  8
1
 10
140.9999999999998
 20
55.499960734994353
 30
0.0
 11
140.9999999999998
 21
93.500000000000284
 31
0.0
  0
ARC
  5
1EEE5
  8
0
 10
163.05178067341609
 20
61.000000000000398
 30
0.0
 40
0.625
 50
270.0
 51
90.0
  0
POLYLINE
  5
1EEE6
  8
0
 10
119.4058821529951
 20
74.64400287723889
 30
0.0
 66
     1
 70
     8
  0
VERTEX
  8
0
  5
1F781
 10
119.406
 20
74.6440
 30
0.000000
  70
    32
  0
VERTEX
  8
0
  5
1F782
 10
119.712
 20
74.6515
 30
0.000000
  70
    32
  0
VERTEX
  8
0
  5
1F783
 10
120.018
 20
74.6741
 30
0.000000
  70
    32
  0
VERTEX
  8
0
  5
1F784
 10
120.322
 20
74.7117
 30
0.000000
  70
    32
  0
VERTEX
  8
0
  5
1F785
 10
120.624
 20
74.7642
 30
0.000000
  70
    32
  0
VERTEX
  8
0
  5
1F786
 10
120.923
 20
74.8315
 30
0.000000
  70
    32
  0
VERTEX
  8
0
  5
1F787
 10
121.218
 20
74.9134
 30
0.000000
  70
    32
  0
VERTEX
  8
0
  5
1F788
 10
121.509
 20
75.0097
 30
0.000000
  70
    32
  0
VERTEX
  8
0
  5
1F789
 10
121.795
 20
75.1202
 30
0.000000
  70
    32
  0
VERTEX
  8
0
  5
1F78A
 10
122.075
 20
75.2446
 30
0.000000
  70
    32
  0
VERTEX
  8
0
  5
1F78B
 10
122.349
 20
75.3827
 30
0.000000
  70
    32
  0
VERTEX
  8
0
  5
1F78C
 10
122.615
 20
75.5341
 30
0.000000
  70
    32
  0
VERTEX
  8
0
  5
1F78D
 10
122.874
 20
75.6983
 30
0.000000
  70
    32
  0
VERTEX
  8
0
  5
1F78E
 10
123.125
 20
75.8751
 30
0.000000
  70
    32
  0
VERTEX
  8
0
  5
1F78F
 10
123.366
 20
76.0640
 30
0.000000
  70
    32
  0
VERTEX
  8
0
  5
1F790
 10
123.598
 20
76.2646
 30
0.000000
  70
    32
  0
VERTEX
  8
0
  5
1F791
 10
123.820
 20
76.4763
 30
0.000000
  70
    32
  0
VERTEX
  8
0
  5
1F792
 10
124.031
 20
76.6987
 30
0.000000
  70
    32
  0
VERTEX
  8
0
  5
1F793
 10
124.231
 20
76.9312
 30
0.000000
  70
    32
  0
VERTEX
  8
0
  5
1F794
 10
124.420
 20
77.1733
 30
0.000000
  70
    32
  0
VERTEX
  8
0
  5
1F795
 10
124.596
 20
77.4244
 30
0.000000
  70
    32
  0
VERTEX
  8
0
  5
1F796
 10
124.760
 20
77.6838
 30
0.000000
  70
    32
  0
VERTEX
  8
0
  5
1F797
 10
124.911
 20
77.9509
 30
0.000000
  70
    32
  0
VERTEX
  8
0
  5
1F798
 10
125.049
 20
78.2252
 30
0.000000
  70
    32
  0
VERTEX
  8
0
  5
1F799
 10
125.173
 20
78.5059
 30
0.000000
  70
    32
  0
VERTEX
  8
0
  5
1F79A
 10
125.284
 20
78.7924
 30
0.000000
  70
    32
  0
VERTEX
  8
0
  5
1F79B
 10
125.380
 20
79.0840
 30
0.000000
  70
    32
  0
VERTEX
  8
0
  5
1F79C
 10
125.461
 20
79.3799
 30
0.000000
  70
    32
  0
VERTEX
  8
0
  5
1F79D
 10
125.529
 20
79.6795
 30
0.000000
  70
    32
  0
VERTEX
  8
0
  5
1F79E
 10
125.581
 20
79.9821
 30
0.000000
  70
    32
  0
VERTEX
  8
0
  5
1F79F
 10
125.618
 20
80.2868
 30
0.000000
  70
    32
  0
VERTEX
  8
0
  5
1F7A0
 10
125.641
 20
80.5930
 30
0.000000
  70
    32
  0
VERTEX
  8
0
  5
1F7A1
 10
125.649
 20
80.9000
 30
0.000000
  70
    32
  0
VERTEX
  8
0
  5
1F7A2
 10
125.641
 20
81.2070
 30
0.000000
  70
    32
  0
VERTEX
  8
0
  5
1F7A3
 10
125.618
 20
81.5132
 30
0.000000
  70
    32
  0
VERTEX
  8
0
  5
1F7A4
 10
125.581
 20
81.8179
 30
0.000000
  70
    32
  0
VERTEX
  8
0
  5
1F7A5
 10
125.529
 20
82.1205
 30
0.000000
  70
    32
  0
VERTEX
  8
0
  5
1F7A6
 10
125.461
 20
82.4201
 30
0.000000
  70
    32
  0
VERTEX
  8
0
  5
1F7A7
 10
125.380
 20
82.7160
 30
0.000000
  70
    32
  0
VERTEX
  8
0
  5
1F7A8
 10
125.284
 20
83.0076
 30
0.000000
  70
    32
  0
VERTEX
  8
0
  5
1F7A9
 10
125.173
 20
83.2941
 30
0.000000
  70
    32
  0
VERTEX
  8
0
  5
1F7AA
 10
125.049
 20
83.5748
 30
0.000000
  70
    32
  0
VERTEX
  8
0
  5
1F7AB
 10
124.911
 20
83.8491
 30
0.000000
  70
    32
  0
VERTEX
  8
0
  5
1F7AC
 10
124.760
 20
84.1162
 30
0.000000
  70
    32
  0
VERTEX
  8
0
  5
1F7AD
 10
124.596
 20
84.3756
 30
0.000000
  70
    32
  0
VERTEX
  8
0
  5
1F7AE
 10
124.420
 20
84.6267
 30
0.000000
  70
    32
  0
VERTEX
  8
0
  5
1F7AF
 10
124.231
 20
84.8688
 30
0.000000
  70
    32
  0
VERTEX
  8
0
  5
1F7B0
 10
124.031
 20
85.1013
 30
0.000000
  70
    32
  0
VERTEX
  8
0
  5
1F7B1
 10
123.820
 20
85.3237
 30
0.000000
  70
    32
  0
VERTEX
  8
0
  5
1F7B2
 10
123.598
 20
85.5354
 30
0.000000
  70
    32
  0
VERTEX
  8
0
  5
1F7B3
 10
123.366
 20
85.7360
 30
0.000000
  70
    32
  0
VERTEX
  8
0
  5
1F7B4
 10
123.125
 20
85.9249
 30
0.000000
  70
    32
  0
VERTEX
  8
0
  5
1F7B5
 10
122.874
 20
86.1017
 30
0.000000
  70
    32
  0
VERTEX
  8
0
  5
1F7B6
 10
122.615
 20
86.2659
 30
0.000000
  70
    32
  0
VERTEX
  8
0
  5
1F7B7
 10
122.349
 20
86.4173
 30
0.000000
  70
    32
  0
VERTEX
  8
0
  5
1F7B8
 10
122.075
 20
86.5554
 30
0.000000
  70
    32
  0
VERTEX
  8
0
  5
1F7B9
 10
121.795
 20
86.6798
 30
0.000000
  70
    32
  0
VERTEX
  8
0
  5
1F7BA
 10
121.509
 20
86.7903
 30
0.000000
  70
    32
  0
VERTEX
  8
0
  5
1F7BB
 10
121.218
 20
86.8866
 30
0.000000
  70
    32
  0
VERTEX
  8
0
  5
1F7BC
 10
120.923
 20
86.9685
 30
0.000000
  70
    32
  0
VERTEX
  8
0
  5
1F7BD
 10
120.624
 20
87.0358
 30
0.000000
  70
    32
  0
VERTEX
  8
0
  5
1F7BE
 10
120.322
 20
87.0883
 30
0.000000
  70
    32
  0
VERTEX
  8
0
  5
1F7BF
 10
120.018
 20
87.1259
 30
0.000000
  70
    32
  0
VERTEX
  8
0
  5
1F7C0
 10
119.712
 20
87.1485
 30
0.000000
  70
    32
  0
VERTEX
  8
0
  5
1F7C1
 10
119.406
 20
87.1560
 30
0.000000
  70
    32
  0
VERTEX
  8
0
  5
1F7C2
 10
119.100
 20
87.1485
 30
0.000000
  70
    32
  0
VERTEX
  8
0
  5
1F7C3
 10
118.794
 20
87.1259
 30
0.000000
  70
    32
  0
VERTEX
  8
0
  5
1F7C4
 10
118.490
 20
87.0883
 30
0.000000
  70
    32
  0
VERTEX
  8
0
  5
1F7C5
 10
118.188
 20
87.0358
 30
0.000000
  70
    32
  0
VERTEX
  8
0
  5
1F7C6
 10
117.889
 20
86.9685
 30
0.000000
  70
    32
  0
VERTEX
  8
0
  5
1F7C7
 10
117.594
 20
86.8866
 30
0.000000
  70
    32
  0
VERTEX
  8
0
  5
1F7C8
 10
117.303
 20
86.7903
 30
0.000000
  70
    32
  0
VERTEX
  8
0
  5
1F7C9
 10
117.017
 20
86.6798
 30
0.000000
  70
    32
  0
VERTEX
  8
0
  5
1F7CA
 10
116.737
 20
86.5554
 30
0.000000
  70
    32
  0
VERTEX
  8
0
  5
1F7CB
 10
116.463
 20
86.4173
 30
0.000000
  70
    32
  0
VERTEX
  8
0
  5
1F7CC
 10
116.197
 20
86.2659
 30
0.000000
  70
    32
  0
VERTEX
  8
0
  5
1F7CD
 10
115.938
 20
86.1017
 30
0.000000
  70
    32
  0
VERTEX
  8
0
  5
1F7CE
 10
115.687
 20
85.9249
 30
0.000000
  70
    32
  0
VERTEX
  8
0
  5
1F7CF
 10
115.446
 20
85.7360
 30
0.000000
  70
    32
  0
VERTEX
  8
0
  5
1F7D0
 10
115.214
 20
85.5354
 30
0.000000
  70
    32
  0
VERTEX
  8
0
  5
1F7D1
 10
114.992
 20
85.3237
 30
0.000000
  70
    32
  0
VERTEX
  8
0
  5
1F7D2
 10
114.780
 20
85.1013
 30
0.000000
  70
    32
  0
VERTEX
  8
0
  5
1F7D3
 10
114.580
 20
84.8688
 30
0.000000
  70
    32
  0
VERTEX
  8
0
  5
1F7D4
 10
114.392
 20
84.6267
 30
0.000000
  70
    32
  0
VERTEX
  8
0
  5
1F7D5
 10
114.215
 20
84.3756
 30
0.000000
  70
    32
  0
VERTEX
  8
0
  5
1F7D6
 10
114.051
 20
84.1162
 30
0.000000
  70
    32
  0
VERTEX
  8
0
  5
1F7D7
 10
113.900
 20
83.8491
 30
0.000000
  70
    32
  0
VERTEX
  8
0
  5
1F7D8
 10
113.763
 20
83.5748
 30
0.000000
  70
    32
  0
VERTEX
  8
0
  5
1F7D9
 10
113.638
 20
83.2941
 30
0.000000
  70
    32
  0
VERTEX
  8
0
  5
1F7DA
 10
113.528
 20
83.0076
 30
0.000000
  70
    32
  0
VERTEX
  8
0
  5
1F7DB
 10
113.432
 20
82.7160
 30
0.000000
  70
    32
  0
VERTEX
  8
0
  5
1F7DC
 10
113.350
 20
82.4201
 30
0.000000
  70
    32
  0
VERTEX
  8
0
  5
1F7DD
 10
113.283
 20
82.1205
 30
0.000000
  70
    32
  0
VERTEX
  8
0
  5
1F7DE
 10
113.231
 20
81.8179
 30
0.000000
  70
    32
  0
VERTEX
  8
0
  5
1F7DF
 10
113.193
 20
81.5132
 30
0.000000
  70
    32
  0
VERTEX
  8
0
  5
1F7E0
 10
113.171
 20
81.2070
 30
0.000000
  70
    32
  0
VERTEX
  8
0
  5
1F7E1
 10
113.163
 20
80.9000
 30
0.000000
  70
    32
  0
VERTEX
  8
0
  5
1F7E2
 10
113.171
 20
80.5930
 30
0.000000
  70
    32
  0
VERTEX
  8
0
  5
1F7E3
 10
113.193
 20
80.2868
 30
0.000000
  70
    32
  0
VERTEX
  8
0
  5
1F7E4
 10
113.231
 20
79.9821
 30
0.000000
  70
    32
  0
VERTEX
  8
0
  5
1F7E5
 10
113.283
 20
79.6795
 30
0.000000
  70
    32
  0
VERTEX
  8
0
  5
1F7E6
 10
113.350
 20
79.3799
 30
0.000000
  70
    32
  0
VERTEX
  8
0
  5
1F7E7
 10
113.432
 20
79.0840
 30
0.000000
  70
    32
  0
VERTEX
  8
0
  5
1F7E8
 10
113.528
 20
78.7924
 30
0.000000
  70
    32
  0
VERTEX
  8
0
  5
1F7E9
 10
113.638
 20
78.5059
 30
0.000000
  70
    32
  0
VERTEX
  8
0
  5
1F7EA
 10
113.763
 20
78.2252
 30
0.000000
  70
    32
  0
VERTEX
  8
0
  5
1F7EB
 10
113.900
 20
77.9509
 30
0.000000
  70
    32
  0
VERTEX
  8
0
  5
1F7EC
 10
114.051
 20
77.6838
 30
0.000000
  70
    32
  0
VERTEX
  8
0
  5
1F7ED
 10
114.215
 20
77.4244
 30
0.000000
  70
    32
  0
VERTEX
  8
0
  5
1F7EE
 10
114.392
 20
77.1733
 30
0.000000
  70
    32
  0
VERTEX
  8
0
  5
1F7EF
 10
114.580
 20
76.9312
 30
0.000000
  70
    32
  0
VERTEX
  8
0
  5
1F7F0
 10
114.780
 20
76.6987
 30
0.000000
  70
    32
  0
VERTEX
  8
0
  5
1F7F1
 10
114.992
 20
76.4763
 30
0.000000
  70
    32
  0
VERTEX
  8
0
  5
1F7F2
 10
115.214
 20
76.2646
 30
0.000000
  70
    32
  0
VERTEX
  8
0
  5
1F7F3
 10
115.446
 20
76.0640
 30
0.000000
  70
    32
  0
VERTEX
  8
0
  5
1F7F4
 10
115.687
 20
75.8751
 30
0.000000
  70
    32
  0
VERTEX
  8
0
  5
1F7F5
 10
115.938
 20
75.6983
 30
0.000000
  70
    32
  0
VERTEX
  8
0
  5
1F7F6
 10
116.197
 20
75.5341
 30
0.000000
  70
    32
  0
VERTEX
  8
0
  5
1F7F7
 10
116.463
 20
75.3827
 30
0.000000
  70
    32
  0
VERTEX
  8
0
  5
1F7F8
 10
116.737
 20
75.2446
 30
0.000000
  70
    32
  0
VERTEX
  8
0
  5
1F7F9
 10
117.017
 20
75.1202
 30
0.000000
  70
    32
  0
VERTEX
  8
0
  5
1F7FA
 10
117.303
 20
75.0097
 30
0.000000
  70
    32
  0
VERTEX
  8
0
  5
1F7FB
 10
117.594
 20
74.9134
 30
0.000000
  70
    32
  0
VERTEX
  8
0
  5
1F7FC
 10
117.889
 20
74.8315
 30
0.000000
  70
    32
  0
VERTEX
  8
0
  5
1F7FD
 10
118.188
 20
74.7642
 30
0.000000
  70
    32
  0
VERTEX
  8
0
  5
1F7FE
 10
118.490
 20
74.7117
 30
0.000000
  70
    32
  0
VERTEX
  8
0
  5
1F7FF
 10
118.794
 20
74.6741
 30
0.000000
  70
    32
  0
VERTEX
  8
0
  5
1F800
 10
119.100
 20
74.6515
 30
0.000000
  70
    32
  0
VERTEX
  8
0
  5
1F801
 10
119.406
 20
74.6440
 30
0.000000
  70
    32
  0
SEQEND
  8
0
  5
1F802
  0
POLYLINE
  5
1EEE7
  8
0
 10
162.59411784700441
 20
74.644002877238876
 30
0.0
 66
     1
 70
     8
  0
VERTEX
  8
0
  5
1F803
 10
162.594
 20
74.6440
 30
0.000000
  70
    32
  0
VERTEX
  8
0
  5
1F804
 10
162.900
 20
74.6515
 30
0.000000
  70
    32
  0
VERTEX
  8
0
  5
1F805
 10
163.206
 20
74.6741
 30
0.000000
  70
    32
  0
VERTEX
  8
0
  5
1F806
 10
163.510
 20
74.7117
 30
0.000000
  70
    32
  0
VERTEX
  8
0
  5
1F807
 10
163.812
 20
74.7642
 30
0.000000
  70
    32
  0
VERTEX
  8
0
  5
1F808
 10
164.111
 20
74.8315
 30
0.000000
  70
    32
  0
VERTEX
  8
0
  5
1F809
 10
164.406
 20
74.9134
 30
0.000000
  70
    32
  0
VERTEX
  8
0
  5
1F80A
 10
164.697
 20
75.0097
 30
0.000000
  70
    32
  0
VERTEX
  8
0
  5
1F80B
 10
164.983
 20
75.1202
 30
0.000000
  70
    32
  0
VERTEX
  8
0
  5
1F80C
 10
165.263
 20
75.2446
 30
0.000000
  70
    32
  0
VERTEX
  8
0
  5
1F80D
 10
165.537
 20
75.3827
 30
0.000000
  70
    32
  0
VERTEX
  8
0
  5
1F80E
 10
165.803
 20
75.5341
 30
0.000000
  70
    32
  0
VERTEX
  8
0
  5
1F80F
 10
166.062
 20
75.6983
 30
0.000000
  70
    32
  0
VERTEX
  8
0
  5
1F810
 10
166.313
 20
75.8751
 30
0.000000
  70
    32
  0
VERTEX
  8
0
  5
1F811
 10
166.554
 20
76.0640
 30
0.000000
  70
    32
  0
VERTEX
  8
0
  5
1F812
 10
166.786
 20
76.2646
 30
0.000000
  70
    32
  0
VERTEX
  8
0
  5
1F813
 10
167.008
 20
76.4763
 30
0.000000
  70
    32
  0
VERTEX
  8
0
  5
1F814
 10
167.220
 20
76.6987
 30
0.000000
  70
    32
  0
VERTEX
  8
0
  5
1F815
 10
167.420
 20
76.9312
 30
0.000000
  70
    32
  0
VERTEX
  8
0
  5
1F816
 10
167.608
 20
77.1733
 30
0.000000
  70
    32
  0
VERTEX
  8
0
  5
1F817
 10
167.785
 20
77.4244
 30
0.000000
  70
    32
  0
VERTEX
  8
0
  5
1F818
 10
167.949
 20
77.6838
 30
0.000000
  70
    32
  0
VERTEX
  8
0
  5
1F819
 10
168.100
 20
77.9509
 30
0.000000
  70
    32
  0
VERTEX
  8
0
  5
1F81A
 10
168.237
 20
78.2252
 30
0.000000
  70
    32
  0
VERTEX
  8
0
  5
1F81B
 10
168.362
 20
78.5059
 30
0.000000
  70
    32
  0
VERTEX
  8
0
  5
1F81C
 10
168.472
 20
78.7924
 30
0.000000
  70
    32
  0
VERTEX
  8
0
  5
1F81D
 10
168.568
 20
79.0840
 30
0.000000
  70
    32
  0
VERTEX
  8
0
  5
1F81E
 10
168.650
 20
79.3799
 30
0.000000
  70
    32
  0
VERTEX
  8
0
  5
1F81F
 10
168.717
 20
79.6795
 30
0.000000
  70
    32
  0
VERTEX
  8
0
  5
1F820
 10
168.769
 20
79.9821
 30
0.000000
  70
    32
  0
VERTEX
  8
0
  5
1F821
 10
168.807
 20
80.2868
 30
0.000000
  70
    32
  0
VERTEX
  8
0
  5
1F822
 10
168.829
 20
80.5930
 30
0.000000
  70
    32
  0
VERTEX
  8
0
  5
1F823
 10
168.837
 20
80.9000
 30
0.000000
  70
    32
  0
VERTEX
  8
0
  5
1F824
 10
168.829
 20
81.2070
 30
0.000000
  70
    32
  0
VERTEX
  8
0
  5
1F825
 10
168.807
 20
81.5132
 30
0.000000
  70
    32
  0
VERTEX
  8
0
  5
1F826
 10
168.769
 20
81.8179
 30
0.000000
  70
    32
  0
VERTEX
  8
0
  5
1F827
 10
168.717
 20
82.1205
 30
0.000000
  70
    32
  0
VERTEX
  8
0
  5
1F828
 10
168.650
 20
82.4201
 30
0.000000
  70
    32
  0
VERTEX
  8
0
  5
1F829
 10
168.568
 20
82.7160
 30
0.000000
  70
    32
  0
VERTEX
  8
0
  5
1F82A
 10
168.472
 20
83.0076
 30
0.000000
  70
    32
  0
VERTEX
  8
0
  5
1F82B
 10
168.362
 20
83.2941
 30
0.000000
  70
    32
  0
VERTEX
  8
0
  5
1F82C
 10
168.237
 20
83.5748
 30
0.000000
  70
    32
  0
VERTEX
  8
0
  5
1F82D
 10
168.100
 20
83.8491
 30
0.000000
  70
    32
  0
VERTEX
  8
0
  5
1F82E
 10
167.949
 20
84.1162
 30
0.000000
  70
    32
  0
VERTEX
  8
0
  5
1F82F
 10
167.785
 20
84.3756
 30
0.000000
  70
    32
  0
VERTEX
  8
0
  5
1F830
 10
167.608
 20
84.6267
 30
0.000000
  70
    32
  0
VERTEX
  8
0
  5
1F831
 10
167.420
 20
84.8688
 30
0.000000
  70
    32
  0
VERTEX
  8
0
  5
1F832
 10
167.220
 20
85.1013
 30
0.000000
  70
    32
  0
VERTEX
  8
0
  5
1F833
 10
167.008
 20
85.3237
 30
0.000000
  70
    32
  0
VERTEX
  8
0
  5
1F834
 10
166.786
 20
85.5354
 30
0.000000
  70
    32
  0
VERTEX
  8
0
  5
1F835
 10
166.554
 20
85.7360
 30
0.000000
  70
    32
  0
VERTEX
  8
0
  5
1F836
 10
166.313
 20
85.9249
 30
0.000000
  70
    32
  0
VERTEX
  8
0
  5
1F837
 10
166.062
 20
86.1017
 30
0.000000
  70
    32
  0
VERTEX
  8
0
  5
1F838
 10
165.803
 20
86.2659
 30
0.000000
  70
    32
  0
VERTEX
  8
0
  5
1F839
 10
165.537
 20
86.4173
 30
0.000000
  70
    32
  0
VERTEX
  8
0
  5
1F83A
 10
165.263
 20
86.5554
 30
0.000000
  70
    32
  0
VERTEX
  8
0
  5
1F83B
 10
164.983
 20
86.6798
 30
0.000000
  70
    32
  0
VERTEX
  8
0
  5
1F83C
 10
164.697
 20
86.7903
 30
0.000000
  70
    32
  0
VERTEX
  8
0
  5
1F83D
 10
164.406
 20
86.8866
 30
0.000000
  70
    32
  0
VERTEX
  8
0
  5
1F83E
 10
164.111
 20
86.9685
 30
0.000000
  70
    32
  0
VERTEX
  8
0
  5
1F83F
 10
163.812
 20
87.0358
 30
0.000000
  70
    32
  0
VERTEX
  8
0
  5
1F840
 10
163.510
 20
87.0883
 30
0.000000
  70
    32
  0
VERTEX
  8
0
  5
1F841
 10
163.206
 20
87.1259
 30
0.000000
  70
    32
  0
VERTEX
  8
0
  5
1F842
 10
162.900
 20
87.1485
 30
0.000000
  70
    32
  0
VERTEX
  8
0
  5
1F843
 10
162.594
 20
87.1560
 30
0.000000
  70
    32
  0
VERTEX
  8
0
  5
1F844
 10
162.288
 20
87.1485
 30
0.000000
  70
    32
  0
VERTEX
  8
0
  5
1F845
 10
161.982
 20
87.1259
 30
0.000000
  70
    32
  0
VERTEX
  8
0
  5
1F846
 10
161.678
 20
87.0883
 30
0.000000
  70
    32
  0
VERTEX
  8
0
  5
1F847
 10
161.376
 20
87.0358
 30
0.000000
  70
    32
  0
VERTEX
  8
0
  5
1F848
 10
161.077
 20
86.9685
 30
0.000000
  70
    32
  0
VERTEX
  8
0
  5
1F849
 10
160.782
 20
86.8866
 30
0.000000
  70
    32
  0
VERTEX
  8
0
  5
1F84A
 10
160.491
 20
86.7903
 30
0.000000
  70
    32
  0
VERTEX
  8
0
  5
1F84B
 10
160.205
 20
86.6798
 30
0.000000
  70
    32
  0
VERTEX
  8
0
  5
1F84C
 10
159.925
 20
86.5554
 30
0.000000
  70
    32
  0
VERTEX
  8
0
  5
1F84D
 10
159.651
 20
86.4173
 30
0.000000
  70
    32
  0
VERTEX
  8
0
  5
1F84E
 10
159.385
 20
86.2659
 30
0.000000
  70
    32
  0
VERTEX
  8
0
  5
1F84F
 10
159.126
 20
86.1017
 30
0.000000
  70
    32
  0
VERTEX
  8
0
  5
1F850
 10
158.875
 20
85.9249
 30
0.000000
  70
    32
  0
VERTEX
  8
0
  5
1F851
 10
158.634
 20
85.7360
 30
0.000000
  70
    32
  0
VERTEX
  8
0
  5
1F852
 10
158.402
 20
85.5354
 30
0.000000
  70
    32
  0
VERTEX
  8
0
  5
1F853
 10
158.180
 20
85.3237
 30
0.000000
  70
    32
  0
VERTEX
  8
0
  5
1F854
 10
157.969
 20
85.1013
 30
0.000000
  70
    32
  0
VERTEX
  8
0
  5
1F855
 10
157.769
 20
84.8688
 30
0.000000
  70
    32
  0
VERTEX
  8
0
  5
1F856
 10
157.580
 20
84.6267
 30
0.000000
  70
    32
  0
VERTEX
  8
0
  5
1F857
 10
157.404
 20
84.3756
 30
0.000000
  70
    32
  0
VERTEX
  8
0
  5
1F858
 10
157.240
 20
84.1162
 30
0.000000
  70
    32
  0
VERTEX
  8
0
  5
1F859
 10
157.089
 20
83.8491
 30
0.000000
  70
    32
  0
VERTEX
  8
0
  5
1F85A
 10
156.951
 20
83.5748
 30
0.000000
  70
    32
  0
VERTEX
  8
0
  5
1F85B
 10
156.827
 20
83.2941
 30
0.000000
  70
    32
  0
VERTEX
  8
0
  5
1F85C
 10
156.716
 20
83.0076
 30
0.000000
  70
    32
  0
VERTEX
  8
0
  5
1F85D
 10
156.620
 20
82.7160
 30
0.000000
  70
    32
  0
VERTEX
  8
0
  5
1F85E
 10
156.539
 20
82.4201
 30
0.000000
  70
    32
  0
VERTEX
  8
0
  5
1F85F
 10
156.471
 20
82.1205
 30
0.000000
  70
    32
  0
VERTEX
  8
0
  5
1F860
 10
156.419
 20
81.8179
 30
0.000000
  70
    32
  0
VERTEX
  8
0
  5
1F861
 10
156.382
 20
81.5132
 30
0.000000
  70
    32
  0
VERTEX
  8
0
  5
1F862
 10
156.359
 20
81.2070
 30
0.000000
  70
    32
  0
VERTEX
  8
0
  5
1F863
 10
156.351
 20
80.9000
 30
0.000000
  70
    32
  0
VERTEX
  8
0
  5
1F864
 10
156.359
 20
80.5930
 30
0.000000
  70
    32
  0
VERTEX
  8
0
  5
1F865
 10
156.382
 20
80.2868
 30
0.000000
  70
    32
  0
VERTEX
  8
0
  5
1F866
 10
156.419
 20
79.9821
 30
0.000000
  70
    32
  0
VERTEX
  8
0
  5
1F867
 10
156.471
 20
79.6795
 30
0.000000
  70
    32
  0
VERTEX
  8
0
  5
1F868
 10
156.539
 20
79.3799
 30
0.000000
  70
    32
  0
VERTEX
  8
0
  5
1F869
 10
156.620
 20
79.0840
 30
0.000000
  70
    32
  0
VERTEX
  8
0
  5
1F86A
 10
156.716
 20
78.7924
 30
0.000000
  70
    32
  0
VERTEX
  8
0
  5
1F86B
 10
156.827
 20
78.5059
 30
0.000000
  70
    32
  0
VERTEX
  8
0
  5
1F86C
 10
156.951
 20
78.2252
 30
0.000000
  70
    32
  0
VERTEX
  8
0
  5
1F86D
 10
157.089
 20
77.9509
 30
0.000000
  70
    32
  0
VERTEX
  8
0
  5
1F86E
 10
157.240
 20
77.6838
 30
0.000000
  70
    32
  0
VERTEX
  8
0
  5
1F86F
 10
157.404
 20
77.4244
 30
0.000000
  70
    32
  0
VERTEX
  8
0
  5
1F870
 10
157.580
 20
77.1733
 30
0.000000
  70
    32
  0
VERTEX
  8
0
  5
1F871
 10
157.769
 20
76.9312
 30
0.000000
  70
    32
  0
VERTEX
  8
0
  5
1F872
 10
157.969
 20
76.6987
 30
0.000000
  70
    32
  0
VERTEX
  8
0
  5
1F873
 10
158.180
 20
76.4763
 30
0.000000
  70
    32
  0
VERTEX
  8
0
  5
1F874
 10
158.402
 20
76.2646
 30
0.000000
  70
    32
  0
VERTEX
  8
0
  5
1F875
 10
158.634
 20
76.0640
 30
0.000000
  70
    32
  0
VERTEX
  8
0
  5
1F876
 10
158.875
 20
75.8751
 30
0.000000
  70
    32
  0
VERTEX
  8
0
  5
1F877
 10
159.126
 20
75.6983
 30
0.000000
  70
    32
  0
VERTEX
  8
0
  5
1F878
 10
159.385
 20
75.5341
 30
0.000000
  70
    32
  0
VERTEX
  8
0
  5
1F879
 10
159.651
 20
75.3827
 30
0.000000
  70
    32
  0
VERTEX
  8
0
  5
1F87A
 10
159.925
 20
75.2446
 30
0.000000
  70
    32
  0
VERTEX
  8
0
  5
1F87B
 10
160.205
 20
75.1202
 30
0.000000
  70
    32
  0
VERTEX
  8
0
  5
1F87C
 10
160.491
 20
75.0097
 30
0.000000
  70
    32
  0
VERTEX
  8
0
  5
1F87D
 10
160.782
 20
74.9134
 30
0.000000
  70
    32
  0
VERTEX
  8
0
  5
1F87E
 10
161.077
 20
74.8315
 30
0.000000
  70
    32
  0
VERTEX
  8
0
  5
1F87F
 10
161.376
 20
74.7642
 30
0.000000
  70
    32
  0
VERTEX
  8
0
  5
1F880
 10
161.678
 20
74.7117
 30
0.000000
  70
    32
  0
VERTEX
  8
0
  5
1F881
 10
161.982
 20
74.6741
 30
0.000000
  70
    32
  0
VERTEX
  8
0
  5
1F882
 10
162.288
 20
74.6515
 30
0.000000
  70
    32
  0
VERTEX
  8
0
  5
1F883
 10
162.594
 20
74.6440
 30
0.000000
  70
    32
  0
SEQEND
  8
0
  5
1F884
  0
LINE
  5
1EEE8
  8
0
 10
162.89999999999941
 20
90.500000000000284
 30
0.0
 11
162.53618967719751
 21
90.500000000000284
 31
0.0
  0
ARC
  5
1EEE9
  8
0
 10
162.89999999999941
 20
80.900000000000261
 30
0.0
 40
9.6000000000000014
 50
290.54711163620237
 51
90.0
  0
POLYLINE
  5
1EEEA
  8
0
 66
     1
 10
0.0
 20
0.0
 30
0.0
  0
VERTEX
  5
1F548
  8
0
 10
162.5212525299917
 20
90.499987972070286
 30
0.0
  0
VERTEX
  5
1F549
  8
0
 10
162.31761804685431
 20
90.497527746841854
 30
0.0
  0
VERTEX
  5
1F54A
  8
0
 10
161.51433676266041
 20
90.445919449268615
 30
0.0
  0
VERTEX
  5
1F54B
  8
0
 10
160.7180418805238
 20
90.328060492592329
 30
0.0
  0
VERTEX
  5
1F54C
  8
0
 10
159.9119165276698
 20
90.138389103771203
 30
0.0
  0
VERTEX
  5
1F54D
  8
0
 10
159.12470956182921
 20
89.880996438476984
 30
0.0
  0
VERTEX
  5
1F54E
  8
0
 10
158.87212485686271
 20
89.782300001394503
 30
0.0
  0
SEQEND
  5
1F54F
  8
0
  0
POLYLINE
  5
1EEEB
  8
0
 66
     1
 10
0.0
 20
0.0
 30
0.0
  0
VERTEX
  5
1F550
  8
0
 10
123.12787514313681
 20
89.782300001394503
 30
0.0
  0
VERTEX
  5
1F551
  8
0
 10
122.45339471289969
 20
90.028147606227023
 30
0.0
  0
VERTEX
  5
1F552
  8
0
 10
121.7627264993391
 20
90.22371404932295
 30
0.0
  0
VERTEX
  5
1F553
  8
0
 10
121.04359092395821
 20
90.370408296440075
 30
0.0
  0
VERTEX
  5
1F554
  8
0
 10
120.31548575446109
 20
90.462495195520376
 30
0.0
  0
VERTEX
  5
1F555
  8
0
 10
119.5059910373712
 20
90.499847993936953
 30
0.0
  0
VERTEX
  5
1F556
  8
0
 10
119.4768317500827
 20
90.499990800944886
 30
0.0
  0
SEQEND
  5
1F557
  8
0
  0
LINE
  5
1EEEC
  8
0
 10
119.4637842218452
 20
90.500000000000284
 30
0.0
 11
119.09999999999999
 21
90.500000000000284
 31
0.0
  0
ARC
  5
1EEED
  8
0
 10
119.09999999999999
 20
80.900000000000261
 30
0.0
 40
9.6000000000000032
 50
90.0
 51
249.4528883637976
  0
ARC
  5
1EEEE
  8
0
 10
133.58725783871509
 20
135.11322166442531
 30
0.0
 40
71.152500000000202
 50
283.7506604802175
 51
297.34356279218463
  0
ARC
  5
1EEEF
  8
0
 10
148.4127421612846
 20
135.11322166442591
 30
0.0
 40
71.152500000000828
 50
242.6564372078154
 51
256.2493395197825
  0
LINE
  5
1EEF0
  8
0
 10
141.7499999999998
 20
90.473290157009103
 30
0.0
 11
140.2499999999998
 21
90.473290157009103
 31
0.0
  0
ARC
  5
1EEF1
  8
0
 10
140.9999999993874
 20
79.956819055064983
 30
0.0
 40
10.5431809449097
 50
94.079239422796846
 51
97.591524542555632
  0
ARC
  5
1EEF2
  8
0
 10
140.99999992929031
 20
79.956819257341706
 30
0.0
 40
10.54318073106711
 50
105.92517779307531
 51
109.5941603821199
  0
ARC
  5
1EEF3
  8
0
 10
140.9999999747792
 20
79.95681908194679
 30
0.0
 40
10.54318090975266
 50
118.53057143966259
 51
129.33986605595379
  0
ARC
  5
1EEF4
  8
0
 10
141.0000000352336
 20
79.956819095415256
 30
0.0
 40
10.54318089298857
 50
50.660133939733129
 51
61.469428585661333
  0
ARC
  5
1EEF5
  8
0
 10
141.00000000649371
 20
79.95681906725207
 30
0.0
 40
10.54318093168405
 50
70.405839635162422
 51
74.074822138956662
  0
ARC
  5
1EEF6
  8
0
 10
141.0000000229378
 20
79.956819311841699
 30
0.0
 40
10.54318068719529
 50
82.408475374777325
 51
85.920760598957699
  0
LINE
  5
1EEF7
  8
0
 10
135.9642857302631
 20
89.219661288491764
 30
0.0
 11
137.46428572422599
 21
89.88946165435226
 31
0.0
  0
LINE
  5
1EEF8
  8
0
 10
139.60714285705089
 20
90.407590003571556
 30
0.0
 11
138.10714286028701
 21
90.095361455619638
 31
0.0
  0
LINE
  5
1EEF9
  8
0
 10
144.53571427544239
 20
89.889461654495051
 30
0.0
 11
146.03571426764859
 21
89.219661289457633
 31
0.0
  0
LINE
  5
1EEFA
  8
0
 10
143.8928571425696
 20
90.095361455015734
 30
0.0
 11
142.39285714630631
 21
90.407590002883069
 31
0.0
  0
ARC
  5
1EEFB
  8
0
 10
150.15284090909071
 20
61.000000000000398
 30
0.0
 40
0.7528409090909281
 50
105.6305870935368
 51
123.8818751974925
  0
ARC
  5
1EEFC
  8
0
 10
150.15284090909071
 20
61.000000000000398
 30
0.0
 40
0.7528409090908558
 50
236.1181248025072
 51
254.3694129064632
  0
ARC
  5
1EEFD
  8
0
 10
131.8471590909088
 20
61.000000000000398
 30
0.0
 40
0.7528409090909274
 50
56.118124802507161
 51
74.369412906463225
  0
ARC
  5
1EEFE
  8
0
 10
131.84715909090889
 20
61.000000000000398
 30
0.0
 40
0.7528409090908547
 50
285.6305870935368
 51
303.88187519749289
  0
LINE
  5
1EEFF
  8
0
 10
150.4999999999998
 20
58.500000000000398
 30
0.0
 11
150.4999999999998
 21
60.275000000000382
 31
0.0
  0
LINE
  5
1EF00
  8
0
 10
131.4999999999998
 20
60.275000000000382
 30
0.0
 11
131.4999999999998
 21
58.500000000000398
 31
0.0
  0
LINE
  5
1EF01
  8
0
 10
131.4999999999998
 20
58.500000000000398
 30
0.0
 11
150.4999999999998
 21
58.500000000000398
 31
0.0
  0
LINE
  5
1EF02
  8
0
 10
131.4999999999998
 20
60.275000000000382
 30
0.0
 11
150.4999999999998
 21
60.275000000000382
 31
0.0
  0
POLYLINE
  5
1EF03
  8
0
 10
123.12787514313683
 20
89.782300001394574
 30
0.0
 66
     1
 70
     8
  0
VERTEX
  8
0
  5
1F885
 10
123.128
 20
89.7823
 30
0.000000
  70
    32
  0
VERTEX
  8
0
  5
1F886
 10
123.178
 20
89.7696
 30
0.000000
  70
    32
  0
VERTEX
  8
0
  5
1F887
 10
123.228
 20
89.7570
 30
0.000000
  70
    32
  0
VERTEX
  8
0
  5
1F888
 10
123.279
 20
89.7444
 30
0.000000
  70
    32
  0
VERTEX
  8
0
  5
1F889
 10
123.329
 20
89.7319
 30
0.000000
  70
    32
  0
VERTEX
  8
0
  5
1F88A
 10
123.379
 20
89.7194
 30
0.000000
  70
    32
  0
VERTEX
  8
0
  5
1F88B
 10
123.430
 20
89.7069
 30
0.000000
  70
    32
  0
VERTEX
  8
0
  5
1F88C
 10
123.480
 20
89.6944
 30
0.000000
  70
    32
  0
VERTEX
  8
0
  5
1F88D
 10
123.530
 20
89.6820
 30
0.000000
  70
    32
  0
VERTEX
  8
0
  5
1F88E
 10
123.581
 20
89.6697
 30
0.000000
  70
    32
  0
VERTEX
  8
0
  5
1F88F
 10
123.631
 20
89.6573
 30
0.000000
  70
    32
  0
VERTEX
  8
0
  5
1F890
 10
123.682
 20
89.6450
 30
0.000000
  70
    32
  0
VERTEX
  8
0
  5
1F891
 10
123.732
 20
89.6328
 30
0.000000
  70
    32
  0
VERTEX
  8
0
  5
1F892
 10
123.782
 20
89.6205
 30
0.000000
  70
    32
  0
VERTEX
  8
0
  5
1F893
 10
123.833
 20
89.6083
 30
0.000000
  70
    32
  0
VERTEX
  8
0
  5
1F894
 10
123.883
 20
89.5962
 30
0.000000
  70
    32
  0
VERTEX
  8
0
  5
1F895
 10
123.934
 20
89.5840
 30
0.000000
  70
    32
  0
VERTEX
  8
0
  5
1F896
 10
123.984
 20
89.5720
 30
0.000000
  70
    32
  0
VERTEX
  8
0
  5
1F897
 10
124.035
 20
89.5599
 30
0.000000
  70
    32
  0
VERTEX
  8
0
  5
1F898
 10
124.085
 20
89.5479
 30
0.000000
  70
    32
  0
VERTEX
  8
0
  5
1F899
 10
124.135
 20
89.5359
 30
0.000000
  70
    32
  0
VERTEX
  8
0
  5
1F89A
 10
124.186
 20
89.5239
 30
0.000000
  70
    32
  0
VERTEX
  8
0
  5
1F89B
 10
124.236
 20
89.5120
 30
0.000000
  70
    32
  0
VERTEX
  8
0
  5
1F89C
 10
124.287
 20
89.5002
 30
0.000000
  70
    32
  0
VERTEX
  8
0
  5
1F89D
 10
124.337
 20
89.4883
 30
0.000000
  70
    32
  0
VERTEX
  8
0
  5
1F89E
 10
124.388
 20
89.4765
 30
0.000000
  70
    32
  0
VERTEX
  8
0
  5
1F89F
 10
124.438
 20
89.4647
 30
0.000000
  70
    32
  0
VERTEX
  8
0
  5
1F8A0
 10
124.489
 20
89.4530
 30
0.000000
  70
    32
  0
VERTEX
  8
0
  5
1F8A1
 10
124.539
 20
89.4413
 30
0.000000
  70
    32
  0
VERTEX
  8
0
  5
1F8A2
 10
124.590
 20
89.4296
 30
0.000000
  70
    32
  0
VERTEX
  8
0
  5
1F8A3
 10
124.641
 20
89.4180
 30
0.000000
  70
    32
  0
VERTEX
  8
0
  5
1F8A4
 10
124.691
 20
89.4064
 30
0.000000
  70
    32
  0
VERTEX
  8
0
  5
1F8A5
 10
124.742
 20
89.3949
 30
0.000000
  70
    32
  0
VERTEX
  8
0
  5
1F8A6
 10
124.792
 20
89.3833
 30
0.000000
  70
    32
  0
VERTEX
  8
0
  5
1F8A7
 10
124.843
 20
89.3718
 30
0.000000
  70
    32
  0
VERTEX
  8
0
  5
1F8A8
 10
124.893
 20
89.3604
 30
0.000000
  70
    32
  0
VERTEX
  8
0
  5
1F8A9
 10
124.944
 20
89.3490
 30
0.000000
  70
    32
  0
VERTEX
  8
0
  5
1F8AA
 10
124.995
 20
89.3376
 30
0.000000
  70
    32
  0
VERTEX
  8
0
  5
1F8AB
 10
125.045
 20
89.3263
 30
0.000000
  70
    32
  0
VERTEX
  8
0
  5
1F8AC
 10
125.096
 20
89.3149
 30
0.000000
  70
    32
  0
VERTEX
  8
0
  5
1F8AD
 10
125.146
 20
89.3037
 30
0.000000
  70
    32
  0
VERTEX
  8
0
  5
1F8AE
 10
125.197
 20
89.2924
 30
0.000000
  70
    32
  0
VERTEX
  8
0
  5
1F8AF
 10
125.248
 20
89.2812
 30
0.000000
  70
    32
  0
VERTEX
  8
0
  5
1F8B0
 10
125.298
 20
89.2701
 30
0.000000
  70
    32
  0
VERTEX
  8
0
  5
1F8B1
 10
125.349
 20
89.2589
 30
0.000000
  70
    32
  0
VERTEX
  8
0
  5
1F8B2
 10
125.400
 20
89.2478
 30
0.000000
  70
    32
  0
VERTEX
  8
0
  5
1F8B3
 10
125.450
 20
89.2368
 30
0.000000
  70
    32
  0
VERTEX
  8
0
  5
1F8B4
 10
125.501
 20
89.2257
 30
0.000000
  70
    32
  0
VERTEX
  8
0
  5
1F8B5
 10
125.552
 20
89.2148
 30
0.000000
  70
    32
  0
VERTEX
  8
0
  5
1F8B6
 10
125.602
 20
89.2038
 30
0.000000
  70
    32
  0
VERTEX
  8
0
  5
1F8B7
 10
125.653
 20
89.1929
 30
0.000000
  70
    32
  0
VERTEX
  8
0
  5
1F8B8
 10
125.704
 20
89.1820
 30
0.000000
  70
    32
  0
VERTEX
  8
0
  5
1F8B9
 10
125.754
 20
89.1712
 30
0.000000
  70
    32
  0
VERTEX
  8
0
  5
1F8BA
 10
125.805
 20
89.1603
 30
0.000000
  70
    32
  0
VERTEX
  8
0
  5
1F8BB
 10
125.856
 20
89.1496
 30
0.000000
  70
    32
  0
VERTEX
  8
0
  5
1F8BC
 10
125.907
 20
89.1388
 30
0.000000
  70
    32
  0
VERTEX
  8
0
  5
1F8BD
 10
125.957
 20
89.1281
 30
0.000000
  70
    32
  0
VERTEX
  8
0
  5
1F8BE
 10
126.008
 20
89.1175
 30
0.000000
  70
    32
  0
VERTEX
  8
0
  5
1F8BF
 10
126.059
 20
89.1068
 30
0.000000
  70
    32
  0
VERTEX
  8
0
  5
1F8C0
 10
126.110
 20
89.0962
 30
0.000000
  70
    32
  0
VERTEX
  8
0
  5
1F8C1
 10
126.160
 20
89.0857
 30
0.000000
  70
    32
  0
VERTEX
  8
0
  5
1F8C2
 10
126.211
 20
89.0751
 30
0.000000
  70
    32
  0
VERTEX
  8
0
  5
1F8C3
 10
126.262
 20
89.0647
 30
0.000000
  70
    32
  0
VERTEX
  8
0
  5
1F8C4
 10
126.313
 20
89.0542
 30
0.000000
  70
    32
  0
VERTEX
  8
0
  5
1F8C5
 10
126.364
 20
89.0438
 30
0.000000
  70
    32
  0
VERTEX
  8
0
  5
1F8C6
 10
126.414
 20
89.0334
 30
0.000000
  70
    32
  0
VERTEX
  8
0
  5
1F8C7
 10
126.465
 20
89.0231
 30
0.000000
  70
    32
  0
VERTEX
  8
0
  5
1F8C8
 10
126.516
 20
89.0127
 30
0.000000
  70
    32
  0
VERTEX
  8
0
  5
1F8C9
 10
126.567
 20
89.0025
 30
0.000000
  70
    32
  0
VERTEX
  8
0
  5
1F8CA
 10
126.618
 20
88.9922
 30
0.000000
  70
    32
  0
VERTEX
  8
0
  5
1F8CB
 10
126.669
 20
88.9820
 30
0.000000
  70
    32
  0
VERTEX
  8
0
  5
1F8CC
 10
126.719
 20
88.9719
 30
0.000000
  70
    32
  0
VERTEX
  8
0
  5
1F8CD
 10
126.770
 20
88.9617
 30
0.000000
  70
    32
  0
VERTEX
  8
0
  5
1F8CE
 10
126.821
 20
88.9516
 30
0.000000
  70
    32
  0
VERTEX
  8
0
  5
1F8CF
 10
126.872
 20
88.9416
 30
0.000000
  70
    32
  0
VERTEX
  8
0
  5
1F8D0
 10
126.923
 20
88.9315
 30
0.000000
  70
    32
  0
VERTEX
  8
0
  5
1F8D1
 10
126.974
 20
88.9215
 30
0.000000
  70
    32
  0
VERTEX
  8
0
  5
1F8D2
 10
127.025
 20
88.9116
 30
0.000000
  70
    32
  0
VERTEX
  8
0
  5
1F8D3
 10
127.076
 20
88.9017
 30
0.000000
  70
    32
  0
VERTEX
  8
0
  5
1F8D4
 10
127.127
 20
88.8918
 30
0.000000
  70
    32
  0
VERTEX
  8
0
  5
1F8D5
 10
127.178
 20
88.8819
 30
0.000000
  70
    32
  0
VERTEX
  8
0
  5
1F8D6
 10
127.228
 20
88.8721
 30
0.000000
  70
    32
  0
VERTEX
  8
0
  5
1F8D7
 10
127.279
 20
88.8624
 30
0.000000
  70
    32
  0
VERTEX
  8
0
  5
1F8D8
 10
127.330
 20
88.8526
 30
0.000000
  70
    32
  0
VERTEX
  8
0
  5
1F8D9
 10
127.381
 20
88.8429
 30
0.000000
  70
    32
  0
VERTEX
  8
0
  5
1F8DA
 10
127.432
 20
88.8332
 30
0.000000
  70
    32
  0
VERTEX
  8
0
  5
1F8DB
 10
127.483
 20
88.8236
 30
0.000000
  70
    32
  0
VERTEX
  8
0
  5
1F8DC
 10
127.534
 20
88.8140
 30
0.000000
  70
    32
  0
VERTEX
  8
0
  5
1F8DD
 10
127.585
 20
88.8045
 30
0.000000
  70
    32
  0
VERTEX
  8
0
  5
1F8DE
 10
127.636
 20
88.7949
 30
0.000000
  70
    32
  0
VERTEX
  8
0
  5
1F8DF
 10
127.687
 20
88.7854
 30
0.000000
  70
    32
  0
VERTEX
  8
0
  5
1F8E0
 10
127.738
 20
88.7760
 30
0.000000
  70
    32
  0
VERTEX
  8
0
  5
1F8E1
 10
127.789
 20
88.7666
 30
0.000000
  70
    32
  0
VERTEX
  8
0
  5
1F8E2
 10
127.840
 20
88.7572
 30
0.000000
  70
    32
  0
VERTEX
  8
0
  5
1F8E3
 10
127.891
 20
88.7478
 30
0.000000
  70
    32
  0
VERTEX
  8
0
  5
1F8E4
 10
127.942
 20
88.7385
 30
0.000000
  70
    32
  0
VERTEX
  8
0
  5
1F8E5
 10
127.993
 20
88.7293
 30
0.000000
  70
    32
  0
VERTEX
  8
0
  5
1F8E6
 10
128.044
 20
88.7200
 30
0.000000
  70
    32
  0
VERTEX
  8
0
  5
1F8E7
 10
128.095
 20
88.7108
 30
0.000000
  70
    32
  0
VERTEX
  8
0
  5
1F8E8
 10
128.146
 20
88.7017
 30
0.000000
  70
    32
  0
VERTEX
  8
0
  5
1F8E9
 10
128.197
 20
88.6925
 30
0.000000
  70
    32
  0
VERTEX
  8
0
  5
1F8EA
 10
128.248
 20
88.6834
 30
0.000000
  70
    32
  0
VERTEX
  8
0
  5
1F8EB
 10
128.299
 20
88.6744
 30
0.000000
  70
    32
  0
VERTEX
  8
0
  5
1F8EC
 10
128.350
 20
88.6654
 30
0.000000
  70
    32
  0
VERTEX
  8
0
  5
1F8ED
 10
128.402
 20
88.6564
 30
0.000000
  70
    32
  0
VERTEX
  8
0
  5
1F8EE
 10
128.453
 20
88.6474
 30
0.000000
  70
    32
  0
VERTEX
  8
0
  5
1F8EF
 10
128.504
 20
88.6385
 30
0.000000
  70
    32
  0
VERTEX
  8
0
  5
1F8F0
 10
128.555
 20
88.6296
 30
0.000000
  70
    32
  0
VERTEX
  8
0
  5
1F8F1
 10
128.606
 20
88.6208
 30
0.000000
  70
    32
  0
VERTEX
  8
0
  5
1F8F2
 10
128.657
 20
88.6120
 30
0.000000
  70
    32
  0
VERTEX
  8
0
  5
1F8F3
 10
128.708
 20
88.6032
 30
0.000000
  70
    32
  0
VERTEX
  8
0
  5
1F8F4
 10
128.759
 20
88.5945
 30
0.000000
  70
    32
  0
VERTEX
  8
0
  5
1F8F5
 10
128.810
 20
88.5858
 30
0.000000
  70
    32
  0
VERTEX
  8
0
  5
1F8F6
 10
128.862
 20
88.5771
 30
0.000000
  70
    32
  0
VERTEX
  8
0
  5
1F8F7
 10
128.913
 20
88.5685
 30
0.000000
  70
    32
  0
VERTEX
  8
0
  5
1F8F8
 10
128.964
 20
88.5599
 30
0.000000
  70
    32
  0
VERTEX
  8
0
  5
1F8F9
 10
129.015
 20
88.5513
 30
0.000000
  70
    32
  0
VERTEX
  8
0
  5
1F8FA
 10
129.066
 20
88.5428
 30
0.000000
  70
    32
  0
VERTEX
  8
0
  5
1F8FB
 10
129.117
 20
88.5343
 30
0.000000
  70
    32
  0
VERTEX
  8
0
  5
1F8FC
 10
129.168
 20
88.5259
 30
0.000000
  70
    32
  0
VERTEX
  8
0
  5
1F8FD
 10
129.220
 20
88.5175
 30
0.000000
  70
    32
  0
VERTEX
  8
0
  5
1F8FE
 10
129.271
 20
88.5091
 30
0.000000
  70
    32
  0
VERTEX
  8
0
  5
1F8FF
 10
129.322
 20
88.5007
 30
0.000000
  70
    32
  0
VERTEX
  8
0
  5
1F900
 10
129.373
 20
88.4924
 30
0.000000
  70
    32
  0
VERTEX
  8
0
  5
1F901
 10
129.424
 20
88.4842
 30
0.000000
  70
    32
  0
VERTEX
  8
0
  5
1F902
 10
129.476
 20
88.4759
 30
0.000000
  70
    32
  0
VERTEX
  8
0
  5
1F903
 10
129.527
 20
88.4677
 30
0.000000
  70
    32
  0
VERTEX
  8
0
  5
1F904
 10
129.578
 20
88.4596
 30
0.000000
  70
    32
  0
VERTEX
  8
0
  5
1F905
 10
129.629
 20
88.4515
 30
0.000000
  70
    32
  0
SEQEND
  8
0
  5
1F906
  0
POLYLINE
  5
1EF04
  8
0
 66
     1
 10
0.0
 20
0.0
 30
0.0
  0
VERTEX
  5
1F558
  8
0
 10
132.92462300389639
 20
88.110908026840036
 30
0.0
  0
VERTEX
  5
1F559
  8
0
 10
132.56733310594001
 20
88.119857845682816
 30
0.0
  0
VERTEX
  5
1F55A
  8
0
 10
132.136050296539
 20
88.146183369830794
 30
0.0
  0
VERTEX
  5
1F55B
  8
0
 10
131.64238994215569
 20
88.189327093302779
 30
0.0
  0
VERTEX
  5
1F55C
  8
0
 10
131.10124160589589
 20
88.247792103913696
 30
0.0
  0
VERTEX
  5
1F55D
  8
0
 10
130.52344352539041
 20
88.320616315497475
 30
0.0
  0
VERTEX
  5
1F55E
  8
0
 10
129.92903343746141
 20
88.405203999297285
 30
0.0
  0
VERTEX
  5
1F55F
  8
0
 10
129.62922708756011
 20
88.451455790994316
 30
0.0
  0
SEQEND
  5
1F560
  8
0
  0
POLYLINE
  5
1EF05
  8
0
 66
     1
 10
0.0
 20
0.0
 30
0.0
  0
VERTEX
  5
1F561
  8
0
 10
152.37077291243941
 20
88.451455790994217
 30
0.0
  0
VERTEX
  5
1F562
  8
0
 10
151.76536315893691
 20
88.360546191617416
 30
0.0
  0
VERTEX
  5
1F563
  8
0
 10
151.16890300472861
 20
88.280602583380116
 30
0.0
  0
VERTEX
  5
1F564
  8
0
 10
150.59820776366641
 20
88.214064005351077
 30
0.0
  0
VERTEX
  5
1F565
  8
0
 10
150.070034160771
 20
88.162787576396966
 30
0.0
  0
VERTEX
  5
1F566
  8
0
 10
149.6057327676823
 20
88.128858221376447
 30
0.0
  0
VERTEX
  5
1F567
  8
0
 10
149.2119305755993
 20
88.112403016136511
 30
0.0
  0
VERTEX
  5
1F568
  8
0
 10
149.07537706973071
 20
88.110908026839923
 30
0.0
  0
SEQEND
  5
1F569
  8
0
  0
POLYLINE
  5
1EF06
  8
0
 10
152.37077291243943
 20
88.451455790994302
 30
0.0
 66
     1
 70
     8
  0
VERTEX
  8
0
  5
1F907
 10
152.371
 20
88.4515
 30
0.000000
  70
    32
  0
VERTEX
  8
0
  5
1F908
 10
152.422
 20
88.4596
 30
0.000000
  70
    32
  0
VERTEX
  8
0
  5
1F909
 10
152.473
 20
88.4677
 30
0.000000
  70
    32
  0
VERTEX
  8
0
  5
1F90A
 10
152.524
 20
88.4759
 30
0.000000
  70
    32
  0
VERTEX
  8
0
  5
1F90B
 10
152.576
 20
88.4842
 30
0.000000
  70
    32
  0
VERTEX
  8
0
  5
1F90C
 10
152.627
 20
88.4924
 30
0.000000
  70
    32
  0
VERTEX
  8
0
  5
1F90D
 10
152.678
 20
88.5007
 30
0.000000
  70
    32
  0
VERTEX
  8
0
  5
1F90E
 10
152.729
 20
88.5091
 30
0.000000
  70
    32
  0
VERTEX
  8
0
  5
1F90F
 10
152.780
 20
88.5175
 30
0.000000
  70
    32
  0
VERTEX
  8
0
  5
1F910
 10
152.832
 20
88.5259
 30
0.000000
  70
    32
  0
VERTEX
  8
0
  5
1F911
 10
152.883
 20
88.5343
 30
0.000000
  70
    32
  0
VERTEX
  8
0
  5
1F912
 10
152.934
 20
88.5428
 30
0.000000
  70
    32
  0
VERTEX
  8
0
  5
1F913
 10
152.985
 20
88.5513
 30
0.000000
  70
    32
  0
VERTEX
  8
0
  5
1F914
 10
153.036
 20
88.5599
 30
0.000000
  70
    32
  0
VERTEX
  8
0
  5
1F915
 10
153.087
 20
88.5685
 30
0.000000
  70
    32
  0
VERTEX
  8
0
  5
1F916
 10
153.138
 20
88.5771
 30
0.000000
  70
    32
  0
VERTEX
  8
0
  5
1F917
 10
153.190
 20
88.5858
 30
0.000000
  70
    32
  0
VERTEX
  8
0
  5
1F918
 10
153.241
 20
88.5945
 30
0.000000
  70
    32
  0
VERTEX
  8
0
  5
1F919
 10
153.292
 20
88.6032
 30
0.000000
  70
    32
  0
VERTEX
  8
0
  5
1F91A
 10
153.343
 20
88.6120
 30
0.000000
  70
    32
  0
VERTEX
  8
0
  5
1F91B
 10
153.394
 20
88.6208
 30
0.000000
  70
    32
  0
VERTEX
  8
0
  5
1F91C
 10
153.445
 20
88.6296
 30
0.000000
  70
    32
  0
VERTEX
  8
0
  5
1F91D
 10
153.496
 20
88.6385
 30
0.000000
  70
    32
  0
VERTEX
  8
0
  5
1F91E
 10
153.547
 20
88.6474
 30
0.000000
  70
    32
  0
VERTEX
  8
0
  5
1F91F
 10
153.598
 20
88.6564
 30
0.000000
  70
    32
  0
VERTEX
  8
0
  5
1F920
 10
153.650
 20
88.6654
 30
0.000000
  70
    32
  0
VERTEX
  8
0
  5
1F921
 10
153.701
 20
88.6744
 30
0.000000
  70
    32
  0
VERTEX
  8
0
  5
1F922
 10
153.752
 20
88.6834
 30
0.000000
  70
    32
  0
VERTEX
  8
0
  5
1F923
 10
153.803
 20
88.6925
 30
0.000000
  70
    32
  0
VERTEX
  8
0
  5
1F924
 10
153.854
 20
88.7017
 30
0.000000
  70
    32
  0
VERTEX
  8
0
  5
1F925
 10
153.905
 20
88.7108
 30
0.000000
  70
    32
  0
VERTEX
  8
0
  5
1F926
 10
153.956
 20
88.7200
 30
0.000000
  70
    32
  0
VERTEX
  8
0
  5
1F927
 10
154.007
 20
88.7293
 30
0.000000
  70
    32
  0
VERTEX
  8
0
  5
1F928
 10
154.058
 20
88.7385
 30
0.000000
  70
    32
  0
VERTEX
  8
0
  5
1F929
 10
154.109
 20
88.7478
 30
0.000000
  70
    32
  0
VERTEX
  8
0
  5
1F92A
 10
154.160
 20
88.7572
 30
0.000000
  70
    32
  0
VERTEX
  8
0
  5
1F92B
 10
154.211
 20
88.7666
 30
0.000000
  70
    32
  0
VERTEX
  8
0
  5
1F92C
 10
154.262
 20
88.7760
 30
0.000000
  70
    32
  0
VERTEX
  8
0
  5
1F92D
 10
154.313
 20
88.7854
 30
0.000000
  70
    32
  0
VERTEX
  8
0
  5
1F92E
 10
154.364
 20
88.7949
 30
0.000000
  70
    32
  0
VERTEX
  8
0
  5
1F92F
 10
154.415
 20
88.8045
 30
0.000000
  70
    32
  0
VERTEX
  8
0
  5
1F930
 10
154.466
 20
88.8140
 30
0.000000
  70
    32
  0
VERTEX
  8
0
  5
1F931
 10
154.517
 20
88.8236
 30
0.000000
  70
    32
  0
VERTEX
  8
0
  5
1F932
 10
154.568
 20
88.8332
 30
0.000000
  70
    32
  0
VERTEX
  8
0
  5
1F933
 10
154.619
 20
88.8429
 30
0.000000
  70
    32
  0
VERTEX
  8
0
  5
1F934
 10
154.670
 20
88.8526
 30
0.000000
  70
    32
  0
VERTEX
  8
0
  5
1F935
 10
154.721
 20
88.8624
 30
0.000000
  70
    32
  0
VERTEX
  8
0
  5
1F936
 10
154.772
 20
88.8721
 30
0.000000
  70
    32
  0
VERTEX
  8
0
  5
1F937
 10
154.822
 20
88.8819
 30
0.000000
  70
    32
  0
VERTEX
  8
0
  5
1F938
 10
154.873
 20
88.8918
 30
0.000000
  70
    32
  0
VERTEX
  8
0
  5
1F939
 10
154.924
 20
88.9017
 30
0.000000
  70
    32
  0
VERTEX
  8
0
  5
1F93A
 10
154.975
 20
88.9116
 30
0.000000
  70
    32
  0
VERTEX
  8
0
  5
1F93B
 10
155.026
 20
88.9215
 30
0.000000
  70
    32
  0
VERTEX
  8
0
  5
1F93C
 10
155.077
 20
88.9315
 30
0.000000
  70
    32
  0
VERTEX
  8
0
  5
1F93D
 10
155.128
 20
88.9416
 30
0.000000
  70
    32
  0
VERTEX
  8
0
  5
1F93E
 10
155.179
 20
88.9516
 30
0.000000
  70
    32
  0
VERTEX
  8
0
  5
1F93F
 10
155.230
 20
88.9617
 30
0.000000
  70
    32
  0
VERTEX
  8
0
  5
1F940
 10
155.281
 20
88.9719
 30
0.000000
  70
    32
  0
VERTEX
  8
0
  5
1F941
 10
155.331
 20
88.9820
 30
0.000000
  70
    32
  0
VERTEX
  8
0
  5
1F942
 10
155.382
 20
88.9922
 30
0.000000
  70
    32
  0
VERTEX
  8
0
  5
1F943
 10
155.433
 20
89.0025
 30
0.000000
  70
    32
  0
VERTEX
  8
0
  5
1F944
 10
155.484
 20
89.0127
 30
0.000000
  70
    32
  0
VERTEX
  8
0
  5
1F945
 10
155.535
 20
89.0231
 30
0.000000
  70
    32
  0
VERTEX
  8
0
  5
1F946
 10
155.586
 20
89.0334
 30
0.000000
  70
    32
  0
VERTEX
  8
0
  5
1F947
 10
155.636
 20
89.0438
 30
0.000000
  70
    32
  0
VERTEX
  8
0
  5
1F948
 10
155.687
 20
89.0542
 30
0.000000
  70
    32
  0
VERTEX
  8
0
  5
1F949
 10
155.738
 20
89.0647
 30
0.000000
  70
    32
  0
VERTEX
  8
0
  5
1F94A
 10
155.789
 20
89.0751
 30
0.000000
  70
    32
  0
VERTEX
  8
0
  5
1F94B
 10
155.840
 20
89.0857
 30
0.000000
  70
    32
  0
VERTEX
  8
0
  5
1F94C
 10
155.890
 20
89.0962
 30
0.000000
  70
    32
  0
VERTEX
  8
0
  5
1F94D
 10
155.941
 20
89.1068
 30
0.000000
  70
    32
  0
VERTEX
  8
0
  5
1F94E
 10
155.992
 20
89.1175
 30
0.000000
  70
    32
  0
VERTEX
  8
0
  5
1F94F
 10
156.043
 20
89.1281
 30
0.000000
  70
    32
  0
VERTEX
  8
0
  5
1F950
 10
156.093
 20
89.1388
 30
0.000000
  70
    32
  0
VERTEX
  8
0
  5
1F951
 10
156.144
 20
89.1496
 30
0.000000
  70
    32
  0
VERTEX
  8
0
  5
1F952
 10
156.195
 20
89.1603
 30
0.000000
  70
    32
  0
VERTEX
  8
0
  5
1F953
 10
156.246
 20
89.1712
 30
0.000000
  70
    32
  0
VERTEX
  8
0
  5
1F954
 10
156.296
 20
89.1820
 30
0.000000
  70
    32
  0
VERTEX
  8
0
  5
1F955
 10
156.347
 20
89.1929
 30
0.000000
  70
    32
  0
VERTEX
  8
0
  5
1F956
 10
156.398
 20
89.2038
 30
0.000000
  70
    32
  0
VERTEX
  8
0
  5
1F957
 10
156.448
 20
89.2148
 30
0.000000
  70
    32
  0
VERTEX
  8
0
  5
1F958
 10
156.499
 20
89.2257
 30
0.000000
  70
    32
  0
VERTEX
  8
0
  5
1F959
 10
156.550
 20
89.2368
 30
0.000000
  70
    32
  0
VERTEX
  8
0
  5
1F95A
 10
156.600
 20
89.2478
 30
0.000000
  70
    32
  0
VERTEX
  8
0
  5
1F95B
 10
156.651
 20
89.2589
 30
0.000000
  70
    32
  0
VERTEX
  8
0
  5
1F95C
 10
156.702
 20
89.2701
 30
0.000000
  70
    32
  0
VERTEX
  8
0
  5
1F95D
 10
156.752
 20
89.2812
 30
0.000000
  70
    32
  0
VERTEX
  8
0
  5
1F95E
 10
156.803
 20
89.2924
 30
0.000000
  70
    32
  0
VERTEX
  8
0
  5
1F95F
 10
156.854
 20
89.3037
 30
0.000000
  70
    32
  0
VERTEX
  8
0
  5
1F960
 10
156.904
 20
89.3149
 30
0.000000
  70
    32
  0
VERTEX
  8
0
  5
1F961
 10
156.955
 20
89.3263
 30
0.000000
  70
    32
  0
VERTEX
  8
0
  5
1F962
 10
157.005
 20
89.3376
 30
0.000000
  70
    32
  0
VERTEX
  8
0
  5
1F963
 10
157.056
 20
89.3490
 30
0.000000
  70
    32
  0
VERTEX
  8
0
  5
1F964
 10
157.107
 20
89.3604
 30
0.000000
  70
    32
  0
VERTEX
  8
0
  5
1F965
 10
157.157
 20
89.3718
 30
0.000000
  70
    32
  0
VERTEX
  8
0
  5
1F966
 10
157.208
 20
89.3833
 30
0.000000
  70
    32
  0
VERTEX
  8
0
  5
1F967
 10
157.258
 20
89.3949
 30
0.000000
  70
    32
  0
VERTEX
  8
0
  5
1F968
 10
157.309
 20
89.4064
 30
0.000000
  70
    32
  0
VERTEX
  8
0
  5
1F969
 10
157.359
 20
89.4180
 30
0.000000
  70
    32
  0
VERTEX
  8
0
  5
1F96A
 10
157.410
 20
89.4296
 30
0.000000
  70
    32
  0
VERTEX
  8
0
  5
1F96B
 10
157.461
 20
89.4413
 30
0.000000
  70
    32
  0
VERTEX
  8
0
  5
1F96C
 10
157.511
 20
89.4530
 30
0.000000
  70
    32
  0
VERTEX
  8
0
  5
1F96D
 10
157.562
 20
89.4647
 30
0.000000
  70
    32
  0
VERTEX
  8
0
  5
1F96E
 10
157.612
 20
89.4765
 30
0.000000
  70
    32
  0
VERTEX
  8
0
  5
1F96F
 10
157.663
 20
89.4883
 30
0.000000
  70
    32
  0
VERTEX
  8
0
  5
1F970
 10
157.713
 20
89.5002
 30
0.000000
  70
    32
  0
VERTEX
  8
0
  5
1F971
 10
157.764
 20
89.5120
 30
0.000000
  70
    32
  0
VERTEX
  8
0
  5
1F972
 10
157.814
 20
89.5239
 30
0.000000
  70
    32
  0
VERTEX
  8
0
  5
1F973
 10
157.865
 20
89.5359
 30
0.000000
  70
    32
  0
VERTEX
  8
0
  5
1F974
 10
157.915
 20
89.5479
 30
0.000000
  70
    32
  0
VERTEX
  8
0
  5
1F975
 10
157.965
 20
89.5599
 30
0.000000
  70
    32
  0
VERTEX
  8
0
  5
1F976
 10
158.016
 20
89.5720
 30
0.000000
  70
    32
  0
VERTEX
  8
0
  5
1F977
 10
158.066
 20
89.5840
 30
0.000000
  70
    32
  0
VERTEX
  8
0
  5
1F978
 10
158.117
 20
89.5962
 30
0.000000
  70
    32
  0
VERTEX
  8
0
  5
1F979
 10
158.167
 20
89.6083
 30
0.000000
  70
    32
  0
VERTEX
  8
0
  5
1F97A
 10
158.218
 20
89.6205
 30
0.000000
  70
    32
  0
VERTEX
  8
0
  5
1F97B
 10
158.268
 20
89.6328
 30
0.000000
  70
    32
  0
VERTEX
  8
0
  5
1F97C
 10
158.318
 20
89.6450
 30
0.000000
  70
    32
  0
VERTEX
  8
0
  5
1F97D
 10
158.369
 20
89.6573
 30
0.000000
  70
    32
  0
VERTEX
  8
0
  5
1F97E
 10
158.419
 20
89.6697
 30
0.000000
  70
    32
  0
VERTEX
  8
0
  5
1F97F
 10
158.470
 20
89.6820
 30
0.000000
  70
    32
  0
VERTEX
  8
0
  5
1F980
 10
158.520
 20
89.6944
 30
0.000000
  70
    32
  0
VERTEX
  8
0
  5
1F981
 10
158.570
 20
89.7069
 30
0.000000
  70
    32
  0
VERTEX
  8
0
  5
1F982
 10
158.621
 20
89.7194
 30
0.000000
  70
    32
  0
VERTEX
  8
0
  5
1F983
 10
158.671
 20
89.7319
 30
0.000000
  70
    32
  0
VERTEX
  8
0
  5
1F984
 10
158.721
 20
89.7444
 30
0.000000
  70
    32
  0
VERTEX
  8
0
  5
1F985
 10
158.772
 20
89.7570
 30
0.000000
  70
    32
  0
VERTEX
  8
0
  5
1F986
 10
158.822
 20
89.7696
 30
0.000000
  70
    32
  0
VERTEX
  8
0
  5
1F987
 10
158.872
 20
89.7823
 30
0.000000
  70
    32
  0
SEQEND
  8
0
  5
1F988
  0
LINE
  5
1EF07
  8
0
 10
132.92462300389639
 20
88.110908026840036
 30
0.0
 11
149.07537706973071
 21
88.110908026839923
 31
0.0
  0
LINE
  5
1EF08
  8
0
 10
150.4999999999998
 20
61.725000000000421
 30
0.0
 11
150.4999999999998
 21
66.000000000000398
 31
0.0
  0
LINE
  5
1EF09
  8
0
 10
131.49999999999969
 20
66.000000000000398
 30
0.0
 11
131.49999999999969
 21
61.725000000000421
 31
0.0
  0
LINE
  5
1EF0A
  8
0
 10
131.4999999999998
 20
61.725000000000421
 30
0.0
 11
150.4999999999998
 21
61.725000000000421
 31
0.0
  0
LINE
  5
1EF0B
  8
0
 10
163.05178067341609
 20
61.625000000000398
 30
0.0
 11
132.1249999999998
 21
61.625000000000398
 31
0.0
  0
LINE
  5
1EF0C
  8
0
 10
132.1249999999998
 20
60.375000000000398
 30
0.0
 11
163.05178067341609
 21
60.375000000000398
 31
0.0
  0
ARC
  5
1EF0D
  8
0
 10
132.1249999999998
 20
61.000000000000398
 30
0.0
 40
0.625
 50
90.0
 51
270.0
  0
LINE
  5
1EFAA
  8
1
 10
61.0
 20
61.000000000000398
 30
0.0
 11
39.0
 21
61.000000000000398
 31
0.0
  0
LINE
  5
1EFAB
  8
0
 10
49.350000000000023
 20
57.0
 30
0.0
 11
49.349999999999959
 21
56.0
 31
0.0
  0
LINE
  5
1EFAC
  8
0
 10
50.650000000000027
 20
57.0
 30
0.0
 11
50.650000000000027
 21
56.0
 31
0.0
  0
LINE
  5
1EFAE
  8
0
 10
46.0
 20
56.0
 30
0.0
 11
46.0
 21
57.0
 31
0.0
  0
LINE
  5
1EFAF
  8
0
 10
46.0
 20
56.0
 30
0.0
 11
49.349999999999959
 21
56.0
 31
0.0
  0
LINE
  5
1EFB0
  8
0
 10
54.0
 20
57.0
 30
0.0
 11
54.0
 21
56.0
 31
0.0
  0
LINE
  5
1EFB1
  8
0
 10
50.650000000000027
 20
56.0
 30
0.0
 11
54.0
 21
56.0
 31
0.0
  0
LINE
  5
1EFB2
  8
0
 10
51.150000000000027
 20
57.0
 30
0.0
 11
51.150000000000027
 21
56.0
 31
0.0
  0
POLYLINE
  5
1EFB3
  8
0
 66
     1
 10
0.0
 20
0.0
 30
0.0
  0
VERTEX
  5
1F56A
  8
0
 10
51.20181001438317
 20
56.0
 30
0.0
  0
VERTEX
  5
1F56B
  8
0
 10
51.244455403084032
 20
56.030442415266073
 30
0.0
  0
VERTEX
  5
1F56C
  8
0
 10
51.286776234626871
 20
56.121537975902349
 30
0.0
  0
VERTEX
  5
1F56D
  8
0
 10
51.307714125525649
 20
56.189631943040581
 30
0.0
  0
SEQEND
  5
1F56E
  8
0
  0
POLYLINE
  5
1EFB4
  8
0
 66
     1
 10
0.0
 20
0.0
 30
0.0
  0
VERTEX
  5
1F56F
  8
0
 10
48.692285874474351
 20
56.189631943040581
 30
0.0
  0
VERTEX
  5
1F570
  8
0
 10
48.734323394301327
 20
56.068441109009541
 30
0.0
  0
VERTEX
  5
1F571
  8
0
 10
48.776846977451839
 20
56.00761422734513
 30
0.0
  0
VERTEX
  5
1F572
  8
0
 10
48.798189985616879
 20
56.0
 30
0.0
  0
SEQEND
  5
1F573
  8
0
  0
LINE
  5
1EFB5
  8
0
 10
48.850000000000023
 20
57.0
 30
0.0
 11
48.850000000000023
 21
56.0
 31
0.0
  0
LINE
  5
1EFB7
  8
0
 10
48.692285874474351
 20
56.189631943040581
 30
0.0
 11
48.46871606427225
 21
57.0
 31
0.0
  0
LINE
  5
1EFB8
  8
0
 10
51.531283935727799
 20
57.0
 30
0.0
 11
51.307714125525649
 21
56.189631943040581
 31
0.0
  0
LINE
  5
1EFBA
  8
0
 10
45.0
 20
57.0
 30
0.0
 11
45.0
 21
58.500000000000398
 31
0.0
  0
LINE
  5
1EFBB
  8
0
 10
49.5
 20
57.0
 30
0.0
 11
45.0
 21
57.0
 31
0.0
  0
LINE
  5
1EFBC
  8
0
 10
55.0
 20
57.0
 30
0.0
 11
50.5
 21
57.0
 31
0.0
  0
LINE
  5
1EFBD
  8
0
 10
55.0
 20
58.500000000000398
 30
0.0
 11
55.0
 21
57.0
 31
0.0
  0
POLYLINE
  5
1EFBE
  8
0
 66
     1
 10
0.0
 20
0.0
 30
0.0
  0
VERTEX
  5
1F574
  8
0
 10
52.374868417407583
 20
57.0
 30
0.0
  0
VERTEX
  5
1F575
  8
0
 10
52.159574799365657
 20
57.010089796508048
 30
0.0
  0
VERTEX
  5
1F576
  8
0
 10
51.938718043745489
 20
57.037516768332686
 30
0.0
  0
VERTEX
  5
1F577
  8
0
 10
51.710930896760601
 20
57.079327260593232
 30
0.0
  0
VERTEX
  5
1F578
  8
0
 10
51.480036495622073
 20
57.13236996807791
 30
0.0
  0
VERTEX
  5
1F579
  8
0
 10
51.12153373787816
 20
57.230330009567517
 30
0.0
  0
VERTEX
  5
1F57A
  8
0
 10
50.758295270320843
 20
57.342982807443263
 30
0.0
  0
VERTEX
  5
1F57B
  8
0
 10
50.50007537046605
 20
57.428372660600751
 30
0.0
  0
SEQEND
  5
1F57C
  8
0
  0
POLYLINE
  5
1EFBF
  8
0
 66
     1
 10
0.0
 20
0.0
 30
0.0
  0
VERTEX
  5
1F57D
  8
0
 10
49.499919806611672
 20
57.428371036597468
 30
0.0
  0
VERTEX
  5
1F57E
  8
0
 10
49.258498219383632
 20
57.348426910784163
 30
0.0
  0
VERTEX
  5
1F57F
  8
0
 10
48.889256242584281
 20
57.233510895122322
 30
0.0
  0
VERTEX
  5
1F580
  8
0
 10
48.519963504377927
 20
57.13236996807791
 30
0.0
  0
VERTEX
  5
1F581
  8
0
 10
48.295192151878211
 20
57.080607907808599
 30
0.0
  0
VERTEX
  5
1F582
  8
0
 10
48.071493579835298
 20
57.039125260889129
 30
0.0
  0
VERTEX
  5
1F583
  8
0
 10
47.847123645182577
 20
57.010693484491519
 30
0.0
  0
VERTEX
  5
1F584
  8
0
 10
47.62513158259241
 20
57.0
 30
0.0
  0
SEQEND
  5
1F585
  8
0
  0
LINE
  5
1EFC7
  8
0
 10
49.5
 20
58.500000000000398
 30
0.0
 11
49.5
 21
53.5
 31
0.0
  0
LINE
  5
1EFC8
  8
0
 10
50.5
 20
53.5
 30
0.0
 11
50.5
 21
58.500000000000398
 31
0.0
  0
ARC
  5
1EFC9
  8
0
 10
50.0
 20
53.5
 30
0.0
 40
0.5
 50
180.0
 51
0.0
  0
LINE
  5
1F002
  8
1
 10
50.0
 20
50.0
 30
0.0
 11
50.0
 21
93.500000000000284
 31
0.0
  0
LINE
  5
1F003
  8
1
 10
49.999303435348963
 20
61.687500000000398
 30
0.0
 11
49.999303435348963
 21
60.312500000000391
 31
0.0
  0
ARC
  5
1F004
  8
0
 10
50.0
 20
79.956819048024443
 30
0.0
 40
10.54318095197598
 50
50.660133954906669
 51
66.27846944425076
  0
ARC
  5
1F005
  8
0
 10
49.999999999999943
 20
79.956819048024556
 30
0.0
 40
10.543180951975859
 50
113.7147123772174
 51
129.33986604509329
  0
ARC
  5
1F006
  8
0
 10
59.152840909090912
 20
61.000000000000398
 30
0.0
 40
0.7528409090908558
 50
236.1181248025072
 51
254.3694129064632
  0
ARC
  5
1F007
  8
0
 10
59.152840909090912
 20
61.000000000000398
 30
0.0
 40
0.7528409090909281
 50
105.6305870935368
 51
123.8818751974925
  0
ARC
  5
1F008
  8
0
 10
40.847159090909088
 20
61.000000000000398
 30
0.0
 40
0.7528409090909274
 50
56.118124802507161
 51
74.369412906463225
  0
ARC
  5
1F009
  8
0
 10
40.847159090909088
 20
61.000000000000398
 30
0.0
 40
0.7528409090908547
 50
285.6305870935368
 51
303.88187519749289
  0
LINE
  5
1F00A
  8
0
 10
40.499999999999993
 20
58.500000000000398
 30
0.0
 11
59.5
 21
58.500000000000398
 31
0.0
  0
LINE
  5
1F00B
  8
0
 10
40.499999999999993
 20
60.275000000000382
 30
0.0
 11
59.5
 21
60.275000000000382
 31
0.0
  0
LINE
  5
1F00C
  8
0
 10
59.5
 20
58.500000000000398
 30
0.0
 11
59.5
 21
60.275000000000382
 31
0.0
  0
LINE
  5
1F00D
  8
0
 10
40.499999999999993
 20
60.275000000000382
 30
0.0
 11
40.499999999999993
 21
58.500000000000398
 31
0.0
  0
LINE
  5
1F00E
  8
0
 10
58.875
 20
61.625000000000398
 30
0.0
 11
41.124999999999993
 21
61.625000000000398
 31
0.0
  0
LINE
  5
1F00F
  8
0
 10
41.124999999999993
 20
60.375000000000398
 30
0.0
 11
58.875
 21
60.375000000000398
 31
0.0
  0
ARC
  5
1F010
  8
0
 10
58.875
 20
61.000000000000398
 30
0.0
 40
0.625
 50
270.0
 51
90.0
  0
ARC
  5
1F011
  8
0
 10
41.124999999999993
 20
61.000000000000398
 30
0.0
 40
0.625
 50
90.0
 51
270.0
  0
LINE
  5
1F012
  8
0
 10
40.499999999999993
 20
61.725000000000421
 30
0.0
 11
59.5
 21
61.725000000000421
 31
0.0
  0
LINE
  5
1F013
  8
0
 10
59.500000000000057
 20
61.725000000000421
 30
0.0
 11
59.500000000000057
 21
88.110908026840036
 31
0.0
  0
LINE
  5
1F014
  8
0
 10
40.499999999999943
 20
88.110908026839923
 30
0.0
 11
40.499999999999943
 21
61.725000000000421
 31
0.0
  0
LINE
  5
1F015
  8
0
 10
44.996172803161407
 20
88.110908026840036
 30
0.0
 11
44.996172803161407
 21
66.000000000000398
 31
0.0
  0
POLYLINE
  5
1F016
  8
0
 66
     1
 10
0.0
 20
0.0
 30
0.0
  0
VERTEX
  5
1F586
  8
0
 10
45.6154561851464
 20
88.126208666623555
 30
0.0
  0
VERTEX
  5
1F587
  8
0
 10
45.514501322196047
 20
88.121375167373969
 30
0.0
  0
VERTEX
  5
1F588
  8
0
 10
45.20061078699581
 20
88.112403016136511
 30
0.0
  0
VERTEX
  5
1F589
  8
0
 10
44.996172803161642
 20
88.110908026839923
 30
0.0
  0
SEQEND
  5
1F58A
  8
0
  0
POLYLINE
  5
1F017
  8
0
 66
     1
 10
0.0
 20
0.0
 30
0.0
  0
VERTEX
  5
1F58B
  8
0
 10
46.699985849580507
 20
66.551949650007316
 30
0.0
  0
VERTEX
  5
1F58C
  8
0
 10
46.695735240716367
 20
66.507445396497872
 30
0.0
  0
VERTEX
  5
1F58D
  8
0
 10
46.653572739456081
 20
66.405492009984016
 30
0.0
  0
VERTEX
  5
1F58E
  8
0
 10
46.565978071473978
 20
66.311843341756173
 30
0.0
  0
VERTEX
  5
1F58F
  8
0
 10
46.432161168899093
 20
66.227692543428191
 30
0.0
  0
VERTEX
  5
1F590
  8
0
 10
46.253528591209538
 20
66.154409465452829
 30
0.0
  0
VERTEX
  5
1F591
  8
0
 10
46.033034238764401
 20
66.093983924212395
 30
0.0
  0
VERTEX
  5
1F592
  8
0
 10
45.781672719461142
 20
66.049180205853361
 30
0.0
  0
VERTEX
  5
1F593
  8
0
 10
45.495099421167929
 20
66.018282499026384
 30
0.0
  0
VERTEX
  5
1F594
  8
0
 10
45.17891776946567
 20
66.002251899832743
 30
0.0
  0
VERTEX
  5
1F595
  8
0
 10
44.996172803161528
 20
66.000000000000398
 30
0.0
  0
SEQEND
  5
1F596
  8
0
  0
LINE
  5
1F018
  8
0
 10
55.003827172355606
 20
88.110908026840036
 30
0.0
 11
55.003827172355606
 21
66.000000000000398
 31
0.0
  0
LINE
  5
1F019
  8
0
 10
53.300014150193242
 20
66.551948120663667
 30
0.0
 11
53.30770903127938
 21
66.615563498401855
 31
0.0
  0
POLYLINE
  5
1F01A
  8
0
 66
     1
 10
0.0
 20
0.0
 30
0.0
  0
VERTEX
  5
1F597
  8
0
 10
55.003827172355606
 20
88.110908026840036
 30
0.0
  0
VERTEX
  5
1F598
  8
0
 10
54.67666356057299
 20
88.114905128394582
 30
0.0
  0
VERTEX
  5
1F599
  8
0
 10
54.387793446832802
 20
88.126033563033104
 30
0.0
  0
SEQEND
  5
1F59A
  8
0
  0
LINE
  5
1F01B
  8
0
 10
55.003827172355606
 20
88.110908026840036
 30
0.0
 11
59.500000000000057
 21
88.110908026840036
 31
0.0
  0
LINE
  5
1F01C
  8
0
 10
40.499999999999943
 20
88.110908026840036
 30
0.0
 11
44.996172803161407
 21
88.110908026840036
 31
0.0
  0
POLYLINE
  5
1F01D
  8
0
 66
     1
 10
0.0
 20
0.0
 30
0.0
  0
VERTEX
  5
1F59B
  8
0
 10
46.692290968720613
 20
66.615563498401855
 30
0.0
  0
VERTEX
  5
1F59C
  8
0
 10
46.59749988341985
 20
67.030710683916766
 30
0.0
  0
VERTEX
  5
1F59D
  8
0
 10
46.503318272523749
 20
67.477166000702312
 30
0.0
  0
VERTEX
  5
1F59E
  8
0
 10
46.409612641253247
 20
67.955470750249049
 30
0.0
  0
VERTEX
  5
1F59F
  8
0
 10
46.316600479587457
 20
68.464488277140333
 30
0.0
  0
VERTEX
  5
1F5A0
  8
0
 10
46.223807438237877
 20
69.007020749990431
 30
0.0
  0
VERTEX
  5
1F5A1
  8
0
 10
46.131798877845597
 20
69.579987829646996
 30
0.0
  0
VERTEX
  5
1F5A2
  8
0
 10
46.040448020038859
 20
70.184235880593121
 30
0.0
  0
VERTEX
  5
1F5A3
  8
0
 10
45.949967663486447
 20
70.818414147379073
 30
0.0
  0
VERTEX
  5
1F5A4
  8
0
 10
45.877213951499812
 20
71.354813563758896
 30
0.0
  0
VERTEX
  5
1F5A5
  8
0
 10
45.805060598644388
 20
71.910714430303344
 30
0.0
  0
SEQEND
  5
1F5A6
  8
0
  0
POLYLINE
  5
1F01E
  8
0
 66
     1
 10
0.0
 20
0.0
 30
0.0
  0
VERTEX
  5
1F5A7
  8
0
 10
54.194939401355612
 20
71.910714430303344
 30
0.0
  0
VERTEX
  5
1F5A8
  8
0
 10
54.088922190373353
 20
71.102168446380176
 30
0.0
  0
VERTEX
  5
1F5A9
  8
0
 10
53.981588389884728
 20
70.335377942000207
 30
0.0
  0
VERTEX
  5
1F5AA
  8
0
 10
53.872719288196379
 20
69.609040664510246
 30
0.0
  0
VERTEX
  5
1F5AB
  8
0
 10
53.762666609723283
 20
68.925749075056785
 30
0.0
  0
VERTEX
  5
1F5AC
  8
0
 10
53.650598855274723
 20
68.281047540179031
 30
0.0
  0
VERTEX
  5
1F5AD
  8
0
 10
53.537473405307018
 20
67.681164856777912
 30
0.0
  0
VERTEX
  5
1F5AE
  8
0
 10
53.423049548628171
 20
67.125216796209486
 30
0.0
  0
VERTEX
  5
1F5AF
  8
0
 10
53.30770903127938
 20
66.615563498401855
 30
0.0
  0
SEQEND
  5
1F5B0
  8
0
  0
LINE
  5
1F01F
  8
0
 10
46.692290968720613
 20
66.615563498401855
 30
0.0
 11
46.699985849580507
 21
66.551949650007316
 31
0.0
  0
LINE
  5
1F020
  8
0
 10
44.996172803161407
 20
66.000000000000398
 30
0.0
 11
55.003827172355606
 21
66.000000000000398
 31
0.0
  0
POLYLINE
  5
1F021
  8
0
 66
     1
 10
0.0
 20
0.0
 30
0.0
  0
VERTEX
  5
1F5B1
  8
0
 10
55.003827172355606
 20
66.000000000000398
 30
0.0
  0
VERTEX
  5
1F5B2
  8
0
 10
54.684797029709557
 20
66.007204563423144
 30
0.0
  0
VERTEX
  5
1F5B3
  8
0
 10
54.390925641239953
 20
66.028401141348624
 30
0.0
  0
VERTEX
  5
1F5B4
  8
0
 10
54.127681466782001
 20
66.062964050012226
 30
0.0
  0
VERTEX
  5
1F5B5
  8
0
 10
53.897989777165371
 20
66.110393238056133
 30
0.0
  0
VERTEX
  5
1F5B6
  8
0
 10
53.702784682326353
 20
66.169680140663274
 30
0.0
  0
VERTEX
  5
1F5B7
  8
0
 10
53.54506282409136
 20
66.239350442410966
 30
0.0
  0
VERTEX
  5
1F5B8
  8
0
 10
53.423754850712719
 20
66.320545266565375
 30
0.0
  0
VERTEX
  5
1F5B9
  8
0
 10
53.343134834978343
 20
66.410492884937241
 30
0.0
  0
VERTEX
  5
1F5BA
  8
0
 10
53.304008828919962
 20
66.507350488758959
 30
0.0
  0
VERTEX
  5
1F5BB
  8
0
 10
53.300014150193242
 20
66.551948120663667
 30
0.0
  0
SEQEND
  5
1F5BC
  8
0
  0
LINE
  5
1F022
  8
0
 10
45.499999999999993
 20
86.180295231026491
 30
0.0
 11
45.499999999999993
 21
75.619704768950825
 31
0.0
  0
LINE
  5
1F023
  8
0
 10
54.5
 20
86.180295231026491
 30
0.0
 11
54.5
 21
75.619704768952772
 31
0.0
  0
POLYLINE
  5
1F024
  8
0
 66
     1
 10
0.0
 20
0.0
 30
0.0
  0
VERTEX
  5
1F5BD
  8
0
 10
45.499999999999993
 20
86.180295231026491
 30
0.0
  0
VERTEX
  5
1F5BE
  8
0
 10
45.514801635547137
 20
86.507947575752212
 30
0.0
  0
VERTEX
  5
1F5BF
  8
0
 10
45.53047886081265
 20
86.825920507300495
 30
0.0
  0
VERTEX
  5
1F5C0
  8
0
 10
45.547123273576169
 20
87.135770692317294
 30
0.0
  0
VERTEX
  5
1F5C1
  8
0
 10
45.56459843133478
 20
87.434718333078251
 30
0.0
  0
VERTEX
  5
1F5C2
  8
0
 10
45.583281674110417
 20
87.728379289582719
 30
0.0
  0
VERTEX
  5
1F5C3
  8
0
 10
45.602765747884291
 20
88.009589633737207
 30
0.0
  0
VERTEX
  5
1F5C4
  8
0
 10
45.623167418632249
 20
88.279758767815267
 30
0.0
  0
VERTEX
  5
1F5C5
  8
0
 10
45.644307458136893
 20
88.536290823309798
 30
0.0
  0
VERTEX
  5
1F5C6
  8
0
 10
45.665368300383747
 20
88.770433899284797
 30
0.0
  0
VERTEX
  5
1F5C7
  8
0
 10
45.687043588367651
 20
88.991055647232486
 30
0.0
  0
VERTEX
  5
1F5C8
  8
0
 10
45.709452342517459
 20
89.199156366517784
 30
0.0
  0
VERTEX
  5
1F5C9
  8
0
 10
45.732407035194001
 20
89.392822587032285
 30
0.0
  0
VERTEX
  5
1F5CA
  8
0
 10
45.756380720485708
 20
89.575418926927867
 30
0.0
  0
VERTEX
  5
1F5CB
  8
0
 10
45.780838908506936
 20
89.742292021950746
 30
0.0
  0
VERTEX
  5
1F5CC
  8
0
 10
45.80592067997037
 20
89.894178296585835
 30
0.0
  0
VERTEX
  5
1F5CD
  8
0
 10
45.831403043156222
 20
90.029552982528287
 30
0.0
  0
VERTEX
  5
1F5CE
  8
0
 10
45.856415916481012
 20
90.144667305050291
 30
0.0
  0
VERTEX
  5
1F5CF
  8
0
 10
45.88171780291804
 20
90.243895333447924
 30
0.0
  0
VERTEX
  5
1F5D0
  8
0
 10
45.907442418614487
 20
90.327583423035833
 30
0.0
  0
VERTEX
  5
1F5D1
  8
0
 10
45.933371706535688
 20
90.394874921726853
 30
0.0
  0
VERTEX
  5
1F5D2
  8
0
 10
45.960023789802158
 20
90.446562796472506
 30
0.0
  0
VERTEX
  5
1F5D3
  8
0
 10
45.986794894359029
 20
90.480954873026164
 30
0.0
  0
VERTEX
  5
1F5D4
  8
0
 10
46.013831802211882
 20
90.498047776130036
 30
0.0
  0
VERTEX
  5
1F5D5
  8
0
 10
46.02695423919846
 20
90.499998094319665
 30
0.0
  0
SEQEND
  5
1F5D6
  8
0
  0
POLYLINE
  5
1F027
  8
0
 66
     1
 10
0.0
 20
0.0
 30
0.0
  0
VERTEX
  5
1F5D7
  8
0
 10
45.805060598644388
 20
71.910714430303344
 30
0.0
  0
VERTEX
  5
1F5D8
  8
0
 10
45.77274131768916
 20
72.110902814240774
 30
0.0
  0
VERTEX
  5
1F5D9
  8
0
 10
45.741168544294332
 20
72.338234110279984
 30
0.0
  0
VERTEX
  5
1F5DA
  8
0
 10
45.710487413138189
 20
72.591692354208874
 30
0.0
  0
VERTEX
  5
1F5DB
  8
0
 10
45.679927454257893
 20
72.879264484435396
 30
0.0
  0
VERTEX
  5
1F5DC
  8
0
 10
45.650462025595353
 20
73.193228051947642
 30
0.0
  0
VERTEX
  5
1F5DD
  8
0
 10
45.622235441212347
 20
73.532075399763514
 30
0.0
  0
VERTEX
  5
1F5DE
  8
0
 10
45.588366720631647
 20
73.995931913613674
 30
0.0
  0
VERTEX
  5
1F5DF
  8
0
 10
45.556775585491152
 20
74.496006153335713
 30
0.0
  0
VERTEX
  5
1F5E0
  8
0
 10
45.527029316974733
 20
75.041782971881219
 30
0.0
  0
VERTEX
  5
1F5E1
  8
0
 10
45.499999999999993
 20
75.619704768950825
 30
0.0
  0
SEQEND
  5
1F5E2
  8
0
  0
POLYLINE
  5
1F029
  8
0
 66
     1
 10
0.0
 20
0.0
 30
0.0
  0
VERTEX
  5
1F5E3
  8
0
 10
54.5
 20
75.619704768952772
 30
0.0
  0
VERTEX
  5
1F5E4
  8
0
 10
54.479999495230857
 20
75.183608619491622
 30
0.0
  0
VERTEX
  5
1F5E5
  8
0
 10
54.45843324030858
 20
74.764826503350093
 30
0.0
  0
VERTEX
  5
1F5E6
  8
0
 10
54.435401568664822
 20
74.365281666915564
 30
0.0
  0
VERTEX
  5
1F5E7
  8
0
 10
54.41022079752674
 20
73.975222430290899
 30
0.0
  0
VERTEX
  5
1F5E8
  8
0
 10
54.383607607751173
 20
73.60743983791275
 30
0.0
  0
VERTEX
  5
1F5E9
  8
0
 10
54.355692541863107
 20
73.263709176690838
 30
0.0
  0
VERTEX
  5
1F5EA
  8
0
 10
54.318449748822047
 20
72.863037646767154
 30
0.0
  0
VERTEX
  5
1F5EB
  8
0
 10
54.279414649181717
 20
72.504533819654114
 30
0.0
  0
VERTEX
  5
1F5EC
  8
0
 10
54.237891576491961
 20
72.183822344643488
 30
0.0
  0
VERTEX
  5
1F5ED
  8
0
 10
54.194939401355612
 20
71.910714430303344
 30
0.0
  0
SEQEND
  5
1F5EE
  8
0
  0
LINE
  5
1F02C
  8
0
 10
53.974206523755811
 20
90.500000000000284
 30
0.0
 11
46.025809552351461
 21
90.500000000000284
 31
0.0
  0
POLYLINE
  5
1F02D
  8
0
 66
     1
 10
0.0
 20
0.0
 30
0.0
  0
VERTEX
  5
1F5EF
  8
0
 10
53.972989181254142
 20
90.499997513997812
 30
0.0
  0
VERTEX
  5
1F5F0
  8
0
 10
53.997103527644811
 20
90.493258121041151
 30
0.0
  0
VERTEX
  5
1F5F1
  8
0
 10
54.02369100108001
 20
90.469564161452183
 30
0.0
  0
VERTEX
  5
1F5F2
  8
0
 10
54.050771498030308
 20
90.427738269263557
 30
0.0
  0
VERTEX
  5
1F5F3
  8
0
 10
54.077709940865532
 20
90.368188466104627
 30
0.0
  0
VERTEX
  5
1F5F4
  8
0
 10
54.104655292071193
 20
90.290351490307614
 30
0.0
  0
VERTEX
  5
1F5F5
  8
0
 10
54.131355418419503
 20
90.194753378742746
 30
0.0
  0
VERTEX
  5
1F5F6
  8
0
 10
54.156690860559252
 20
90.086495343871164
 30
0.0
  0
VERTEX
  5
1F5F7
  8
0
 10
54.181710419409399
 20
89.962219547882384
 30
0.0
  0
VERTEX
  5
1F5F8
  8
0
 10
54.206541779682077
 20
89.821077907727556
 30
0.0
  0
VERTEX
  5
1F5F9
  8
0
 10
54.230964784671933
 20
89.664135908298064
 30
0.0
  0
VERTEX
  5
1F5FA
  8
0
 10
54.255458264220458
 20
89.487673237433626
 30
0.0
  0
VERTEX
  5
1F5FB
  8
0
 10
54.279434619772637
 20
89.295297486370643
 30
0.0
  0
VERTEX
  5
1F5FC
  8
0
 10
54.303021565010617
 20
89.085726035789946
 30
0.0
  0
VERTEX
  5
1F5FD
  8
0
 10
54.325993877371502
 20
88.860734220690972
 30
0.0
  0
VERTEX
  5
1F5FE
  8
0
 10
54.347397931427452
 20
88.630942693088784
 30
0.0
  0
VERTEX
  5
1F5FF
  8
0
 10
54.368159900649182
 20
88.387747192103177
 30
0.0
  0
VERTEX
  5
1F600
  8
0
 10
54.38838107099167
 20
88.129711093885177
 30
0.0
  0
VERTEX
  5
1F601
  8
0
 10
54.407878590078496
 20
87.858946967788086
 30
0.0
  0
VERTEX
  5
1F602
  8
0
 10
54.427020103889618
 20
87.569560494015093
 30
0.0
  0
VERTEX
  5
1F603
  8
0
 10
54.445334202042829
 20
87.267895548080958
 30
0.0
  0
VERTEX
  5
1F604
  8
0
 10
54.462912740732008
 20
86.952112700027953
 30
0.0
  0
VERTEX
  5
1F605
  8
0
 10
54.479583791000778
 20
86.625008680803091
 30
0.0
  0
VERTEX
  5
1F606
  8
0
 10
54.5
 20
86.180295231026605
 30
0.0
  0
SEQEND
  5
1F607
  8
0
  0
LINE
  5
1F042
  8
1
 10
106.5000000000145
 20
156.00000000000031
 30
0.0
 11
255.25000000000159
 21
156.00000000000031
 31
0.0
  0
LINE
  5
1F045
  8
1
 10
176.2499999999998
 20
149.5000000000002
 30
0.0
 11
176.2499999999998
 21
162.50000000000031
 31
0.0
  0
LINE
  5
1F12E
  8
2
 10
172.4960314960467
 20
156.50000000000031
 30
0.0
 11
161.2499999999998
 21
156.50000000000031
 31
0.0
  0
LINE
  5
1F12F
  8
2
 10
161.2499999999998
 20
155.50000000000031
 30
0.0
 11
172.4960314960467
 21
155.50000000000031
 31
0.0
  0
ARC
  5
1F130
  8
2
 10
161.2499999999998
 20
156.00000000000031
 30
0.0
 40
0.5
 50
90.0
 51
270.0
  0
LINE
  5
1F131
  8
0
 10
176.2499999999998
 20
156.50000000000031
 30
0.0
 11
172.4960314960467
 21
156.50000000000031
 31
0.0
  0
LINE
  5
1F132
  8
0
 10
172.4960314960467
 20
155.50000000000031
 30
0.0
 11
176.2499999999998
 21
155.50000000000031
 31
0.0
  0
ARC
  5
1F133
  8
0
 10
176.2499999999998
 20
156.00000000000031
 30
0.0
 40
0.5
 50
270.0
 51
90.0
  0
LINE
  5
1F134
  8
2
 10
158.31058166530789
 20
159.6966953520153
 30
0.0
 11
159.98472740047379
 21
159.2253101447296
 31
0.0
  0
ARC
  5
1F135
  8
2
 10
159.0767806734161
 20
156.00069656465121
 30
0.0
 40
4.5999999999999979
 50
301.80222408831168
 51
58.180505080714468
  0
ARC
  5
1F136
  8
2
 10
159.0767806734161
 20
156.00069656465121
 30
0.0
 40
3.3500000000000041
 50
285.72849999999988
 51
74.274500000003144
  0
LINE
  5
1F137
  8
2
 10
159.98472740047379
 20
152.77468985527099
 30
0.0
 11
158.31058166530789
 21
152.30330464798519
 31
0.0
  0
LINE
  5
1F138
  8
1
 10
140.9999999999998
 20
143.50000000000031
 30
0.0
 11
140.9999999999998
 21
168.50000000000031
 31
0.0
  0
LINE
  5
1F13A
  8
0
 10
160.3235134926594
 20
160.42852416714689
 30
0.0
 11
143.5747743006109
 21
165.14442657037151
 31
0.0
  0
LINE
  5
1F13B
  8
0
 10
147.7700460564385
 20
162.6645687327615
 30
0.0
 11
158.31058166530789
 21
159.6966953520153
 31
0.0
  0
ARC
  5
1F13C
  8
0
 10
159.0767806734161
 20
156.00069656465149
 30
0.0
 40
4.5999999999998566
 50
58.180505080713722
 51
74.274500000003144
  0
ARC
  5
1F13D
  8
0
 10
159.0767806734161
 20
156.00069656465121
 30
0.0
 40
4.5999999999998842
 50
285.72849999999988
 51
301.80222408831168
  0
LINE
  5
1F13E
  8
0
 10
158.31058166530789
 20
152.30330464798519
 30
0.0
 11
147.7700460564385
 21
149.33543126723899
 31
0.0
  0
LINE
  5
1F13F
  8
0
 10
143.5747743006109
 20
146.855573429629
 30
0.0
 11
160.3235134926594
 21
151.57147583285359
 31
0.0
  0
LINE
  5
1F140
  8
0
 10
152.37077291243941
 20
152.6922909687209
 30
0.0
 11
170.5770181052788
 21
151.50000000000031
 31
0.0
  0
LINE
  5
1F141
  8
0
 10
129.62922708756011
 20
159.30770903127959
 30
0.0
 11
111.42298189472081
 21
160.50000000000031
 31
0.0
  0
LINE
  5
1F142
  8
0
 10
111.42298189472081
 20
151.50000000000031
 30
0.0
 11
129.62922708756011
 21
152.6922909687209
 31
0.0
  0
LINE
  5
1F143
  8
0
 10
170.5770181052788
 20
160.50000000000031
 30
0.0
 11
152.37077291243941
 21
159.30770903127959
 31
0.0
  0
POLYLINE
  5
1F144
  8
0
 66
     1
 10
0.0
 20
0.0
 30
0.0
  0
VERTEX
  5
1F608
  8
0
 10
132.92462300389639
 20
150.99617282764461
 30
0.0
  0
VERTEX
  5
1F609
  8
0
 10
132.6954930968017
 20
151.32333643942729
 30
0.0
  0
VERTEX
  5
1F60A
  8
0
 10
132.4309516804733
 20
151.62409856978081
 30
0.0
  0
VERTEX
  5
1F60B
  8
0
 10
132.136050296539
 20
151.8928282348611
 30
0.0
  0
VERTEX
  5
1F60C
  8
0
 10
131.81330737082479
 20
152.12654708163751
 30
0.0
  0
VERTEX
  5
1F60D
  8
0
 10
131.46619607105589
 20
152.32372651520379
 30
0.0
  0
VERTEX
  5
1F60E
  8
0
 10
131.10124160589589
 20
152.48087639062811
 30
0.0
  0
VERTEX
  5
1F60F
  8
0
 10
130.71909079935739
 20
152.59679924658499
 30
0.0
  0
VERTEX
  5
1F610
  8
0
 10
130.32595047282069
 20
152.6700145878917
 30
0.0
  0
VERTEX
  5
1F611
  8
0
 10
129.92903343746141
 20
152.69940703637761
 30
0.0
  0
VERTEX
  5
1F612
  8
0
 10
129.62922708756011
 20
152.6922909687209
 30
0.0
  0
SEQEND
  5
1F613
  8
0
  0
ARC
  5
1F145
  8
0
 10
140.9999999999998
 20
156.00000000000031
 30
0.0
 40
9.5000000000000018
 50
211.78401412652059
 51
328.21598671654289
  0
POLYLINE
  5
1F146
  8
0
 66
     1
 10
0.0
 20
0.0
 30
0.0
  0
VERTEX
  5
1F614
  8
0
 10
152.37077291243941
 20
152.6922909687209
 30
0.0
  0
VERTEX
  5
1F615
  8
0
 10
151.9674284535001
 20
152.6957777170883
 30
0.0
  0
VERTEX
  5
1F616
  8
0
 10
151.5642922642954
 20
152.6540928127697
 30
0.0
  0
VERTEX
  5
1F617
  8
0
 10
151.16890300472861
 20
152.56778798974671
 30
0.0
  0
VERTEX
  5
1F618
  8
0
 10
150.78491289514821
 20
152.43670582805569
 30
0.0
  0
VERTEX
  5
1F619
  8
0
 10
150.4162272586475
 20
152.2625600496622
 30
0.0
  0
VERTEX
  5
1F61A
  8
0
 10
150.070034160771
 20
152.04850555160439
 30
0.0
  0
VERTEX
  5
1F61B
  8
0
 10
149.75360243930501
 20
151.79893202952121
 30
0.0
  0
VERTEX
  5
1F61C
  8
0
 10
149.46569634061601
 20
151.51450132219639
 30
0.0
  0
VERTEX
  5
1F61D
  8
0
 10
149.2119305755993
 20
151.20061078699609
 30
0.0
  0
VERTEX
  5
1F61E
  8
0
 10
149.07537706973071
 20
150.9961729464676
 30
0.0
  0
SEQEND
  5
1F61F
  8
0
  0
POLYLINE
  5
1F147
  8
0
 66
     1
 10
0.0
 20
0.0
 30
0.0
  0
VERTEX
  5
1F620
  8
0
 10
149.07537711412971
 20
161.0038269818798
 30
0.0
  0
VERTEX
  5
1F621
  8
0
 10
149.30450704190159
 20
160.6766633839612
 30
0.0
  0
VERTEX
  5
1F622
  8
0
 10
149.5690484772916
 20
160.37590126980751
 30
0.0
  0
VERTEX
  5
1F623
  8
0
 10
149.8639498782901
 20
160.107171622941
 30
0.0
  0
VERTEX
  5
1F624
  8
0
 10
150.18669281884661
 20
159.8734527962304
 30
0.0
  0
VERTEX
  5
1F625
  8
0
 10
150.5338041311484
 20
159.6762733843299
 30
0.0
  0
VERTEX
  5
1F626
  8
0
 10
150.89875860631651
 20
159.51912353174299
 30
0.0
  0
VERTEX
  5
1F627
  8
0
 10
151.28090942068681
 20
159.40320069963681
 30
0.0
  0
VERTEX
  5
1F628
  8
0
 10
151.67404975239481
 20
159.32998538299631
 30
0.0
  0
VERTEX
  5
1F629
  8
0
 10
152.0709667901919
 20
159.30059295954021
 30
0.0
  0
VERTEX
  5
1F62A
  8
0
 10
152.37077291243941
 20
159.30770903127959
 30
0.0
  0
SEQEND
  5
1F62B
  8
0
  0
ARC
  5
1F148
  8
0
 10
140.9999999999998
 20
156.00000000000031
 30
0.0
 40
9.5000000000000071
 50
31.78401277507313
 51
148.21598569977081
  0
POLYLINE
  5
1F149
  8
0
 66
     1
 10
0.0
 20
0.0
 30
0.0
  0
VERTEX
  5
1F62C
  8
0
 10
129.62922708756011
 20
159.30770903127959
 30
0.0
  0
VERTEX
  5
1F62D
  8
0
 10
130.03257154649941
 20
159.30422228291221
 30
0.0
  0
VERTEX
  5
1F62E
  8
0
 10
130.43570773570411
 20
159.34590718723081
 30
0.0
  0
VERTEX
  5
1F62F
  8
0
 10
130.831096995271
 20
159.43221201025381
 30
0.0
  0
VERTEX
  5
1F630
  8
0
 10
131.21508710485131
 20
159.56329417194479
 30
0.0
  0
VERTEX
  5
1F631
  8
0
 10
131.58377274135211
 20
159.73743995033831
 30
0.0
  0
VERTEX
  5
1F632
  8
0
 10
131.9299658392286
 20
159.9514944483962
 30
0.0
  0
VERTEX
  5
1F633
  8
0
 10
132.24639756069459
 20
160.2010679704793
 30
0.0
  0
VERTEX
  5
1F634
  8
0
 10
132.5343036593836
 20
160.48549867780409
 30
0.0
  0
VERTEX
  5
1F635
  8
0
 10
132.78806942440019
 20
160.7993892130045
 30
0.0
  0
VERTEX
  5
1F636
  8
0
 10
132.92462301906701
 20
161.00382719683881
 30
0.0
  0
SEQEND
  5
1F637
  8
0
  0
POLYLINE
  5
1F14A
  8
0
 66
     1
 10
0.0
 20
0.0
 30
0.0
  0
VERTEX
  5
1F638
  8
0
 10
145.2857142749998
 20
156.75000000000031
 30
0.0
  0
VERTEX
  5
1F639
  8
0
 10
145.15304752839609
 20
156.73810059253049
 30
0.0
  0
VERTEX
  5
1F63A
  8
0
 10
145.02327106445921
 20
156.7025834905842
 30
0.0
  0
VERTEX
  5
1F63B
  8
0
 10
144.9000504753599
 20
156.64312910407281
 30
0.0
  0
VERTEX
  5
1F63C
  8
0
 10
144.78805614455109
 20
156.56110282943379
 30
0.0
  0
VERTEX
  5
1F63D
  8
0
 10
144.69705196026769
 20
156.46456562005261
 30
0.0
  0
VERTEX
  5
1F63E
  8
0
 10
144.623531683115
 20
156.35215652060549
 30
0.0
  0
VERTEX
  5
1F63F
  8
0
 10
144.5740164937165
 20
156.23632275384321
 30
0.0
  0
VERTEX
  5
1F640
  8
0
 10
144.54428727091459
 20
156.11307518566539
 30
0.0
  0
VERTEX
  5
1F641
  8
0
 10
144.5358335134851
 20
155.9922939404519
 30
0.0
  0
VERTEX
  5
1F642
  8
0
 10
144.54676337381659
 20
155.8717363432591
 30
0.0
  0
VERTEX
  5
1F643
  8
0
 10
144.5763107049064
 20
155.75681091712889
 30
0.0
  0
VERTEX
  5
1F644
  8
0
 10
144.62314202879031
 20
155.64857715135059
 30
0.0
  0
VERTEX
  5
1F645
  8
0
 10
144.6868845531944
 20
155.54854976715561
 30
0.0
  0
VERTEX
  5
1F646
  8
0
 10
144.76458842421641
 20
155.46062272235
 30
0.0
  0
VERTEX
  5
1F647
  8
0
 10
144.85802639693401
 20
155.38396883516319
 30
0.0
  0
VERTEX
  5
1F648
  8
0
 10
144.9611050136688
 20
155.32388697138879
 30
0.0
  0
VERTEX
  5
1F649
  8
0
 10
145.07828693148261
 20
155.27931386086249
 30
0.0
  0
VERTEX
  5
1F64A
  8
0
 10
145.19985273261281
 20
155.25493101289979
 30
0.0
  0
VERTEX
  5
1F64B
  8
0
 10
145.33148972285591
 20
155.25145727302129
 30
0.0
  0
VERTEX
  5
1F64C
  8
0
 10
145.46119694217671
 20
155.27081838097769
 30
0.0
  0
VERTEX
  5
1F64D
  8
0
 10
145.59176491938069
 20
155.31536268898191
 30
0.0
  0
VERTEX
  5
1F64E
  8
0
 10
145.7129146192996
 20
155.38355870852951
 30
0.0
  0
VERTEX
  5
1F64F
  8
0
 10
145.81997246261031
 20
155.4737658190127
 30
0.0
  0
VERTEX
  5
1F650
  8
0
 10
145.90997633289831
 20
155.5843115552868
 30
0.0
  0
VERTEX
  5
1F651
  8
0
 10
145.97351368590631
 20
155.70124891854101
 30
0.0
  0
VERTEX
  5
1F652
  8
0
 10
146.01610734123429
 20
155.82962990639089
 30
0.0
  0
VERTEX
  5
1F653
  8
0
 10
146.0338391903058
 20
155.9483909146891
 30
0.0
  0
VERTEX
  5
1F654
  8
0
 10
146.0325493238515
 20
156.06882884429379
 30
0.0
  0
VERTEX
  5
1F655
  8
0
 10
146.014091589656
 20
156.1785208172189
 30
0.0
  0
VERTEX
  5
1F656
  8
0
 10
145.98012334862219
 20
156.28336555625361
 30
0.0
  0
VERTEX
  5
1F657
  8
0
 10
145.93062158400991
 20
156.38278385412789
 30
0.0
  0
VERTEX
  5
1F658
  8
0
 10
145.8681207451626
 20
156.47254915459951
 30
0.0
  0
VERTEX
  5
1F659
  8
0
 10
145.78704487316361
 20
156.55776682838089
 30
0.0
  0
VERTEX
  5
1F65A
  8
0
 10
145.69509320194359
 20
156.62841777041609
 30
0.0
  0
VERTEX
  5
1F65B
  8
0
 10
145.5826624077211
 20
156.68865650324511
 30
0.0
  0
VERTEX
  5
1F65C
  8
0
 10
145.4625105768763
 20
156.72886423128261
 30
0.0
  0
VERTEX
  5
1F65D
  8
0
 10
145.2857142749998
 20
156.75000000000031
 30
0.0
  0
SEQEND
  5
1F65E
  8
0
  0
POLYLINE
  5
1F14B
  8
0
 66
     1
 10
0.0
 20
0.0
 30
0.0
  0
VERTEX
  5
1F65F
  8
0
 10
136.7142857249998
 20
156.75000000000031
 30
0.0
  0
VERTEX
  5
1F660
  8
0
 10
136.5767561765195
 20
156.7372122064383
 30
0.0
  0
VERTEX
  5
1F661
  8
0
 10
136.44391507581159
 20
156.69957109149669
 30
0.0
  0
VERTEX
  5
1F662
  8
0
 10
136.31941529312471
 20
156.63754377455351
 30
0.0
  0
VERTEX
  5
1F663
  8
0
 10
136.20715604731089
 20
156.5525572278122
 30
0.0
  0
VERTEX
  5
1F664
  8
0
 10
136.11565570764839
 20
156.45182087415941
 30
0.0
  0
VERTEX
  5
1F665
  8
0
 10
136.04039573960529
 20
156.32919946474021
 30
0.0
  0
VERTEX
  5
1F666
  8
0
 10
135.9941787402052
 20
156.2092160660136
 30
0.0
  0
VERTEX
  5
1F667
  8
0
 10
135.9687357449755
 20
156.08157957640111
 30
0.0
  0
VERTEX
  5
1F668
  8
0
 10
135.96515558210061
 20
155.96567683305139
 30
0.0
  0
VERTEX
  5
1F669
  8
0
 10
135.97927361470349
 20
155.85081153624401
 30
0.0
  0
VERTEX
  5
1F66A
  8
0
 10
136.0091264330996
 20
155.7447247966445
 30
0.0
  0
VERTEX
  5
1F66B
  8
0
 10
136.05346612004271
 20
155.64529244481659
 30
0.0
  0
VERTEX
  5
1F66C
  8
0
 10
136.1141842691475
 20
155.55020930514311
 30
0.0
  0
VERTEX
  5
1F66D
  8
0
 10
136.1871566347433
 20
155.46648812365129
 30
0.0
  0
VERTEX
  5
1F66E
  8
0
 10
136.27985455196489
 20
155.3886864327911
 30
0.0
  0
VERTEX
  5
1F66F
  8
0
 10
136.38249408598759
 20
155.327382494815
 30
0.0
  0
VERTEX
  5
1F670
  8
0
 10
136.50475716996371
 20
155.27992008383879
 30
0.0
  0
VERTEX
  5
1F671
  8
0
 10
136.63302940613511
 20
155.25441471940221
 30
0.0
  0
VERTEX
  5
1F672
  8
0
 10
136.77155368967311
 20
155.25226865758469
 30
0.0
  0
VERTEX
  5
1F673
  8
0
 10
136.90923152240001
 20
155.27577894529671
 30
0.0
  0
VERTEX
  5
1F674
  8
0
 10
137.0398864903778
 20
155.32447635052819
 30
0.0
  0
VERTEX
  5
1F675
  8
0
 10
137.16100014492309
 20
155.3975498136507
 30
0.0
  0
VERTEX
  5
1F676
  8
0
 10
137.2612712075499
 20
155.48701996258191
 30
0.0
  0
VERTEX
  5
1F677
  8
0
 10
137.3451152912935
 20
155.59434736745661
 30
0.0
  0
VERTEX
  5
1F678
  8
0
 10
137.4046152191404
 20
155.70707915336919
 30
0.0
  0
VERTEX
  5
1F679
  8
0
 10
137.44457707100861
 20
155.8291944089188
 30
0.0
  0
VERTEX
  5
1F67A
  8
0
 10
137.46252672131499
 20
155.94988030610861
 30
0.0
  0
VERTEX
  5
1F67B
  8
0
 10
137.4608173903855
 20
156.07204493442629
 30
0.0
  0
VERTEX
  5
1F67C
  8
0
 10
137.43994991398361
 20
156.18921670839501
 30
0.0
  0
VERTEX
  5
1F67D
  8
0
 10
137.40117846640001
 20
156.3011284805726
 30
0.0
  0
VERTEX
  5
1F67E
  8
0
 10
137.34516310063159
 20
156.40545776675961
 30
0.0
  0
VERTEX
  5
1F67F
  8
0
 10
137.27430313215999
 20
156.4988792475919
 30
0.0
  0
VERTEX
  5
1F680
  8
0
 10
137.18743791629089
 20
156.58183928247439
 30
0.0
  0
VERTEX
  5
1F681
  8
0
 10
137.0898243777763
 20
156.64920776356351
 30
0.0
  0
VERTEX
  5
1F682
  8
0
 10
136.9775963227635
 20
156.70219782918281
 30
0.0
  0
VERTEX
  5
1F683
  8
0
 10
136.85965070954771
 20
156.73577783417809
 30
0.0
  0
VERTEX
  5
1F684
  8
0
 10
136.7142857249998
 20
156.75000000000031
 30
0.0
  0
SEQEND
  5
1F685
  8
0
  0
CIRCLE
  5
1F14C
  8
0
 10
140.9999999999998
 20
156.00000000000031
 30
0.0
 40
7.0099999999999989
  0
POLYLINE
  5
1F14D
  8
0
 66
     1
 10
0.0
 20
0.0
 30
0.0
  0
VERTEX
  5
1F686
  8
0
 10
143.14285714285691
 20
155.25000000000031
 30
0.0
  0
VERTEX
  5
1F687
  8
0
 10
143.0161531167642
 20
155.26085589160769
 30
0.0
  0
VERTEX
  5
1F688
  8
0
 10
142.8926832139544
 20
155.29295473603369
 30
0.0
  0
VERTEX
  5
1F689
  8
0
 10
142.77601121905391
 20
155.34593409858641
 30
0.0
  0
VERTEX
  5
1F68A
  8
0
 10
142.66963274017721
 20
155.41814205796601
 30
0.0
  0
VERTEX
  5
1F68B
  8
0
 10
142.5781353635264
 20
155.50657510229919
 30
0.0
  0
VERTEX
  5
1F68C
  8
0
 10
142.5026169782175
 20
155.60936905961989
 30
0.0
  0
VERTEX
  5
1F68D
  8
0
 10
142.4462865077827
 20
155.7222007913017
 30
0.0
  0
VERTEX
  5
1F68E
  8
0
 10
142.40947888461
 20
155.8429766567335
 30
0.0
  0
VERTEX
  5
1F68F
  8
0
 10
142.39363863761119
 20
155.96748275262149
 30
0.0
  0
VERTEX
  5
1F690
  8
0
 10
142.39863411927419
 20
156.09290904783441
 30
0.0
  0
VERTEX
  5
1F691
  8
0
 10
142.42453732767029
 20
156.2154147718031
 30
0.0
  0
VERTEX
  5
1F692
  8
0
 10
142.47027290511639
 20
156.3318590712081
 30
0.0
  0
VERTEX
  5
1F693
  8
0
 10
142.53482005343369
 20
156.43895177170961
 30
0.0
  0
VERTEX
  5
1F694
  8
0
 10
142.61597028016831
 20
156.5337510973539
 30
0.0
  0
VERTEX
  5
1F695
  8
0
 10
142.71201869308101
 20
156.61381431498671
 30
0.0
  0
VERTEX
  5
1F696
  8
0
 10
142.81961250604741
 20
156.67676650683541
 30
0.0
  0
VERTEX
  5
1F697
  8
0
 10
142.93703593996841
 20
156.72113145831989
 30
0.0
  0
VERTEX
  5
1F698
  8
0
 10
143.05976569110319
 20
156.74538299594619
 30
0.0
  0
VERTEX
  5
1F699
  8
0
 10
143.18651825221119
 20
156.74865782367471
 30
0.0
  0
VERTEX
  5
1F69A
  8
0
 10
143.3117766065748
 20
156.73072991917499
 30
0.0
  0
VERTEX
  5
1F69B
  8
0
 10
143.43409875434401
 20
156.69106435855261
 30
0.0
  0
VERTEX
  5
1F69C
  8
0
 10
143.54801576316549
 20
156.6311469657615
 30
0.0
  0
VERTEX
  5
1F69D
  8
0
 10
143.65064991721039
 20
156.55184063898281
 30
0.0
  0
VERTEX
  5
1F69E
  8
0
 10
143.7385232277849
 20
156.45572131315839
 30
0.0
  0
VERTEX
  5
1F69F
  8
0
 10
143.807535623723
 20
156.34723774558711
 30
0.0
  0
VERTEX
  5
1F6A0
  8
0
 10
143.8573445290678
 20
156.2280521320788
 30
0.0
  0
VERTEX
  5
1F6A1
  8
0
 10
143.88524424266959
 20
156.10599822595171
 30
0.0
  0
VERTEX
  5
1F6A2
  8
0
 10
143.89261110082469
 20
155.98079056191199
 30
0.0
  0
VERTEX
  5
1F6A3
  8
0
 10
143.8795060527589
 20
155.85951229475921
 30
0.0
  0
VERTEX
  5
1F6A4
  8
0
 10
143.84715098939139
 20
155.7421818902142
 30
0.0
  0
VERTEX
  5
1F6A5
  8
0
 10
143.7962911428871
 20
155.63199861240031
 30
0.0
  0
VERTEX
  5
1F6A6
  8
0
 10
143.72877650161121
 20
155.53181360011561
 30
0.0
  0
VERTEX
  5
1F6A7
  8
0
 10
143.64391808064801
 20
155.44201943075791
 30
0.0
  0
VERTEX
  5
1F6A8
  8
0
 10
143.54594228088791
 20
155.3675267819913
 30
0.0
  0
VERTEX
  5
1F6A9
  8
0
 10
143.43350826642339
 20
155.3086827593003
 30
0.0
  0
VERTEX
  5
1F6AA
  8
0
 10
143.31291838176699
 20
155.26953495975499
 30
0.0
  0
VERTEX
  5
1F6AB
  8
0
 10
143.14285714285691
 20
155.25000000000031
 30
0.0
  0
SEQEND
  5
1F6AC
  8
0
  0
POLYLINE
  5
1F14E
  8
0
 66
     1
 10
0.0
 20
0.0
 30
0.0
  0
VERTEX
  5
1F6AD
  8
0
 10
138.85714285714261
 20
155.25000000000031
 30
0.0
  0
VERTEX
  5
1F6AE
  8
0
 10
138.7283632951482
 20
155.26121455325099
 30
0.0
  0
VERTEX
  5
1F6AF
  8
0
 10
138.6035318602143
 20
155.2941802905581
 30
0.0
  0
VERTEX
  5
1F6B0
  8
0
 10
138.48622035022419
 20
155.34822914270171
 30
0.0
  0
VERTEX
  5
1F6B1
  8
0
 10
138.37962530463031
 20
155.42166014572541
 30
0.0
  0
VERTEX
  5
1F6B2
  8
0
 10
138.2872341471265
 20
155.5125766725391
 30
0.0
  0
VERTEX
  5
1F6B3
  8
0
 10
138.21143530931059
 20
155.61847442723649
 30
0.0
  0
VERTEX
  5
1F6B4
  8
0
 10
138.15618973167099
 20
155.73347543569761
 30
0.0
  0
VERTEX
  5
1F6B5
  8
0
 10
138.12097322634099
 20
155.85663237922961
 30
0.0
  0
VERTEX
  5
1F6B6
  8
0
 10
138.10749554978631
 20
155.97981639456461
 30
0.0
  0
VERTEX
  5
1F6B7
  8
0
 10
138.11433112668999
 20
156.10358925186549
 30
0.0
  0
VERTEX
  5
1F6B8
  8
0
 10
138.14084768280429
 20
156.22206919961519
 30
0.0
  0
VERTEX
  5
1F6B9
  8
0
 10
138.18582242759069
 20
156.33440825478189
 30
0.0
  0
VERTEX
  5
1F6BA
  8
0
 10
138.24888768294159
 20
156.43866731722241
 30
0.0
  0
VERTEX
  5
1F6BB
  8
0
 10
138.32750990033159
 20
156.53102629978179
 30
0.0
  0
VERTEX
  5
1F6BC
  8
0
 10
138.42284812958329
 20
156.611384632408
 30
0.0
  0
VERTEX
  5
1F6BD
  8
0
 10
138.5297835982997
 20
156.67478582946751
 30
0.0
  0
VERTEX
  5
1F6BE
  8
0
 10
138.64924177226001
 20
156.7205350295223
 30
0.0
  0
VERTEX
  5
1F6BF
  8
0
 10
138.774738176905
 20
156.74545923340929
 30
0.0
  0
VERTEX
  5
1F6C0
  8
0
 10
138.9042809919415
 20
156.74843813346189
 30
0.0
  0
VERTEX
  5
1F6C1
  8
0
 10
139.03278279381371
 20
156.7291437530738
 30
0.0
  0
VERTEX
  5
1F6C2
  8
0
 10
139.15524722618309
 20
156.688120356132
 30
0.0
  0
VERTEX
  5
1F6C3
  8
0
 10
139.26931701193271
 20
156.62658795561629
 30
0.0
  0
VERTEX
  5
1F6C4
  8
0
 10
139.3695834616268
 20
156.547523682183
 30
0.0
  0
VERTEX
  5
1F6C5
  8
0
 10
139.45531672284261
 20
156.4524246085191
 30
0.0
  0
VERTEX
  5
1F6C6
  8
0
 10
139.5227259185807
 20
156.34551568961399
 30
0.0
  0
VERTEX
  5
1F6C7
  8
0
 10
139.5714289696065
 20
156.2286817647767
 30
0.0
  0
VERTEX
  5
1F6C8
  8
0
 10
139.5995061208335
 20
156.10621643025959
 30
0.0
  0
VERTEX
  5
1F6C9
  8
0
 10
139.60689546824401
 20
155.98073806482489
 30
0.0
  0
VERTEX
  5
1F6CA
  8
0
 10
139.59315310855479
 20
155.8562100413551
 30
0.0
  0
VERTEX
  5
1F6CB
  8
0
 10
139.5590426905701
 20
155.73573380118859
 30
0.0
  0
VERTEX
  5
1F6CC
  8
0
 10
139.50529379063539
 20
155.62278944686011
 30
0.0
  0
VERTEX
  5
1F6CD
  8
0
 10
139.4337773279741
 20
155.52042447200819
 30
0.0
  0
VERTEX
  5
1F6CE
  8
0
 10
139.34605767237969
 20
155.43136010677929
 30
0.0
  0
VERTEX
  5
1F6CF
  8
0
 10
139.24514994903109
 20
155.3581663014115
 30
0.0
  0
VERTEX
  5
1F6D0
  8
0
 10
139.13283993287899
 20
155.30258827137271
 30
0.0
  0
VERTEX
  5
1F6D1
  8
0
 10
139.01330489031719
 20
155.26643785580609
 30
0.0
  0
VERTEX
  5
1F6D2
  8
0
 10
138.85714285714261
 20
155.25000000000031
 30
0.0
  0
SEQEND
  5
1F6D3
  8
0
  0
POLYLINE
  5
1F14F
  8
0
 66
     1
 10
0.0
 20
0.0
 30
0.0
  0
VERTEX
  5
1F6D4
  8
0
 10
140.9999999999998
 20
155.25000000000031
 30
0.0
  0
VERTEX
  5
1F6D5
  8
0
 10
140.8742763630452
 20
155.26068948334731
 30
0.0
  0
VERTEX
  5
1F6D6
  8
0
 10
140.7521008863759
 20
155.29215395073209
 30
0.0
  0
VERTEX
  5
1F6D7
  8
0
 10
140.6370219486715
 20
155.34377232521311
 30
0.0
  0
VERTEX
  5
1F6D8
  8
0
 10
140.53215499176349
 20
155.41380801074391
 30
0.0
  0
VERTEX
  5
1F6D9
  8
0
 10
140.4404818013669
 20
155.50067336432221
 30
0.0
  0
VERTEX
  5
1F6DA
  8
0
 10
140.3645621648219
 20
155.6016047720864
 30
0.0
  0
VERTEX
  5
1F6DB
  8
0
 10
140.30672968109261
 20
155.7140587195095
 30
0.0
  0
VERTEX
  5
1F6DC
  8
0
 10
140.26846337403239
 20
155.83460905445531
 30
0.0
  0
VERTEX
  5
1F6DD
  8
0
 10
140.25115971896469
 20
155.95969986809209
 30
0.0
  0
VERTEX
  5
1F6DE
  8
0
 10
140.25493896040399
 20
156.08593047932209
 30
0.0
  0
VERTEX
  5
1F6DF
  8
0
 10
140.27992490502811
 20
156.20947352775221
 30
0.0
  0
VERTEX
  5
1F6E0
  8
0
 10
140.32509866573511
 20
156.32712106170021
 30
0.0
  0
VERTEX
  5
1F6E1
  8
0
 10
140.38951444845111
 20
156.43554057683531
 30
0.0
  0
VERTEX
  5
1F6E2
  8
0
 10
140.471062585494
 20
156.53171910962101
 30
0.0
  0
VERTEX
  5
1F6E3
  8
0
 10
140.56789890425799
 20
156.61292399610011
 30
0.0
  0
VERTEX
  5
1F6E4
  8
0
 10
140.6769340612918
 20
156.6768518296106
 30
0.0
  0
VERTEX
  5
1F6E5
  8
0
 10
140.7952434605341
 20
156.7214295366571
 30
0.0
  0
VERTEX
  5
1F6E6
  8
0
 10
140.91935277165459
 20
156.74565140954769
 30
0.0
  0
VERTEX
  5
1F6E7
  8
0
 10
141.04550468746291
 20
156.7485422977033
 30
0.0
  0
VERTEX
  5
1F6E8
  8
0
 10
141.1703717177005
 20
156.7303926874005
 30
0.0
  0
VERTEX
  5
1F6E9
  8
0
 10
141.29024212664109
 20
156.69148195376931
 30
0.0
  0
VERTEX
  5
1F6EA
  8
0
 10
141.40195280250009
 20
156.6331934495575
 30
0.0
  0
VERTEX
  5
1F6EB
  8
0
 10
141.50238505159541
 20
156.55677401959599
 30
0.0
  0
VERTEX
  5
1F6EC
  8
0
 10
141.58868686854549
 20
156.4647018084774
 30
0.0
  0
VERTEX
  5
1F6ED
  8
0
 10
141.65831952228379
 20
156.359168526514
 30
0.0
  0
VERTEX
  5
1F6EE
  8
0
 10
141.70937926245779
 20
156.24347702559911
 30
0.0
  0
VERTEX
  5
1F6EF
  8
0
 10
141.7401132423625
 20
156.12090536593851
 30
0.0
  0
VERTEX
  5
1F6F0
  8
0
 10
141.74998273060061
 20
155.99491042235789
 30
0.0
  0
VERTEX
  5
1F6F1
  8
0
 10
141.7384542274946
 20
155.86933966544211
 30
0.0
  0
VERTEX
  5
1F6F2
  8
0
 10
141.70620067813709
 20
155.7474517824291
 30
0.0
  0
VERTEX
  5
1F6F3
  8
0
 10
141.6538630602895
 20
155.6327790677538
 30
0.0
  0
VERTEX
  5
1F6F4
  8
0
 10
141.58319570356969
 20
155.52842522190289
 30
0.0
  0
VERTEX
  5
1F6F5
  8
0
 10
141.49574285221161
 20
155.43730408009091
 30
0.0
  0
VERTEX
  5
1F6F6
  8
0
 10
141.39432293978479
 20
155.36202710154819
 30
0.0
  0
VERTEX
  5
1F6F7
  8
0
 10
141.28150165506139
 20
155.3049151544852
 30
0.0
  0
VERTEX
  5
1F6F8
  8
0
 10
141.16070937973231
 20
155.26742065599299
 30
0.0
  0
VERTEX
  5
1F6F9
  8
0
 10
140.9999999999998
 20
155.25000000000031
 30
0.0
  0
SEQEND
  5
1F6FA
  8
0
  0
POLYLINE
  5
1F150
  8
0
 66
     1
 10
0.0
 20
0.0
 30
0.0
  0
VERTEX
  5
1F6FB
  8
0
 10
109.6304353428857
 20
158.8636363636366
 30
0.0
  0
VERTEX
  5
1F6FC
  8
0
 10
109.631178509153
 20
158.87158271319629
 30
0.0
  0
VERTEX
  5
1F6FD
  8
0
 10
109.6572469018147
 20
159.0495354098847
 30
0.0
  0
VERTEX
  5
1F6FE
  8
0
 10
109.7010970472458
 20
159.22451174632809
 30
0.0
  0
VERTEX
  5
1F6FF
  8
0
 10
109.76313852336349
 20
159.39635948384901
 30
0.0
  0
VERTEX
  5
1F700
  8
0
 10
109.843060462379
 20
159.56246638637549
 30
0.0
  0
VERTEX
  5
1F701
  8
0
 10
109.9432824266509
 20
159.724934067047
 30
0.0
  0
VERTEX
  5
1F702
  8
0
 10
110.0621178665254
 20
159.8781549544795
 30
0.0
  0
VERTEX
  5
1F703
  8
0
 10
110.2008693657716
 20
160.02153307232871
 30
0.0
  0
VERTEX
  5
1F704
  8
0
 10
110.3584434355173
 20
160.1514674880539
 30
0.0
  0
VERTEX
  5
1F705
  8
0
 10
110.5786591994767
 20
160.2896915380968
 30
0.0
  0
VERTEX
  5
1F706
  8
0
 10
110.8282606859464
 20
160.39891338326439
 30
0.0
  0
VERTEX
  5
1F707
  8
0
 10
111.11091253718151
 20
160.4727415818686
 30
0.0
  0
VERTEX
  5
1F708
  8
0
 10
111.2637477531421
 20
160.4929466612989
 30
0.0
  0
VERTEX
  5
1F709
  8
0
 10
111.42298189472081
 20
160.50000000000031
 30
0.0
  0
SEQEND
  5
1F70A
  8
0
  0
POLYLINE
  5
1F151
  8
0
 66
     1
 10
0.0
 20
0.0
 30
0.0
  0
VERTEX
  5
1F70B
  8
0
 10
111.42298189472081
 20
151.50000000000031
 30
0.0
  0
VERTEX
  5
1F70C
  8
0
 10
111.1799172632892
 20
151.51646785504619
 30
0.0
  0
VERTEX
  5
1F70D
  8
0
 10
110.952548845831
 20
151.56256144093919
 30
0.0
  0
VERTEX
  5
1F70E
  8
0
 10
110.737948855713
 20
151.6354379756695
 30
0.0
  0
VERTEX
  5
1F70F
  8
0
 10
110.54155321697409
 20
151.7305786142515
 30
0.0
  0
VERTEX
  5
1F710
  8
0
 10
110.3471020043161
 20
151.856890659708
 30
0.0
  0
VERTEX
  5
1F711
  8
0
 10
110.1753339290035
 20
152.0025320968125
 30
0.0
  0
VERTEX
  5
1F712
  8
0
 10
110.0267000004813
 20
152.16404363119949
 30
0.0
  0
VERTEX
  5
1F713
  8
0
 10
109.8981129250983
 20
152.34356529754089
 30
0.0
  0
VERTEX
  5
1F714
  8
0
 10
109.79392230070781
 20
152.5344002313993
 30
0.0
  0
VERTEX
  5
1F715
  8
0
 10
109.7143374397313
 20
152.73384266636091
 30
0.0
  0
VERTEX
  5
1F716
  8
0
 10
109.661639888097
 20
152.92895507589759
 30
0.0
  0
VERTEX
  5
1F717
  8
0
 10
109.631178509153
 20
153.12841728680351
 30
0.0
  0
VERTEX
  5
1F718
  8
0
 10
109.6304353428858
 20
153.13636363636391
 30
0.0
  0
SEQEND
  5
1F719
  8
0
  0
ARC
  5
1F152
  8
0
 10
140.99999999999801
 20
156.00000000000031
 30
0.0
 40
31.4999999999979
 50
174.78413699482431
 51
185.2159727318716
  0
POLYLINE
  5
1F153
  8
0
 66
     1
 10
0.0
 20
0.0
 30
0.0
  0
VERTEX
  5
1F71A
  8
0
 10
172.3695646571139
 20
153.13636363636391
 30
0.0
  0
VERTEX
  5
1F71B
  8
0
 10
172.3688214908465
 20
153.1284172868034
 30
0.0
  0
VERTEX
  5
1F71C
  8
0
 10
172.3427530981844
 20
152.9504645901159
 30
0.0
  0
VERTEX
  5
1F71D
  8
0
 10
172.29890295275129
 20
152.77548825366421
 30
0.0
  0
VERTEX
  5
1F71E
  8
0
 10
172.23686147663119
 20
152.60364051613971
 30
0.0
  0
VERTEX
  5
1F71F
  8
0
 10
172.15693953761229
 20
152.4375336136099
 30
0.0
  0
VERTEX
  5
1F720
  8
0
 10
172.0567175733363
 20
152.2750659329356
 30
0.0
  0
VERTEX
  5
1F721
  8
0
 10
171.9378821334567
 20
152.12184504550089
 30
0.0
  0
VERTEX
  5
1F722
  8
0
 10
171.79913063420449
 20
151.97846692765009
 30
0.0
  0
VERTEX
  5
1F723
  8
0
 10
171.641556564452
 20
151.84853251192459
 30
0.0
  0
VERTEX
  5
1F724
  8
0
 10
171.42134080049479
 20
151.71030846188879
 30
0.0
  0
VERTEX
  5
1F725
  8
0
 10
171.17173931402891
 20
151.6010866167276
 30
0.0
  0
VERTEX
  5
1F726
  8
0
 10
170.88908746279969
 20
151.5272584181287
 30
0.0
  0
VERTEX
  5
1F727
  8
0
 10
170.73625224684801
 20
151.5070533387007
 30
0.0
  0
VERTEX
  5
1F728
  8
0
 10
170.5770181052788
 20
151.50000000000031
 30
0.0
  0
SEQEND
  5
1F729
  8
0
  0
POLYLINE
  5
1F154
  8
0
 66
     1
 10
0.0
 20
0.0
 30
0.0
  0
VERTEX
  5
1F72A
  8
0
 10
170.5770181052788
 20
160.50000000000031
 30
0.0
  0
VERTEX
  5
1F72B
  8
0
 10
170.82008273671039
 20
160.48353214495441
 30
0.0
  0
VERTEX
  5
1F72C
  8
0
 10
171.04745115416861
 20
160.43743855906141
 30
0.0
  0
VERTEX
  5
1F72D
  8
0
 10
171.26205114428649
 20
160.36456202433101
 30
0.0
  0
VERTEX
  5
1F72E
  8
0
 10
171.45844678302549
 20
160.26942138574901
 30
0.0
  0
VERTEX
  5
1F72F
  8
0
 10
171.6528979956835
 20
160.1431093402926
 30
0.0
  0
VERTEX
  5
1F730
  8
0
 10
171.82466607099599
 20
159.99746790318801
 30
0.0
  0
VERTEX
  5
1F731
  8
0
 10
171.97329999951819
 20
159.83595636880111
 30
0.0
  0
VERTEX
  5
1F732
  8
0
 10
172.10188707490121
 20
159.65643470245959
 30
0.0
  0
VERTEX
  5
1F733
  8
0
 10
172.2060776992918
 20
159.46559976860129
 30
0.0
  0
VERTEX
  5
1F734
  8
0
 10
172.28566256026821
 20
159.26615733363971
 30
0.0
  0
VERTEX
  5
1F735
  8
0
 10
172.3383601119026
 20
159.07104492410289
 30
0.0
  0
VERTEX
  5
1F736
  8
0
 10
172.3688214908465
 20
158.8715827131972
 30
0.0
  0
VERTEX
  5
1F737
  8
0
 10
172.3695646571137
 20
158.8636363636366
 30
0.0
  0
SEQEND
  5
1F738
  8
0
  0
ARC
  5
1F155
  8
0
 10
141.0000000000027
 20
156.00000000000031
 30
0.0
 40
31.499999999996788
 50
354.78402617101011
 51
5.2158656981294387
  0
ARC
  5
1F1EC
  8
0
 10
168.75000000000119
 20
60.999999999957993
 30
0.0
 40
7.9999999999999387
 50
355.33958061588447
 51
4.66041938411544
  0
ARC
  5
1F1ED
  8
0
 10
168.7500000000019
 20
60.999999999957993
 30
0.0
 40
6.9999999999992681
 50
354.67200209599798
 51
5.327997904001962
  0
LINE
  5
1F1EE
  8
0
 10
171.25000000000111
 20
64.40000000000046
 30
0.0
 11
171.25000000000111
 21
61.850000000000513
 31
0.0
  0
LINE
  5
1F1EF
  8
0
 10
171.25000000000111
 20
60.15000000000046
 30
0.0
 11
171.25000000000111
 21
57.600000000000513
 31
0.0
  0
LINE
  5
1F1F0
  8
0
 10
233.25000000000119
 20
60.500003952159233
 30
0.0
 11
233.25000000000119
 21
58.98155091096092
 31
0.0
  0
LINE
  5
1F1F1
  8
0
 10
233.25000000000119
 20
63.018449088955123
 30
0.0
 11
233.25000000000119
 21
61.499956262852741
 31
0.0
  0
ARC
  5
1F1F2
  8
0
 10
186.75000000000119
 20
61.000000000000483
 30
0.0
 40
2.2500000000000431
 50
65.375681647842129
 51
294.64854223596637
  0
ARC
  5
1F1F3
  8
0
 10
204.75000000000131
 20
61.000000000000483
 30
0.0
 40
2.2499999999999969
 50
192.83958840690451
 51
347.16041159309719
  0
ARC
  5
1F1F4
  8
0
 10
228.75000000000119
 20
60.999999999958078
 30
0.0
 40
2.249999999999984
 50
192.83958840690789
 51
347.16041159309549
  0
ARC
  5
1F1F5
  8
0
 10
222.75000000000119
 20
60.999999999958078
 30
0.0
 40
2.249999999999984
 50
192.83958840690789
 51
347.16041159309549
  0
ARC
  5
1F1F6
  8
0
 10
198.75000000000119
 20
61.000000000000483
 30
0.0
 40
2.25000000000004
 50
192.83958840690281
 51
347.16041159309719
  0
ARC
  5
1F1F7
  8
0
 10
210.75000000000119
 20
61.000000000000483
 30
0.0
 40
2.250000000000012
 50
192.8395884069061
 51
286.16814915248051
  0
ARC
  5
1F1F8
  8
0
 10
216.75000000000119
 20
60.999999999958078
 30
0.0
 40
2.249999999999984
 50
192.83958840690451
 51
347.16041159309549
  0
ARC
  5
1F1F9
  8
0
 10
192.75000000000119
 20
61.000000000000483
 30
0.0
 40
2.2500000000000342
 50
192.83958840690281
 51
347.16041159309719
  0
LINE
  5
1F1FA
  8
0
 10
224.94374109684929
 20
60.499999999958078
 30
0.0
 11
226.55625890315321
 21
60.499999999958078
 31
0.0
  0
LINE
  5
1F1FB
  8
0
 10
226.55625890315321
 20
61.499999999958078
 30
0.0
 11
224.94374109684929
 21
61.499999999958078
 31
0.0
  0
LINE
  5
1F1FC
  8
0
 10
190.21862696659821
 20
60.500000000000483
 30
0.0
 11
190.55625890315321
 21
60.500000000000483
 31
0.0
  0
LINE
  5
1F1FD
  8
0
 10
190.55625890315321
 20
61.500000000000483
 30
0.0
 11
190.21862696659801
 21
61.500000000000483
 31
0.0
  0
LINE
  5
1F1FE
  8
0
 10
213.3714156211519
 20
60.499999999958078
 30
0.0
 11
214.55625890315321
 21
60.499999999958078
 31
0.0
  0
LINE
  5
1F1FF
  8
0
 10
214.55625890315321
 20
61.499999999958078
 30
0.0
 11
214.14457378219271
 21
61.499999999958078
 31
0.0
  0
LINE
  5
1F200
  8
0
 10
218.94374109684929
 20
60.499999999958078
 30
0.0
 11
220.55625890315321
 21
60.499999999958078
 31
0.0
  0
LINE
  5
1F201
  8
0
 10
220.55625890315321
 20
61.499999999958078
 30
0.0
 11
218.94374109684929
 21
61.499999999958078
 31
0.0
  0
LINE
  5
1F202
  8
0
 10
200.94374109684929
 20
60.500000000000483
 30
0.0
 11
202.55625890315321
 21
60.500000000000483
 31
0.0
  0
LINE
  5
1F203
  8
0
 10
202.55625890315321
 20
61.500000000000483
 30
0.0
 11
200.94374109684929
 21
61.500000000000483
 31
0.0
  0
LINE
  5
1F204
  8
0
 10
194.94374109684929
 20
60.500000000000483
 30
0.0
 11
196.55625890315321
 21
60.500000000000483
 31
0.0
  0
LINE
  5
1F205
  8
0
 10
196.55625890315321
 20
61.500000000000483
 30
0.0
 11
194.94374109684929
 21
61.500000000000483
 31
0.0
  0
LINE
  5
1F206
  8
0
 10
230.94374109684929
 20
60.499999999958078
 30
0.0
 11
233.25000000000119
 21
60.499999999958078
 31
0.0
  0
LINE
  5
1F207
  8
0
 10
233.25000000000119
 20
61.499999999958078
 30
0.0
 11
230.94374109684929
 21
61.499999999958078
 31
0.0
  0
LINE
  5
1F208
  8
0
 10
206.94374109684929
 20
60.500000000000483
 30
0.0
 11
208.55625890315321
 21
60.500000000000483
 31
0.0
  0
LINE
  5
1F209
  8
0
 10
208.55625890315321
 20
61.500000000000483
 30
0.0
 11
206.94374109684929
 21
61.500000000000483
 31
0.0
  0
POLYLINE
  5
1F20A
  8
0
 66
     1
 10
0.0
 20
0.0
 30
0.0
 70
   128
  0
VERTEX
  5
1F739
  8
0
 10
171.25000000000111
 20
64.40000000000046
 30
0.0
  0
VERTEX
  5
1F73A
  8
0
 10
171.25001785720039
 20
64.404629074216956
 30
0.0
  0
VERTEX
  5
1F73B
  8
0
 10
171.4740716115486
 20
64.867630031922573
 30
0.0
  0
VERTEX
  5
1F73C
  8
0
 10
171.8500000000011
 20
65.000000000000483
 30
0.0
  0
SEQEND
  5
1F73D
  8
0
  0
LINE
  5
1F20B
  8
0
 10
176.75000000000119
 20
61.65000000000046
 30
0.0
 11
171.449999997021
 21
61.65000000000046
 31
0.0
  0
POLYLINE
  5
1F20C
  8
0
 66
     1
 10
0.0
 20
0.0
 30
0.0
 70
   128
  0
VERTEX
  5
1F73E
  8
0
 10
171.449999997021
 20
61.65000000000046
 30
0.0
  0
VERTEX
  5
1F73F
  8
0
 10
171.35338465282811
 20
61.674884396198912
 30
0.0
  0
VERTEX
  5
1F740
  8
0
 10
171.25001923084139
 20
61.847226560439061
 30
0.0
  0
VERTEX
  5
1F741
  8
0
 10
171.25000000000111
 20
61.850000000000513
 30
0.0
  0
SEQEND
  5
1F742
  8
0
  0
LINE
  5
1F20D
  8
0
 10
171.8500000000011
 20
65.000000000000483
 30
0.0
 11
186.25000000000119
 21
65.000000000000483
 31
0.0
  0
POLYLINE
  5
1F20E
  8
0
 66
     1
 10
0.0
 20
0.0
 30
0.0
 70
   128
  0
VERTEX
  5
1F743
  8
0
 10
171.25000000000111
 20
60.15000000000046
 30
0.0
  0
VERTEX
  5
1F744
  8
0
 10
171.25001923084139
 20
60.152773439561912
 30
0.0
  0
VERTEX
  5
1F745
  8
0
 10
171.35338465496031
 20
60.325115604978372
 30
0.0
  0
VERTEX
  5
1F746
  8
0
 10
171.45000000000121
 20
60.350000000000499
 30
0.0
  0
SEQEND
  5
1F747
  8
0
  0
POLYLINE
  5
1F20F
  8
0
 66
     1
 10
0.0
 20
0.0
 30
0.0
 70
   128
  0
VERTEX
  5
1F748
  8
0
 10
171.8500000000011
 20
57.000000000000369
 30
0.0
  0
VERTEX
  5
1F749
  8
0
 10
171.4740716115486
 20
57.132369968078279
 30
0.0
  0
VERTEX
  5
1F74A
  8
0
 10
171.25001785720039
 20
57.59537092578401
 30
0.0
  0
VERTEX
  5
1F74B
  8
0
 10
171.25000000000111
 20
57.600000000000513
 30
0.0
  0
SEQEND
  5
1F74C
  8
0
  0
LINE
  5
1F210
  8
0
 10
171.45000000000121
 20
60.350000000000499
 30
0.0
 11
177.05000000000121
 21
60.350000000000499
 31
0.0
  0
LINE
  5
1F211
  8
0
 10
186.25000000000119
 20
57.000000000000369
 30
0.0
 11
171.8500000000011
 21
57.000000000000369
 31
0.0
  0
LINE
  5
1F212
  8
0
 10
177.25000000000119
 20
59.850000000000499
 30
0.0
 11
177.25000000000119
 21
60.15000000000046
 31
0.0
  0
ARC
  5
1F213
  8
0
 10
177.05000000000121
 20
60.15000000000046
 30
0.0
 40
0.1999999999999886
 50
0.0
 51
90.0
  0
ARC
  5
1F214
  8
0
 10
176.75000000000119
 20
62.15000000000046
 30
0.0
 40
0.5
 50
270.0
 51
0.0
  0
ARC
  5
1F215
  8
0
 10
183.46391280584939
 20
57.466203437295832
 30
0.0
 40
1.999999999999994
 50
51.747334162148341
 51
86.500000000000284
  0
ARC
  5
1F216
  8
0
 10
186.25000000000119
 20
61.000000000000483
 30
0.0
 40
2.499999999999996
 50
231.74733416215321
 51
128.25266583785159
  0
ARC
  5
1F217
  8
0
 10
183.46391280584939
 20
64.533796562705135
 30
0.0
 40
2.0000000000000169
 50
273.49999999999972
 51
308.25266583785168
  0
ARC
  5
1F218
  8
0
 10
186.25000000000119
 20
61.000000000000483
 30
0.0
 40
4.0
 50
0.0
 51
90.0
  0
ARC
  5
1F219
  8
0
 10
186.25000000000119
 20
61.000000000000483
 30
0.0
 40
4.0000000000000284
 50
270.0
 51
0.0
  0
LINE
  5
1F21A
  8
0
 10
177.25000000000119
 20
59.850000000000499
 30
0.0
 11
183.58600988491921
 21
59.462473034139542
 31
0.0
  0
LINE
  5
1F21B
  8
0
 10
183.58600988491921
 20
62.537526965861417
 30
0.0
 11
177.25000000000119
 21
62.15000000000046
 31
0.0
  0
POLYLINE
  5
1F21C
  8
0
 66
     1
 10
0.0
 20
0.0
 30
0.0
 70
   128
  0
VERTEX
  5
1F74D
  8
0
 10
233.25000000000119
 20
58.98155091096092
 30
0.0
  0
VERTEX
  5
1F74E
  8
0
 10
233.2500173913707
 20
58.976982613094521
 30
0.0
  0
VERTEX
  5
1F74F
  8
0
 10
233.3787881437373
 20
58.610122066475149
 30
0.0
  0
VERTEX
  5
1F750
  8
0
 10
233.72013623163829
 20
58.395773306688987
 30
0.0
  0
SEQEND
  5
1F751
  8
0
  0
POLYLINE
  5
1F21D
  8
0
 66
     1
 10
0.0
 20
0.0
 30
0.0
 70
   128
  0
VERTEX
  5
1F752
  8
0
 10
233.72013623163829
 20
63.604226693227048
 30
0.0
  0
VERTEX
  5
1F753
  8
0
 10
233.3787881437373
 20
63.389877933440999
 30
0.0
  0
VERTEX
  5
1F754
  8
0
 10
233.2500173913707
 20
63.023017386823341
 30
0.0
  0
VERTEX
  5
1F755
  8
0
 10
233.25000000000119
 20
63.018449088955123
 30
0.0
  0
SEQEND
  5
1F756
  8
0
  0
ARC
  5
1F21E
  8
0
 10
229.25053196950179
 20
60.998020936193633
 30
0.0
 40
4.0308415497430179
 50
0.0281310997347572
 51
7.1532512242516351
  0
ARC
  5
1F21F
  8
0
 10
229.2509496115068
 20
61.001912917326337
 30
0.0
 40
4.0304238758512341
 50
352.8463812965631
 51
359.97280631039308
  0
ARC
  5
1F220
  8
0
 10
245.40291375262231
 20
57.999999999958654
 30
0.0
 40
7.9999999999994031
 50
90.0
 51
102.4999999999977
  0
LINE
  5
1F221
  8
0
 10
233.72013623163809
 20
63.604226693227048
 30
0.0
 11
243.6713968411178
 21
65.810368056917497
 31
0.0
  0
CIRCLE
  5
1F222
  8
0
 10
247.25000000000131
 20
60.999999999958078
 30
0.0
 40
4.0
  0
LINE
  5
1F223
  8
0
 10
243.6713968411178
 20
56.189631942998552
 30
0.0
 11
233.72013623163829
 21
58.395773306688987
 31
0.0
  0
LINE
  5
1F224
  8
0
 10
245.40291375262231
 20
55.999999999957957
 30
0.0
 11
247.25000000000131
 21
55.999999999957957
 31
0.0
  0
LINE
  5
1F225
  8
0
 10
196.55625890315321
 20
61.500000000000483
 30
0.0
 11
196.55625890315321
 21
60.500000000000483
 31
0.0
  0
ARC
  5
1F226
  8
0
 10
245.40291375262231
 20
63.999999999956138
 30
0.0
 40
7.9999999999981242
 50
257.4999999999992
 51
270.0
  0
LINE
  5
1F227
  8
0
 10
245.40291375262231
 20
65.999999999958078
 30
0.0
 11
247.25000000000131
 21
65.999999999958078
 31
0.0
  0
LINE
  5
1F228
  8
0
 10
208.55625890315321
 20
61.500000000000483
 30
0.0
 11
208.55625890315321
 21
60.500000000000483
 31
0.0
  0
ARC
  5
1F229
  8
0
 10
247.25000000000131
 20
60.999999999958078
 30
0.0
 40
5.0000000000000284
 50
270.0
 51
0.0000000004852763
  0
ARC
  5
1F22A
  8
0
 10
247.25000000000131
 20
60.999999999958078
 30
0.0
 40
5.0
 50
0.0000000004852763
 51
90.0
  0
CIRCLE
  5
1F22B
  8
0
 10
247.25000000000131
 20
60.999999999958078
 30
0.0
 40
2.5
  0
LINE
  5
1F22C
  8
0
 10
206.94374109684929
 20
60.500000000000483
 30
0.0
 11
206.94374109684929
 21
61.500000000000483
 31
0.0
  0
LINE
  5
1F22D
  8
0
 10
202.55625890315321
 20
61.500000000000483
 30
0.0
 11
202.55625890315321
 21
60.500000000000483
 31
0.0
  0
LINE
  5
1F22E
  8
0
 10
230.94374109684929
 20
60.499999999958078
 30
0.0
 11
230.94374109684929
 21
61.499999999958078
 31
0.0
  0
POLYLINE
  5
1F22F
  8
4
 66
     1
 10
0.0
 20
0.0
 30
0.0
  0
VERTEX
  5
1F230
  8
4
 10
212.00472035799149
 20
57.928112021593982
 30
0.0
 42
-0.0744127175610667
  0
VERTEX
  5
1F231
  8
4
 10
211.48022520080221
 20
58.622078015563631
 30
0.0
 42
-0.1536795722212451
  0
VERTEX
  5
1F232
  8
4
 10
211.21649242503611
 20
59.966745035897731
 30
0.0
 42
-0.1847247553159499
  0
VERTEX
  5
1F233
  8
4
 10
211.74999866070959
 20
60.999999999915673
 30
0.0
 42
0.1729818233278114
  0
VERTEX
  5
1F234
  8
4
 10
212.34226764483591
 20
62.085719582096573
 30
0.0
 42
0.1305645647028073
  0
VERTEX
  5
1F235
  8
4
 10
212.1868534890753
 20
63.591526013307693
 30
0.0
 42
0.0267269543158863
  0
VERTEX
  5
1F236
  8
4
 10
212.0381766104739
 20
63.928112021593989
 30
0.0
  0
SEQEND
  5
1F237
  8
4
  0
LINE
  5
1F238
  8
0
 10
226.55625890315321
 20
61.499999999958078
 30
0.0
 11
226.55625890315321
 21
60.499999999958078
 31
0.0
  0
ARC
  5
1F239
  8
0
 10
198.75000000000119
 20
61.000000000000483
 30
0.0
 40
2.25000000000004
 50
12.839588406901161
 51
167.16041159309879
  0
ARC
  5
1F23A
  8
0
 10
192.75000000000119
 20
61.000000000000483
 30
0.0
 40
2.2500000000000342
 50
12.839588406901161
 51
167.16041159309879
  0
LINE
  5
1F23B
  8
0
 10
224.94374109684929
 20
60.499999999958078
 30
0.0
 11
224.94374109684929
 21
61.499999999958078
 31
0.0
  0
LINE
  5
1F23C
  8
0
 10
220.55625890315321
 20
61.499999999958078
 30
0.0
 11
220.55625890315321
 21
60.499999999958078
 31
0.0
  0
ARC
  5
1F23D
  8
0
 10
204.75000000000131
 20
61.000000000000483
 30
0.0
 40
2.25000000000004
 50
12.839588406901161
 51
167.16041159309879
  0
LINE
  5
1F23E
  8
0
 10
200.94374109684929
 20
60.500000000000483
 30
0.0
 11
200.94374109684929
 21
61.500000000000483
 31
0.0
  0
ARC
  5
1F23F
  8
0
 10
228.75000000000119
 20
60.999999999958078
 30
0.0
 40
2.249999999999984
 50
12.83958840690787
 51
167.16041159309211
  0
ARC
  5
1F240
  8
0
 10
222.75000000000119
 20
60.999999999958078
 30
0.0
 40
2.249999999999984
 50
12.83958840690787
 51
167.16041159309211
  0
LINE
  5
1F241
  8
0
 10
218.94374109684929
 20
60.499999999958078
 30
0.0
 11
218.94374109684929
 21
61.499999999958078
 31
0.0
  0
LINE
  5
1F242
  8
0
 10
214.55625890315321
 20
61.499999999958078
 30
0.0
 11
214.55625890315321
 21
60.499999999958078
 31
0.0
  0
LINE
  5
1F243
  8
0
 10
194.94374109684929
 20
60.500000000000483
 30
0.0
 11
194.94374109684929
 21
61.500000000000483
 31
0.0
  0
LINE
  5
1F244
  8
0
 10
190.55625890315321
 20
61.500000000000483
 30
0.0
 11
190.55625890315321
 21
60.500000000000483
 31
0.0
  0
POLYLINE
  5
1F245
  8
4
 66
     1
 10
0.0
 20
0.0
 30
0.0
  0
VERTEX
  5
1F246
  8
4
 10
214.00472035795801
 20
57.928112021593982
 30
0.0
 42
-0.0744127175610667
  0
VERTEX
  5
1F247
  8
4
 10
213.48022520076881
 20
58.622078015563631
 30
0.0
 42
-0.1536795722212451
  0
VERTEX
  5
1F248
  8
4
 10
213.21649242500271
 20
59.966745035897731
 30
0.0
 42
-0.1847247553159499
  0
VERTEX
  5
1F249
  8
4
 10
213.7499986606762
 20
60.999999999915673
 30
0.0
 42
0.1729818233278114
  0
VERTEX
  5
1F24A
  8
4
 10
214.34226764480249
 20
62.085719582096573
 30
0.0
 42
0.1305645647028073
  0
VERTEX
  5
1F24B
  8
4
 10
214.18685348904199
 20
63.591526013307693
 30
0.0
 42
0.0267269543158863
  0
VERTEX
  5
1F24C
  8
4
 10
214.0381766104405
 20
63.928112021593989
 30
0.0
  0
SEQEND
  5
1F24D
  8
4
  0
LINE
  5
1F24E
  8
2
 10
173.75000000000111
 20
63.500000000000263
 30
0.0
 11
173.75000000000111
 21
61.65000000000046
 31
0.0
  0
LINE
  5
1F24F
  8
2
 10
178.75000000000119
 20
62.241743930226143
 30
0.0
 11
178.75000000000119
 21
63.500000000000483
 31
0.0
  0
LINE
  5
1F250
  8
2
 10
173.75000000000111
 20
60.350000000000499
 30
0.0
 11
173.75000000000111
 21
58.500000000000597
 31
0.0
  0
LINE
  5
1F251
  8
2
 10
178.75000000000119
 20
58.500000000000483
 30
0.0
 11
178.75000000000119
 21
59.758256069774717
 31
0.0
  0
ARC
  5
1F252
  8
0
 10
210.75000000000119
 20
61.000000000000483
 30
0.0
 40
2.25000000000004
 50
43.635208626997567
 51
167.16041159309879
  0
LINE
  5
1F253
  8
2
 10
173.75000000000091
 20
63.500000000000483
 30
0.0
 11
172.25000000000091
 21
65.000000000000483
 31
0.0
  0
LINE
  5
1F254
  8
1
 10
176.25000000000119
 20
66.500000000000483
 30
0.0
 11
176.25000000000119
 21
55.500000000000369
 31
0.0
  0
ARC
  5
1F255
  8
0
 10
216.75000000000119
 20
60.999999999958078
 30
0.0
 40
2.249999999999984
 50
12.83958840690787
 51
167.16041159309879
  0
LINE
  5
1F256
  8
2
 10
173.7499999999998
 20
58.499999999999233
 30
0.0
 11
178.75000000000119
 21
58.50000000000162
 31
0.0
  0
LINE
  5
1F257
  8
2
 10
173.7500000000021
 20
63.499999999999233
 30
0.0
 11
178.75000000000011
 21
63.50000000000162
 31
0.0
  0
LINE
  5
1F258
  8
2
 10
180.25000000000119
 20
57.000000000000369
 30
0.0
 11
178.75000000000119
 21
58.500000000000483
 31
0.0
  0
LINE
  5
1F259
  8
2
 10
178.75000000000119
 20
63.500000000000483
 30
0.0
 11
180.25000000000119
 21
65.000000000000483
 31
0.0
  0
LINE
  5
1F25A
  8
2
 10
172.25000000000091
 20
57.000000000000369
 30
0.0
 11
173.75000000000091
 21
58.500000000000483
 31
0.0
  0
LINE
  5
1F25B
  8
1
 10
247.25000000000131
 20
66.499999999958078
 30
0.0
 11
247.25000000000131
 21
55.499999999957957
 31
0.0
  0
LINE
  5
1F25C
  8
1
 10
186.75000000000119
 20
64.750000000000483
 30
0.0
 11
186.75000000000119
 21
57.250000000000362
 31
0.0
  0
LINE
  5
1F25D
  8
1
 10
236.75000000000131
 20
65.81235059068004
 30
0.0
 11
236.75000000000131
 21
56.187649409235888
 31
0.0
  0
LINE
  5
1F25E
  8
0
 10
252.25000000000159
 20
156.85000000000019
 30
0.0
 11
252.25000000000159
 21
159.40000000000009
 31
0.0
  0
LINE
  5
1F25F
  8
0
 10
252.25000000000159
 20
152.60000000000019
 30
0.0
 11
252.25000000000159
 21
155.1500000000002
 31
0.0
  0
LINE
  5
1F260
  8
0
 10
190.25000000000131
 20
156.50000000000031
 30
0.0
 11
190.25000000000131
 21
158.0184490889973
 31
0.0
  0
LINE
  5
1F261
  8
0
 10
190.25000000000131
 20
153.98155091100321
 30
0.0
 11
190.25000000000131
 21
155.50000000000031
 31
0.0
  0
ARC
  5
1F262
  8
0
 10
222.75000000000159
 20
156.00000000000031
 30
0.0
 40
2.249999999999984
 50
192.8395884069061
 51
347.16041159309549
  0
ARC
  5
1F263
  8
0
 10
216.75000000000159
 20
156.00000000000031
 30
0.0
 40
2.25
 50
12.83958840690619
 51
167.16041159309711
  0
ARC
  5
1F264
  8
0
 10
216.75000000000159
 20
156.00000000000031
 30
0.0
 40
2.249999999999984
 50
192.83958840690451
 51
347.16041159309549
  0
ARC
  5
1F265
  8
0
 10
228.75000000000159
 20
156.00000000000031
 30
0.0
 40
2.249999999999984
 50
192.8395884069061
 51
347.16041159309549
  0
ARC
  5
1F266
  8
0
 10
192.75000000000139
 20
156.00000000000031
 30
0.0
 40
2.2500000000000062
 50
12.83958840690452
 51
167.16041159309549
  0
ARC
  5
1F267
  8
0
 10
192.75000000000139
 20
156.00000000000031
 30
0.0
 40
2.2500000000000062
 50
192.83958840690281
 51
347.16041159309719
  0
ARC
  5
1F268
  8
0
 10
204.75000000000139
 20
156.00000000000031
 30
0.0
 40
2.2500000000000062
 50
192.83958840690451
 51
347.16041159309719
  0
ARC
  5
1F269
  8
0
 10
236.75000000000159
 20
156.00000000000031
 30
0.0
 40
2.2500000000000129
 50
245.23573932699611
 51
114.624318352176
  0
ARC
  5
1F26A
  8
0
 10
198.75000000000131
 20
156.00000000000031
 30
0.0
 40
2.2500000000000062
 50
192.83958840690281
 51
347.16041159309719
  0
ARC
  5
1F26B
  8
0
 10
210.75000000000139
 20
156.00000000000031
 30
0.0
 40
2.2500000000000342
 50
192.8395884069061
 51
286.16814915248051
  0
ARC
  5
1F26C
  8
0
 10
210.75000000000139
 20
156.00000000000031
 30
0.0
 40
2.25
 50
43.635208626986923
 51
167.16041159309381
  0
LINE
  5
1F26D
  8
0
 10
218.94374109684941
 20
155.50000000000031
 30
0.0
 11
220.5562589031536
 21
155.50000000000031
 31
0.0
  0
LINE
  5
1F26E
  8
0
 10
220.5562589031536
 20
156.50000000000031
 30
0.0
 11
218.94374109684941
 21
156.50000000000031
 31
0.0
  0
LINE
  5
1F26F
  8
0
 10
230.94374109684941
 20
155.50000000000031
 30
0.0
 11
233.2813730334012
 21
155.50000000000031
 31
0.0
  0
LINE
  5
1F270
  8
0
 10
233.2813730334012
 20
156.50000000000031
 30
0.0
 11
230.94374109684941
 21
156.50000000000031
 31
0.0
  0
LINE
  5
1F271
  8
0
 10
206.94374109684941
 20
155.50000000000031
 30
0.0
 11
208.55625890315329
 21
155.50000000000031
 31
0.0
  0
LINE
  5
1F272
  8
0
 10
208.55625890315329
 20
156.50000000000031
 30
0.0
 11
206.94374109684941
 21
156.50000000000031
 31
0.0
  0
LINE
  5
1F273
  8
0
 10
224.94374109684941
 20
155.50000000000031
 30
0.0
 11
226.5562589031536
 21
155.50000000000031
 31
0.0
  0
LINE
  5
1F274
  8
0
 10
226.5562589031536
 20
156.50000000000031
 30
0.0
 11
224.94374109684941
 21
156.50000000000031
 31
0.0
  0
LINE
  5
1F275
  8
0
 10
200.94374109684941
 20
155.50000000000031
 30
0.0
 11
202.55625890315329
 21
155.50000000000031
 31
0.0
  0
LINE
  5
1F276
  8
0
 10
202.55625890315329
 20
156.50000000000031
 30
0.0
 11
200.94374109684941
 21
156.50000000000031
 31
0.0
  0
LINE
  5
1F277
  8
0
 10
194.94374109684941
 20
155.50000000000031
 30
0.0
 11
196.55625890315329
 21
155.50000000000031
 31
0.0
  0
LINE
  5
1F278
  8
0
 10
196.55625890315329
 20
156.50000000000031
 30
0.0
 11
194.94374109684941
 21
156.50000000000031
 31
0.0
  0
LINE
  5
1F279
  8
0
 10
190.25000000000131
 20
155.50000000000031
 30
0.0
 11
190.55625890315329
 21
155.50000000000031
 31
0.0
  0
LINE
  5
1F27A
  8
0
 10
190.55625890315329
 20
156.50000000000031
 30
0.0
 11
190.25000000000131
 21
156.50000000000031
 31
0.0
  0
LINE
  5
1F27B
  8
0
 10
213.37141562115221
 20
155.50000000000031
 30
0.0
 11
214.55625890315349
 21
155.50000000000031
 31
0.0
  0
LINE
  5
1F27C
  8
0
 10
214.55625890315349
 20
156.50000000000031
 30
0.0
 11
214.14457378219299
 21
156.50000000000031
 31
0.0
  0
POLYLINE
  5
1F27D
  8
0
 66
     1
 10
0.0
 20
0.0
 30
0.0
 70
   128
  0
VERTEX
  5
1F757
  8
0
 10
252.25000000000159
 20
156.85000000000019
 30
0.0
  0
VERTEX
  5
1F758
  8
0
 10
252.24998076916111
 20
156.8472265604394
 30
0.0
  0
VERTEX
  5
1F759
  8
0
 10
252.14661534504259
 20
156.6748843950223
 30
0.0
  0
VERTEX
  5
1F75A
  8
0
 10
252.0500000000016
 20
156.6500000000002
 30
0.0
  0
SEQEND
  5
1F75B
  8
0
  0
LINE
  5
1F27E
  8
0
 10
237.25000000000159
 20
160.00000000000031
 30
0.0
 11
251.6500000000014
 21
160.00000000000031
 31
0.0
  0
POLYLINE
  5
1F27F
  8
0
 66
     1
 10
0.0
 20
0.0
 30
0.0
 70
   128
  0
VERTEX
  5
1F75C
  8
0
 10
251.6500000000014
 20
160.00000000000031
 30
0.0
  0
VERTEX
  5
1F75D
  8
0
 10
252.0259283884541
 20
159.86763003192229
 30
0.0
  0
VERTEX
  5
1F75E
  8
0
 10
252.24998214280251
 20
159.40462907421721
 30
0.0
  0
VERTEX
  5
1F75F
  8
0
 10
252.25000000000159
 20
159.40000000000009
 30
0.0
  0
SEQEND
  5
1F760
  8
0
  0
LINE
  5
1F280
  8
0
 10
246.75000000000159
 20
156.6500000000002
 30
0.0
 11
252.0500000000016
 21
156.6500000000002
 31
0.0
  0
ARC
  5
1F281
  8
0
 10
246.75000000000159
 20
157.15000000000009
 30
0.0
 40
0.5
 50
179.99999999999349
 51
270.0
  0
POLYLINE
  5
1F282
  8
0
 66
     1
 10
0.0
 20
0.0
 30
0.0
 70
   128
  0
VERTEX
  5
1F761
  8
0
 10
252.25000000000159
 20
152.60000000000019
 30
0.0
  0
VERTEX
  5
1F762
  8
0
 10
252.24998214280251
 20
152.5953709257835
 30
0.0
  0
VERTEX
  5
1F763
  8
0
 10
252.0259283884541
 20
152.13236996807811
 30
0.0
  0
VERTEX
  5
1F764
  8
0
 10
251.6500000000014
 20
152.00000000000031
 30
0.0
  0
SEQEND
  5
1F765
  8
0
  0
LINE
  5
1F283
  8
0
 10
251.6500000000014
 20
152.00000000000031
 30
0.0
 11
237.25000000000159
 21
152.00000000000031
 31
0.0
  0
POLYLINE
  5
1F284
  8
0
 66
     1
 10
0.0
 20
0.0
 30
0.0
 70
   128
  0
VERTEX
  5
1F766
  8
0
 10
252.0500000000016
 20
155.35000000000019
 30
0.0
  0
VERTEX
  5
1F767
  8
0
 10
252.14661534504259
 20
155.32511560497821
 30
0.0
  0
VERTEX
  5
1F768
  8
0
 10
252.24998076916111
 20
155.15277343956191
 30
0.0
  0
VERTEX
  5
1F769
  8
0
 10
252.25000000000159
 20
155.1500000000002
 30
0.0
  0
SEQEND
  5
1F76A
  8
0
  0
LINE
  5
1F285
  8
0
 10
246.25000000000159
 20
155.1500000000002
 30
0.0
 11
246.25000000000159
 21
154.85000000000019
 31
0.0
  0
ARC
  5
1F286
  8
0
 10
246.45000000000141
 20
155.1500000000002
 30
0.0
 40
0.1999999999999815
 50
90.0
 51
180.0
  0
LINE
  5
1F287
  8
0
 10
252.0500000000016
 20
155.35000000000019
 30
0.0
 11
246.45000000000141
 21
155.35000000000019
 31
0.0
  0
ARC
  5
1F288
  8
0
 10
237.25000000000159
 20
156.00000000000031
 30
0.0
 40
4.0000000000001226
 50
90.0
 51
180.0
  0
ARC
  5
1F289
  8
0
 10
240.036087194153
 20
159.53379656270471
 30
0.0
 40
1.9999999999997899
 50
231.74733416214829
 51
266.50000000000682
  0
ARC
  5
1F28A
  8
0
 10
237.25000000000159
 20
156.00000000000031
 30
0.0
 40
2.500000000000099
 50
51.74733416215328
 51
308.25266938692192
  0
ARC
  5
1F28B
  8
0
 10
240.0360871941534
 20
152.46620343729541
 30
0.0
 40
2.000000000000151
 50
93.500000000006239
 51
128.25266140151089
  0
ARC
  5
1F28C
  8
0
 10
237.25000000000159
 20
156.00000000000031
 30
0.0
 40
4.0000000000001226
 50
180.0
 51
270.0
  0
LINE
  5
1F28D
  8
0
 10
246.25000000000159
 20
154.85000000000019
 30
0.0
 11
239.91399011508361
 21
154.46247303413921
 31
0.0
  0
LINE
  5
1F28E
  8
0
 10
239.91399011508361
 20
157.53752696586119
 30
0.0
 11
246.25000000000159
 21
157.1500000000002
 31
0.0
  0
ARC
  5
1F28F
  8
0
 10
178.0970862473803
 20
153.0000000000002
 30
0.0
 40
8.0000000000001137
 50
77.50000000000226
 51
90.0
  0
LINE
  5
1F290
  8
0
 10
189.77986376836429
 20
158.60422669326931
 30
0.0
 11
179.82860315888519
 21
160.8103680569597
 31
0.0
  0
LINE
  5
1F291
  8
0
 10
179.82860315888519
 20
151.18963194304069
 30
0.0
 11
189.77986376836449
 21
153.39577330673129
 31
0.0
  0
ARC
  5
1F292
  8
0
 10
178.0970862473803
 20
159.00000000000051
 30
0.0
 40
8.0000000000002931
 50
270.0
 51
282.50000000000091
  0
LINE
  5
1F293
  8
0
 10
178.0970862473803
 20
151.00000000000031
 30
0.0
 11
176.25000000000139
 21
151.00000000000031
 31
0.0
  0
ARC
  5
1F294
  8
0
 10
176.25000000000139
 20
156.00000000000031
 30
0.0
 40
5.0000000000000302
 50
218.35983807013329
 51
270.0
  0
ARC
  5
1F295
  8
0
 10
176.25000000000139
 20
156.00000000000031
 30
0.0
 40
5.0000000000000302
 50
90.0
 51
141.634998936898
  0
LINE
  5
1F296
  8
0
 10
178.0970862473803
 20
161.00000000000031
 30
0.0
 11
176.25000000000139
 21
161.00000000000031
 31
0.0
  0
ARC
  5
1F297
  8
0
 10
176.25000000000139
 20
156.00000000000031
 30
0.0
 40
4.0000000000000142
 50
199.201010960019
 51
160.798989039981
  0
ARC
  5
1F298
  8
0
 10
176.25000000000139
 20
156.00000000000031
 30
0.0
 40
2.5000000000000351
 50
191.5369590328165
 51
168.46304096718339
  0
POLYLINE
  5
1F299
  8
0
 66
     1
 10
0.0
 20
0.0
 30
0.0
 70
   128
  0
VERTEX
  5
1F76B
  8
0
 10
189.77986376836429
 20
153.3957733067312
 30
0.0
  0
VERTEX
  5
1F76C
  8
0
 10
190.12121185626549
 20
153.61012206651731
 30
0.0
  0
VERTEX
  5
1F76D
  8
0
 10
190.2499826086318
 20
153.97698261313511
 30
0.0
  0
VERTEX
  5
1F76E
  8
0
 10
190.25000000000131
 20
153.98155091100321
 30
0.0
  0
SEQEND
  5
1F76F
  8
0
  0
POLYLINE
  5
1F29A
  8
0
 66
     1
 10
0.0
 20
0.0
 30
0.0
 70
   128
  0
VERTEX
  5
1F770
  8
0
 10
190.25000000000131
 20
158.0184490889973
 30
0.0
  0
VERTEX
  5
1F771
  8
0
 10
190.2499826086318
 20
158.02301738686521
 30
0.0
  0
VERTEX
  5
1F772
  8
0
 10
190.12121185626549
 20
158.38987793348321
 30
0.0
  0
VERTEX
  5
1F773
  8
0
 10
189.77986376836429
 20
158.6042266932692
 30
0.0
  0
SEQEND
  5
1F774
  8
0
  0
POLYLINE
  5
1F29B
  8
0
 66
     1
 10
0.0
 20
0.0
 30
0.0
 70
   128
  0
VERTEX
  5
1F775
  8
0
 10
190.25000000000131
 20
155.50000000000031
 30
0.0
  0
VERTEX
  5
1F776
  8
0
 10
190.24660471826579
 20
155.52793085882189
 30
0.0
  0
VERTEX
  5
1F777
  8
0
 10
190.2378944588074
 20
155.60846173293609
 30
0.0
  0
VERTEX
  5
1F778
  8
0
 10
190.22758253187379
 20
155.7332364382907
 30
0.0
  0
VERTEX
  5
1F779
  8
0
 10
190.2201875238074
 20
155.88869423112229
 30
0.0
  0
VERTEX
  5
1F77A
  8
0
 10
190.21902249582121
 20
156.05603188666541
 30
0.0
  0
VERTEX
  5
1F77B
  8
0
 10
190.2245077108698
 20
156.2161285352596
 30
0.0
  0
VERTEX
  5
1F77C
  8
0
 10
190.23424564846479
 20
156.3524391965986
 30
0.0
  0
VERTEX
  5
1F77D
  8
0
 10
190.24405981033979
 20
156.45001529814209
 30
0.0
  0
VERTEX
  5
1F77E
  8
0
 10
190.249603460169
 20
156.49681771162631
 30
0.0
  0
VERTEX
  5
1F77F
  8
0
 10
190.25000000000131
 20
156.50000000000031
 30
0.0
  0
SEQEND
  5
1F780
  8
0
  0
LINE
  5
1F29E
  8
0
 10
224.94374109684941
 20
155.50000000000031
 30
0.0
 11
224.94374109684941
 21
156.50000000000031
 31
0.0
  0
LINE
  5
1F29F
  8
0
 10
220.5562589031536
 20
156.50000000000031
 30
0.0
 11
220.5562589031536
 21
155.50000000000031
 31
0.0
  0
LINE
  5
1F2A0
  8
0
 10
218.94374109684941
 20
155.50000000000031
 30
0.0
 11
218.94374109684941
 21
156.50000000000031
 31
0.0
  0
LINE
  5
1F2A1
  8
0
 10
214.55625890315349
 20
156.50000000000031
 30
0.0
 11
214.55625890315349
 21
155.50000000000031
 31
0.0
  0
LINE
  5
1F2A2
  8
0
 10
230.94374109684941
 20
155.50000000000031
 30
0.0
 11
230.94374109684941
 21
156.50000000000031
 31
0.0
  0
LINE
  5
1F2A3
  8
0
 10
226.5562589031536
 20
156.50000000000031
 30
0.0
 11
226.5562589031536
 21
155.50000000000031
 31
0.0
  0
LINE
  5
1F2A4
  8
0
 10
194.94374109684941
 20
155.50000000000031
 30
0.0
 11
194.94374109684941
 21
156.50000000000031
 31
0.0
  0
LINE
  5
1F2A5
  8
0
 10
190.55625890315329
 20
156.50000000000031
 30
0.0
 11
190.55625890315329
 21
155.50000000000031
 31
0.0
  0
LINE
  5
1F2A6
  8
0
 10
206.94374109684941
 20
155.50000000000031
 30
0.0
 11
206.94374109684941
 21
156.50000000000031
 31
0.0
  0
LINE
  5
1F2A7
  8
0
 10
202.55625890315329
 20
156.50000000000031
 30
0.0
 11
202.55625890315329
 21
155.50000000000031
 31
0.0
  0
LINE
  5
1F2A8
  8
0
 10
200.94374109684941
 20
155.50000000000031
 30
0.0
 11
200.94374109684941
 21
156.50000000000031
 31
0.0
  0
LINE
  5
1F2A9
  8
0
 10
196.55625890315329
 20
156.50000000000031
 30
0.0
 11
196.55625890315329
 21
155.50000000000031
 31
0.0
  0
LINE
  5
1F2AA
  8
0
 10
208.55625890315329
 20
156.50000000000031
 30
0.0
 11
208.55625890315329
 21
155.50000000000031
 31
0.0
  0
POLYLINE
  5
1F2AB
  8
4
 66
     1
 10
0.0
 20
0.0
 30
0.0
  0
VERTEX
  5
1F2AC
  8
4
 10
214.0047203579584
 20
152.9281120216786
 30
0.0
 42
-0.0744127175610667
  0
VERTEX
  5
1F2AD
  8
4
 10
213.48022520076921
 20
153.62207801564821
 30
0.0
 42
-0.1536795722212451
  0
VERTEX
  5
1F2AE
  8
4
 10
213.216492425003
 20
154.96674503598231
 30
0.0
 42
-0.1847247553159499
  0
VERTEX
  5
1F2AF
  8
4
 10
213.74999866067631
 20
156.00000000000031
 30
0.0
 42
0.1729818233278114
  0
VERTEX
  5
1F2B0
  8
4
 10
214.3422676448026
 20
157.08571958218121
 30
0.0
 42
0.1305645647028073
  0
VERTEX
  5
1F2B1
  8
4
 10
214.18685348904231
 20
158.5915260133923
 30
0.0
 42
0.0267269543158863
  0
VERTEX
  5
1F2B2
  8
4
 10
214.03817661044059
 20
158.9281120216786
 30
0.0
  0
SEQEND
  5
1F2B3
  8
4
  0
POLYLINE
  5
1F2B4
  8
4
 66
     1
 10
0.0
 20
0.0
 30
0.0
  0
VERTEX
  5
1F2B5
  8
4
 10
212.0047203579918
 20
152.9281120216786
 30
0.0
 42
-0.0744127175610667
  0
VERTEX
  5
1F2B6
  8
4
 10
211.48022520080261
 20
153.62207801564821
 30
0.0
 42
-0.1536795722212451
  0
VERTEX
  5
1F2B7
  8
4
 10
211.21649242503651
 20
154.96674503598231
 30
0.0
 42
-0.1847247553159499
  0
VERTEX
  5
1F2B8
  8
4
 10
211.74999866070971
 20
156.00000000000031
 30
0.0
 42
0.1729818233278114
  0
VERTEX
  5
1F2B9
  8
4
 10
212.34226764483611
 20
157.08571958218121
 30
0.0
 42
0.1305645647028073
  0
VERTEX
  5
1F2BA
  8
4
 10
212.1868534890757
 20
158.5915260133923
 30
0.0
 42
0.0267269543158863
  0
VERTEX
  5
1F2BB
  8
4
 10
212.03817661047401
 20
158.9281120216786
 30
0.0
  0
SEQEND
  5
1F2BC
  8
4
  0
ARC
  5
1F2BD
  8
0
 10
204.75000000000139
 20
156.00000000000031
 30
0.0
 40
2.2500000000000062
 50
12.839588406901161
 51
167.16041159309879
  0
ARC
  5
1F2BE
  8
0
 10
198.75000000000131
 20
156.00000000000031
 30
0.0
 40
2.2500000000000062
 50
12.839588406901161
 51
167.16041159309879
  0
ARC
  5
1F2BF
  8
0
 10
222.75000000000159
 20
156.00000000000031
 30
0.0
 40
2.249999999999984
 50
12.83958840690787
 51
167.16041159309211
  0
ARC
  5
1F2C0
  8
0
 10
228.75000000000159
 20
156.00000000000031
 30
0.0
 40
2.249999999999984
 50
12.83958840690787
 51
167.16041159309211
  0
LINE
  5
1F2C1
  8
2
 10
249.75000000000159
 20
158.50000000000031
 30
0.0
 11
244.75000000000159
 21
158.50000000000031
 31
0.0
  0
LINE
  5
1F2C2
  8
2
 10
249.75000000000159
 20
153.5000000000002
 30
0.0
 11
244.75000000000159
 21
153.5000000000002
 31
0.0
  0
LINE
  5
1F2C3
  8
2
 10
243.25000000000159
 20
160.00000000000031
 30
0.0
 11
244.75000000000159
 21
158.50000000000031
 31
0.0
  0
LINE
  5
1F2C4
  8
2
 10
249.75000000000159
 20
158.50000000000031
 30
0.0
 11
251.25000000000159
 21
160.00000000000031
 31
0.0
  0
LINE
  5
1F2C5
  8
2
 10
251.25000000000159
 20
152.00000000000031
 30
0.0
 11
249.75000000000159
 21
153.5000000000002
 31
0.0
  0
LINE
  5
1F2C6
  8
2
 10
244.75000000000159
 20
153.5000000000002
 30
0.0
 11
243.25000000000159
 21
152.00000000000031
 31
0.0
  0
LINE
  5
1F2C7
  8
2
 10
249.75000000000159
 20
156.6500000000002
 30
0.0
 11
249.75000000000159
 21
158.50000000000031
 31
0.0
  0
LINE
  5
1F2C8
  8
2
 10
244.75000000000159
 20
158.50000000000031
 30
0.0
 11
244.75000000000159
 21
157.24174393022599
 31
0.0
  0
LINE
  5
1F2C9
  8
2
 10
249.75000000000159
 20
153.5000000000002
 30
0.0
 11
249.75000000000159
 21
155.35000000000031
 31
0.0
  0
LINE
  5
1F2CA
  8
2
 10
244.75000000000159
 20
154.75825606977449
 30
0.0
 11
244.75000000000159
 21
153.5000000000002
 31
0.0
  0
LINE
  5
1F2CB
  8
1
 10
186.75000000000159
 20
160.8123505907223
 30
0.0
 11
186.75000000000159
 21
151.18764940927821
 31
0.0
  0
LINE
  5
1F2CC
  8
1
 10
236.75000000000159
 20
159.7500000000002
 30
0.0
 11
236.75000000000159
 21
152.25000000000031
 31
0.0
  0
LINE
  5
1F2CD
  8
1
 10
247.25000000000159
 20
161.50000000000031
 30
0.0
 11
247.25000000000159
 21
150.50000000000031
 31
0.0
  0
LINE
  5
1F421
  8
2
 10
54.188000000000002
 20
59.312000000000388
 30
0.0
 11
54.188000000000002
 21
78.500000000000398
 31
0.0
  0
LINE
  5
1F422
  8
2
 10
45.811999999999991
 20
78.500000000000398
 30
0.0
 11
45.811999999999991
 21
59.312000000000388
 31
0.0
  0
LINE
  5
1F423
  8
2
 10
45.811999999999991
 20
59.312000000000388
 30
0.0
 11
45.0
 21
58.500000000000398
 31
0.0
  0
LINE
  5
1F424
  8
2
 10
55.0
 20
58.500000000000398
 30
0.0
 11
54.188000000000002
 21
59.312000000000388
 31
0.0
  0
LINE
  5
1F425
  8
2
 10
45.811999999999991
 20
59.312000000000388
 30
0.0
 11
54.188000000000002
 21
59.312000000000388
 31
0.0
  0
LINE
  5
1F429
  8
2
 10
45.0
 20
58.500000000000398
 30
0.0
 11
45.0
 21
78.500000000000398
 31
0.0
  0
LINE
  5
1F42A
  8
2
 10
55.0
 20
58.500000000000398
 30
0.0
 11
55.0
 21
78.500000000000398
 31
0.0
  0
LINE
  5
1F42B
  8
2
 10
45.0
 20
78.500000000000398
 30
0.0
 11
55.0
 21
78.500000000000398
 31
0.0
  0
LINE
  5
1F42C
  8
2
 10
145.18799999999979
 20
59.312000000000388
 30
0.0
 11
145.18799999999979
 21
78.500000000000398
 31
0.0
  0
LINE
  5
1F42D
  8
2
 10
136.81199999999981
 20
78.500000000000398
 30
0.0
 11
136.81199999999981
 21
59.312000000000388
 31
0.0
  0
LINE
  5
1F42E
  8
2
 10
136.81199999999981
 20
59.312000000000388
 30
0.0
 11
135.9999999999998
 21
58.500000000000398
 31
0.0
  0
LINE
  5
1F42F
  8
2
 10
145.9999999999998
 20
58.500000000000398
 30
0.0
 11
145.18799999999979
 21
59.312000000000388
 31
0.0
  0
LINE
  5
1F430
  8
2
 10
136.81199999999981
 20
59.312000000000388
 30
0.0
 11
145.18799999999979
 21
59.312000000000388
 31
0.0
  0
LINE
  5
1F434
  8
2
 10
135.9999999999998
 20
58.500000000000398
 30
0.0
 11
135.9999999999998
 21
78.500000000000398
 31
0.0
  0
LINE
  5
1F435
  8
2
 10
145.9999999999998
 20
58.500000000000398
 30
0.0
 11
145.9999999999998
 21
78.500000000000398
 31
0.0
  0
LINE
  5
1F436
  8
2
 10
135.9999999999998
 20
78.500000000000398
 30
0.0
 11
145.9999999999998
 21
78.500000000000398
 31
0.0
  0
ENDSEC
  0
EOF
