  0
SECTION
  2
HEADER
  9
$ACADVER
  1
AC1009
  9
$INSBASE
 10
0.0
 20
0.0
 30
0.0
  9
$EXTMIN
 10
0.0
 20
-2.960436562073669
 30
0.0
  9
$EXTMAX
 10
153.0452855133515
 20
141.633726927851
 30
0.0
  9
$LIMMIN
 10
0.0
 20
0.0
  9
$LIMMAX
 10
187.5
 20
135.0
  9
$ORTHOMODE
 70
     1
  9
$REGENMODE
 70
     1
  9
$FILLMODE
 70
     1
  9
$QTEXTMODE
 70
     0
  9
$MIRRTEXT
 70
     0
  9
$DRAGMODE
 70
     2
  9
$LTSCALE
 40
5.0
  9
$OSMODE
 70
  3071
  9
$ATTMODE
 70
     1
  9
$TEXTSIZE
 40
0.2
  9
$TRACEWID
 40
0.05
  9
$TEXTSTYLE
  7
STANDARD
  9
$CLAYER
  8
0
  9
$CELTYPE
  6
BYLAYER
  9
$CECOLOR
 62
     6
  9
$DIMSCALE
 40
1.0
  9
$DIMASZ
 40
3.0
  9
$DIMEXO
 40
2.0
  9
$DIMDLI
 40
0.3799999999999999
  9
$DIMRND
 40
0.0
  9
$DIMDLE
 40
0.0
  9
$DIMEXE
 40
2.0
  9
$DIMTP
 40
0.0
  9
$DIMTM
 40
0.0
  9
$DIMTXT
 40
3.2000000000000002
  9
$DIMCEN
 40
0.09
  9
$DIMTSZ
 40
0.0
  9
$DIMTOL
 70
     0
  9
$DIMLIM
 70
     0
  9
$DIMTIH
 70
     0
  9
$DIMTOH
 70
     0
  9
$DIMSE1
 70
     0
  9
$DIMSE2
 70
     0
  9
$DIMTAD
 70
     1
  9
$DIMZIN
 70
     8
  9
$DIMBLK
  1

  9
$DIMASO
 70
     0
  9
$DIMSHO
 70
     0
  9
$DIMPOST
  1

  9
$DIMAPOST
  1

  9
$DIMALT
 70
     0
  9
$DIMALTD
 70
     2
  9
$DIMALTF
 40
25.399999999999999
  9
$DIMLFAC
 40
1.0
  9
$DIMTOFL
 70
     0
  9
$DIMTVP
 40
1.6000000000000001
  9
$DIMTIX
 70
     1
  9
$DIMSOXD
 70
     0
  9
$DIMSAH
 70
     0
  9
$DIMBLK1
  1

  9
$DIMBLK2
  1

  9
$DIMSTYLE
  2
STANDARD
  9
$DIMCLRD
 70
     0
  9
$DIMCLRE
 70
     0
  9
$DIMCLRT
 70
     0
  9
$DIMTFAC
 40
1.0
  9
$DIMGAP
 40
1.0
  9
$LUNITS
 70
     2
  9
$LUPREC
 70
     4
  9
$SKETCHINC
 40
0.1
  9
$FILLETRAD
 40
0.4
  9
$AUNITS
 70
     0
  9
$AUPREC
 70
     0
  9
$MENU
  1
E:\r13\win\SUPPORT\ACAD
  9
$ELEVATION
 40
0.0
  9
$PELEVATION
 40
0.0
  9
$THICKNESS
 40
0.0
  9
$LIMCHECK
 70
     0
  9
$BLIPMODE
 70
     0
  9
$CHAMFERA
 40
0.0
  9
$CHAMFERB
 40
0.0
  9
$SKPOLY
 70
     0
  9
$TDCREATE
 40
2456129.6740617128
  9
$TDUPDATE
 40
2456598.6957658222
  9
$TDINDWG
 40
0.5083597569
  9
$TDUSRTIMER
 40
0.5083595833
  9
$USRTIMER
 70
     1
  9
$ANGBASE
 50
0.0
  9
$ANGDIR
 70
     0
  9
$PDMODE
 70
     0
  9
$PDSIZE
 40
0.0
  9
$PLINEWID
 40
0.0
  9
$COORDS
 70
     1
  9
$SPLFRAME
 70
     0
  9
$SPLINETYPE
 70
     6
  9
$SPLINESEGS
 70
     8
  9
$ATTDIA
 70
     0
  9
$ATTREQ
 70
     1
  9
$HANDLING
 70
     1
  9
$HANDSEED
  5
A423
  9
$SURFTAB1
 70
     6
  9
$SURFTAB2
 70
     6
  9
$SURFTYPE
 70
     6
  9
$SURFU
 70
     6
  9
$SURFV
 70
     6
  9
$UCSNAME
  2

  9
$UCSORG
 10
0.0
 20
0.0
 30
0.0
  9
$UCSXDIR
 10
1.0
 20
0.0
 30
0.0
  9
$UCSYDIR
 10
0.0
 20
1.0
 30
0.0
  9
$PUCSNAME
  2

  9
$PUCSORG
 10
0.0
 20
0.0
 30
0.0
  9
$PUCSXDIR
 10
1.0
 20
0.0
 30
0.0
  9
$PUCSYDIR
 10
0.0
 20
1.0
 30
0.0
  9
$USERI1
 70
     0
  9
$USERI2
 70
     1
  9
$USERI3
 70
     0
  9
$USERI4
 70
     0
  9
$USERI5
 70
     0
  9
$USERR1
 40
0.0
  9
$USERR2
 40
0.0
  9
$USERR3
 40
0.0
  9
$USERR4
 40
0.0
  9
$USERR5
 40
0.0
  9
$WORLDVIEW
 70
     1
  9
$SHADEDGE
 70
     3
  9
$SHADEDIF
 70
    70
  9
$TILEMODE
 70
     1
  9
$MAXACTVP
 70
    16
  9
$PLIMCHECK
 70
     0
  9
$PEXTMIN
 10
1.0000000000000000E+020
 20
1.0000000000000000E+020
 30
1.0000000000000000E+020
  9
$PEXTMAX
 10
-1.0000000000000000E+020
 20
-1.0000000000000000E+020
 30
-1.0000000000000000E+020
  9
$PLIMMIN
 10
0.0
 20
0.0
  9
$PLIMMAX
 10
12.0
 20
9.0
  9
$UNITMODE
 70
     0
  9
$VISRETAIN
 70
     0
  9
$PLINEGEN
 70
     0
  9
$PSLTSCALE
 70
     0
  0
ENDSEC
  0
SECTION
  2
TABLES
  0
TABLE
  2
VPORT
 70
     1
  0
VPORT
  2
*ACTIVE
 70
     0
 10
0.0
 20
0.0
 11
1.0
 21
1.0
 12
93.747139195326156
 22
88.615295173529063
 13
0.0
 23
0.0
 14
5.0
 24
5.0
 15
5.0
 25
5.0
 16
0.0
 26
0.0
 36
1.0
 17
0.0
 27
0.0
 37
0.0
 40
184.8229157216081
 41
1.831871345029239
 42
50.0
 43
0.0
 44
0.0
 50
0.0
 51
0.0
 71
     0
 72
   500
 73
     1
 74
     0
 75
     0
 76
     0
 77
     0
 78
     2
  0
ENDTAB
  0
TABLE
  2
LTYPE
 70
     4
  0
LTYPE
  2
CONTINUOUS
 70
     0
  3
Solid Line
 72
    65
 73
     0
 40
0.0
  0
LTYPE
  2
CENTER
 70
     0
  3
____ _ ____ _ ____ _ ____ _ ____ _ ____ _ ____
 72
    65
 73
     4
 40
2.0
 49
1.25
 49
-0.25
 49
0.25
 49
-0.25
  0
LTYPE
  2
HIDDEN
 70
     0
  3
__ __ __ __ __ __ __ __ __ __ __ __ __ __ __ __
 72
    65
 73
     2
 40
0.375
 49
0.25
 49
-0.125
  0
LTYPE
  2
PHANTOM2
 70
     0
  3
___ _ _ ___ _ _ ___ _ _ ___ _ _
 72
    65
 73
     6
 40
1.25
 49
0.625
 49
-0.125
 49
0.125
 49
-0.125
 49
0.125
 49
-0.125
  0
ENDTAB
  0
TABLE
  2
LAYER
 70
     4
  0
LAYER
  2
0
 70
     0
 62
     7
  6
CONTINUOUS
  0
LAYER
  2
1
 70
     0
 62
     1
  6
CENTER
  0
LAYER
  2
2
 70
     0
 62
     2
  6
HIDDEN
  0
LAYER
  2
DEFPOINTS
 70
     0
 62
     7
  6
CONTINUOUS
  0
ENDTAB
  0
TABLE
  2
STYLE
 70
     2
  0
STYLE
  2
STANDARD
 70
     0
 40
0.0
 41
1.0
 50
0.0
 71
     0
 42
0.2
  3
TXT
  4
BIGFONT
  0
STYLE
  2
STANDARD1
 70
     0
 40
0.0
 41
1.0
 50
0.0
 71
     0
 42
3.0
  3
txt
  4

  0
ENDTAB
  0
TABLE
  2
VIEW
 70
     0
  0
ENDTAB
  0
TABLE
  2
UCS
 70
     0
  0
ENDTAB
  0
TABLE
  2
APPID
 70
     7
  0
APPID
  2
ACAD
 70
     0
  0
APPID
  2
ACAD_MLEADERVER
 70
     0
  0
APPID
  2
ACAD_PSEXT
 70
     0
  0
APPID
  2
ACAD_EXEMPT_FROM_CAD_STANDARDS
 70
     0
  0
APPID
  2
ACAD_DSTYLE_DIMJAG
 70
     0
  0
APPID
  2
ACAD_DSTYLE_DIMTALN
 70
     0
  0
APPID
  2
ACAD_NAV_VCDISPLAY
 70
     0
  0
ENDTAB
  0
TABLE
  2
DIMSTYLE
 70
     1
  0
DIMSTYLE
  2
STANDARD
 70
     0
  3

  4

  5

  6

  7

 40
1.0
 41
0.18
 42
0.0625
 43
0.38
 44
0.18
 45
0.0
 46
0.0
 47
0.0
 48
0.0
140
0.18
141
0.09
142
0.0
143
25.399999999999999
144
1.0
145
0.0
146
1.0
147
0.09
 71
     0
 72
     0
 73
     1
 74
     1
 75
     0
 76
     0
 77
     0
 78
     0
170
     0
171
     2
172
     0
173
     0
174
     0
175
     0
176
     0
177
     0
178
     0
  0
ENDTAB
  0
ENDSEC
  0
SECTION
  2
BLOCKS
  0
BLOCK
  8
0
  2
$MODEL_SPACE
 70
     0
 10
0.0
 20
0.0
 30
0.0
  3
$MODEL_SPACE
  1

  0
ENDBLK
  5
9
  8
0
  0
BLOCK
 67
     1
  8
0
  2
$PAPER_SPACE
 70
     0
 10
0.0
 20
0.0
 30
0.0
  3
$PAPER_SPACE
  1

  0
ENDBLK
  5
E
 67
     1
  8
0
  0
ENDSEC
  0
SECTION
  2
ENTITIES
  0
LINE
  5
665C
  8
1
 10
120.9045525416692
 20
60.575412723161293
 30
0.0
 11
120.9045525416692
 21
98.8105272266165
 31
0.0
  0
LINE
  5
665D
  8
0
 10
102.1353913565638
 20
93.692217839614614
 30
0.0
 11
101.8045525416692
 21
93.692217839614614
 31
0.0
  0
ARC
  5
665E
  8
0
 10
101.8045525416692
 20
85.292217839614636
 30
0.0
 40
8.3999999999999915
 50
90.0
 51
249.5646248953914
  0
LINE
  5
665F
  8
0
 10
140.0045525416692
 20
93.692217839614614
 30
0.0
 11
139.67371372677451
 21
93.692217839614614
 31
0.0
  0
ARC
  5
6660
  8
0
 10
140.0045525416692
 20
85.292217839614636
 30
0.0
 40
8.3999999999999897
 50
290.43537510460652
 51
90.0
  0
ARC
  5
6661
  8
0
 10
128.39916154931859
 20
135.22270568344049
 30
0.0
 40
64.907051282049608
 50
242.9402537663409
 51
256.18899602444901
  0
ARC
  5
6662
  8
0
 10
113.40994353401931
 20
135.22270568344189
 30
0.0
 40
64.907051282051214
 50
283.81100397555099
 51
297.0597462336591
  0
LINE
  5
6663
  8
0
 10
112.9045525416692
 20
72.192217839614557
 30
0.0
 11
112.9045525416692
 21
65.692217839614614
 31
0.0
  0
LINE
  5
6664
  8
0
 10
128.9045525416692
 20
65.692217839614614
 30
0.0
 11
128.9045525416692
 21
72.192217839614557
 31
0.0
  0
LINE
  5
6665
  8
0
 10
114.2092448248633
 20
91.267230587631175
 30
0.0
 11
127.5998601974416
 21
91.267230587631175
 31
0.0
  0
LINE
  5
6666
  8
0
 10
128.9045525416692
 20
65.692217839614614
 30
0.0
 11
112.9045525416692
 21
65.692217839614614
 31
0.0
  0
POLYLINE
  5
6667
  8
0
 66
     1
 10
0.0
 20
0.0
 30
0.0
  0
VERTEX
  5
A03D
  8
0
 10
111.32167351740669
 20
91.597472896884483
 30
0.0
  0
VERTEX
  5
A03E
  8
0
 10
111.41152542597619
 20
91.581655995020867
 30
0.0
  0
VERTEX
  5
A03F
  8
0
 10
111.5940141759483
 20
91.550411589850285
 30
0.0
  0
VERTEX
  5
A040
  8
0
 10
111.779172157367
 20
91.519913073815871
 30
0.0
  0
VERTEX
  5
A041
  8
0
 10
111.8723590088248
 20
91.50502412657255
 30
0.0
  0
VERTEX
  5
A042
  8
0
 10
111.9657448588426
 20
91.490415383328695
 30
0.0
  0
VERTEX
  5
A043
  8
0
 10
112.15251006770239
 20
91.462149112210398
 30
0.0
  0
VERTEX
  5
A044
  8
0
 10
112.33825754487739
 20
91.435324488817614
 30
0.0
  0
VERTEX
  5
A045
  8
0
 10
112.52178816599221
 20
91.410131502443903
 30
0.0
  0
VERTEX
  5
A046
  8
0
 10
112.70201022635899
 20
91.386727252790024
 30
0.0
  0
VERTEX
  5
A047
  8
0
 10
112.87793969834691
 20
91.365238620333898
 30
0.0
  0
VERTEX
  5
A048
  8
0
 10
112.9639596626524
 20
91.355251182078689
 30
0.0
  0
VERTEX
  5
A049
  8
0
 10
113.0485107844837
 20
91.34578564973674
 30
0.0
  0
VERTEX
  5
A04A
  8
0
 10
113.2127240011187
 20
91.328460765324621
 30
0.0
  0
VERTEX
  5
A04B
  8
0
 10
113.3696733295038
 20
91.313325779422428
 30
0.0
  0
VERTEX
  5
A04C
  8
0
 10
113.5185215401346
 20
91.300414061609317
 30
0.0
  0
VERTEX
  5
A04D
  8
0
 10
113.6585462722298
 20
91.289725534920763
 30
0.0
  0
VERTEX
  5
A04E
  8
0
 10
113.79214179844119
 20
91.281049787040047
 30
0.0
  0
VERTEX
  5
A04F
  8
0
 10
113.8569842798093
 20
91.277450930325472
 30
0.0
  0
VERTEX
  5
A050
  8
0
 10
113.920309415014
 20
91.274370274595924
 30
0.0
  0
VERTEX
  5
A051
  8
0
 10
114.0418156030894
 20
91.269826415183616
 30
0.0
  0
VERTEX
  5
A052
  8
0
 10
114.1555729690715
 20
91.267521141888324
 30
0.0
  0
VERTEX
  5
A053
  8
0
 10
114.2092448248633
 20
91.267230587631175
 30
0.0
  0
SEQEND
  5
A054
  8
0
  0
POLYLINE
  5
6668
  8
0
 66
     1
 10
0.0
 20
0.0
 30
0.0
  0
VERTEX
  5
A055
  8
0
 10
127.5998601974416
 20
91.267230587631175
 30
0.0
  0
VERTEX
  5
A056
  8
0
 10
127.6509328770792
 20
91.267494235603579
 30
0.0
  0
VERTEX
  5
A057
  8
0
 10
127.76093923080791
 20
91.269643982291086
 30
0.0
  0
VERTEX
  5
A058
  8
0
 10
127.88111040174169
 20
91.274027588393423
 30
0.0
  0
VERTEX
  5
A059
  8
0
 10
127.9448541658315
 20
91.277074880531359
 30
0.0
  0
VERTEX
  5
A05A
  8
0
 10
128.01093969390959
 20
91.280697591283797
 30
0.0
  0
VERTEX
  5
A05B
  8
0
 10
128.14980533911651
 20
91.289672218688324
 30
0.0
  0
VERTEX
  5
A05C
  8
0
 10
128.29695920347871
 20
91.300935876708706
 30
0.0
  0
VERTEX
  5
A05D
  8
0
 10
128.451528328622
 20
91.314439129772438
 30
0.0
  0
VERTEX
  5
A05E
  8
0
 10
128.61261481444049
 20
91.330108238835123
 30
0.0
  0
VERTEX
  5
A05F
  8
0
 10
128.77928258599849
 20
91.347847018282039
 30
0.0
  0
VERTEX
  5
A060
  8
0
 10
128.8643595518175
 20
91.357451340436171
 30
0.0
  0
VERTEX
  5
A061
  8
0
 10
128.95040138252909
 20
91.367519817226196
 30
0.0
  0
VERTEX
  5
A062
  8
0
 10
129.12477044045411
 20
91.388961931484403
 30
0.0
  0
VERTEX
  5
A063
  8
0
 10
129.30113867937399
 20
91.411982000395426
 30
0.0
  0
VERTEX
  5
A064
  8
0
 10
129.47817531290571
 20
91.436357815231716
 30
0.0
  0
VERTEX
  5
A065
  8
0
 10
129.65472274550339
 20
91.461872250574288
 30
0.0
  0
VERTEX
  5
A066
  8
0
 10
129.8344207579957
 20
91.489033431004756
 30
0.0
  0
VERTEX
  5
A067
  8
0
 10
129.92584805392681
 20
91.503303154070124
 30
0.0
  0
VERTEX
  5
A068
  8
0
 10
130.0181357014707
 20
91.518011061312052
 30
0.0
  0
VERTEX
  5
A069
  8
0
 10
130.2047116891479
 20
91.548669888121708
 30
0.0
  0
VERTEX
  5
A06A
  8
0
 10
130.39300157891131
 20
91.580857770424814
 30
0.0
  0
VERTEX
  5
A06B
  8
0
 10
130.48743156593159
 20
91.597472896884483
 30
0.0
  0
SEQEND
  5
A06C
  8
0
  0
POLYLINE
  5
6669
  8
0
 10
130.48743156593144
 20
91.597472896884454
 30
0.0
 66
     1
 70
     8
  0
VERTEX
  8
0
  5
A21B
 10
130.487
 20
91.5975
 30
0.000000
  70
    32
  0
VERTEX
  8
0
  5
A21C
 10
130.531
 20
91.6053
 30
0.000000
  70
    32
  0
VERTEX
  8
0
  5
A21D
 10
130.575
 20
91.6132
 30
0.000000
  70
    32
  0
VERTEX
  8
0
  5
A21E
 10
130.619
 20
91.6211
 30
0.000000
  70
    32
  0
VERTEX
  8
0
  5
A21F
 10
130.663
 20
91.6290
 30
0.000000
  70
    32
  0
VERTEX
  8
0
  5
A220
 10
130.707
 20
91.6370
 30
0.000000
  70
    32
  0
VERTEX
  8
0
  5
A221
 10
130.751
 20
91.6450
 30
0.000000
  70
    32
  0
VERTEX
  8
0
  5
A222
 10
130.795
 20
91.6530
 30
0.000000
  70
    32
  0
VERTEX
  8
0
  5
A223
 10
130.839
 20
91.6611
 30
0.000000
  70
    32
  0
VERTEX
  8
0
  5
A224
 10
130.883
 20
91.6692
 30
0.000000
  70
    32
  0
VERTEX
  8
0
  5
A225
 10
130.927
 20
91.6773
 30
0.000000
  70
    32
  0
VERTEX
  8
0
  5
A226
 10
130.971
 20
91.6855
 30
0.000000
  70
    32
  0
VERTEX
  8
0
  5
A227
 10
131.015
 20
91.6937
 30
0.000000
  70
    32
  0
VERTEX
  8
0
  5
A228
 10
131.058
 20
91.7020
 30
0.000000
  70
    32
  0
VERTEX
  8
0
  5
A229
 10
131.102
 20
91.7102
 30
0.000000
  70
    32
  0
VERTEX
  8
0
  5
A22A
 10
131.146
 20
91.7186
 30
0.000000
  70
    32
  0
VERTEX
  8
0
  5
A22B
 10
131.190
 20
91.7269
 30
0.000000
  70
    32
  0
VERTEX
  8
0
  5
A22C
 10
131.234
 20
91.7353
 30
0.000000
  70
    32
  0
VERTEX
  8
0
  5
A22D
 10
131.278
 20
91.7437
 30
0.000000
  70
    32
  0
VERTEX
  8
0
  5
A22E
 10
131.322
 20
91.7522
 30
0.000000
  70
    32
  0
VERTEX
  8
0
  5
A22F
 10
131.365
 20
91.7607
 30
0.000000
  70
    32
  0
VERTEX
  8
0
  5
A230
 10
131.409
 20
91.7692
 30
0.000000
  70
    32
  0
VERTEX
  8
0
  5
A231
 10
131.453
 20
91.7778
 30
0.000000
  70
    32
  0
VERTEX
  8
0
  5
A232
 10
131.497
 20
91.7864
 30
0.000000
  70
    32
  0
VERTEX
  8
0
  5
A233
 10
131.541
 20
91.7950
 30
0.000000
  70
    32
  0
VERTEX
  8
0
  5
A234
 10
131.584
 20
91.8037
 30
0.000000
  70
    32
  0
VERTEX
  8
0
  5
A235
 10
131.628
 20
91.8124
 30
0.000000
  70
    32
  0
VERTEX
  8
0
  5
A236
 10
131.672
 20
91.8211
 30
0.000000
  70
    32
  0
VERTEX
  8
0
  5
A237
 10
131.716
 20
91.8299
 30
0.000000
  70
    32
  0
VERTEX
  8
0
  5
A238
 10
131.760
 20
91.8387
 30
0.000000
  70
    32
  0
VERTEX
  8
0
  5
A239
 10
131.803
 20
91.8476
 30
0.000000
  70
    32
  0
VERTEX
  8
0
  5
A23A
 10
131.847
 20
91.8565
 30
0.000000
  70
    32
  0
VERTEX
  8
0
  5
A23B
 10
131.891
 20
91.8654
 30
0.000000
  70
    32
  0
VERTEX
  8
0
  5
A23C
 10
131.935
 20
91.8743
 30
0.000000
  70
    32
  0
VERTEX
  8
0
  5
A23D
 10
131.978
 20
91.8833
 30
0.000000
  70
    32
  0
VERTEX
  8
0
  5
A23E
 10
132.022
 20
91.8923
 30
0.000000
  70
    32
  0
VERTEX
  8
0
  5
A23F
 10
132.066
 20
91.9014
 30
0.000000
  70
    32
  0
VERTEX
  8
0
  5
A240
 10
132.109
 20
91.9105
 30
0.000000
  70
    32
  0
VERTEX
  8
0
  5
A241
 10
132.153
 20
91.9196
 30
0.000000
  70
    32
  0
VERTEX
  8
0
  5
A242
 10
132.197
 20
91.9288
 30
0.000000
  70
    32
  0
VERTEX
  8
0
  5
A243
 10
132.241
 20
91.9380
 30
0.000000
  70
    32
  0
VERTEX
  8
0
  5
A244
 10
132.284
 20
91.9472
 30
0.000000
  70
    32
  0
VERTEX
  8
0
  5
A245
 10
132.328
 20
91.9565
 30
0.000000
  70
    32
  0
VERTEX
  8
0
  5
A246
 10
132.372
 20
91.9658
 30
0.000000
  70
    32
  0
VERTEX
  8
0
  5
A247
 10
132.415
 20
91.9751
 30
0.000000
  70
    32
  0
VERTEX
  8
0
  5
A248
 10
132.459
 20
91.9845
 30
0.000000
  70
    32
  0
VERTEX
  8
0
  5
A249
 10
132.503
 20
91.9939
 30
0.000000
  70
    32
  0
VERTEX
  8
0
  5
A24A
 10
132.546
 20
92.0033
 30
0.000000
  70
    32
  0
VERTEX
  8
0
  5
A24B
 10
132.590
 20
92.0128
 30
0.000000
  70
    32
  0
VERTEX
  8
0
  5
A24C
 10
132.633
 20
92.0223
 30
0.000000
  70
    32
  0
VERTEX
  8
0
  5
A24D
 10
132.677
 20
92.0319
 30
0.000000
  70
    32
  0
VERTEX
  8
0
  5
A24E
 10
132.721
 20
92.0415
 30
0.000000
  70
    32
  0
VERTEX
  8
0
  5
A24F
 10
132.764
 20
92.0511
 30
0.000000
  70
    32
  0
VERTEX
  8
0
  5
A250
 10
132.808
 20
92.0607
 30
0.000000
  70
    32
  0
VERTEX
  8
0
  5
A251
 10
132.851
 20
92.0704
 30
0.000000
  70
    32
  0
VERTEX
  8
0
  5
A252
 10
132.895
 20
92.0801
 30
0.000000
  70
    32
  0
VERTEX
  8
0
  5
A253
 10
132.939
 20
92.0899
 30
0.000000
  70
    32
  0
VERTEX
  8
0
  5
A254
 10
132.982
 20
92.0997
 30
0.000000
  70
    32
  0
VERTEX
  8
0
  5
A255
 10
133.026
 20
92.1095
 30
0.000000
  70
    32
  0
VERTEX
  8
0
  5
A256
 10
133.069
 20
92.1194
 30
0.000000
  70
    32
  0
VERTEX
  8
0
  5
A257
 10
133.113
 20
92.1293
 30
0.000000
  70
    32
  0
VERTEX
  8
0
  5
A258
 10
133.156
 20
92.1392
 30
0.000000
  70
    32
  0
VERTEX
  8
0
  5
A259
 10
133.200
 20
92.1492
 30
0.000000
  70
    32
  0
VERTEX
  8
0
  5
A25A
 10
133.243
 20
92.1592
 30
0.000000
  70
    32
  0
VERTEX
  8
0
  5
A25B
 10
133.287
 20
92.1692
 30
0.000000
  70
    32
  0
VERTEX
  8
0
  5
A25C
 10
133.330
 20
92.1793
 30
0.000000
  70
    32
  0
VERTEX
  8
0
  5
A25D
 10
133.374
 20
92.1894
 30
0.000000
  70
    32
  0
VERTEX
  8
0
  5
A25E
 10
133.417
 20
92.1995
 30
0.000000
  70
    32
  0
VERTEX
  8
0
  5
A25F
 10
133.461
 20
92.2097
 30
0.000000
  70
    32
  0
VERTEX
  8
0
  5
A260
 10
133.504
 20
92.2199
 30
0.000000
  70
    32
  0
VERTEX
  8
0
  5
A261
 10
133.548
 20
92.2302
 30
0.000000
  70
    32
  0
VERTEX
  8
0
  5
A262
 10
133.591
 20
92.2405
 30
0.000000
  70
    32
  0
VERTEX
  8
0
  5
A263
 10
133.635
 20
92.2508
 30
0.000000
  70
    32
  0
VERTEX
  8
0
  5
A264
 10
133.678
 20
92.2611
 30
0.000000
  70
    32
  0
VERTEX
  8
0
  5
A265
 10
133.722
 20
92.2715
 30
0.000000
  70
    32
  0
VERTEX
  8
0
  5
A266
 10
133.765
 20
92.2819
 30
0.000000
  70
    32
  0
VERTEX
  8
0
  5
A267
 10
133.808
 20
92.2924
 30
0.000000
  70
    32
  0
VERTEX
  8
0
  5
A268
 10
133.852
 20
92.3029
 30
0.000000
  70
    32
  0
VERTEX
  8
0
  5
A269
 10
133.895
 20
92.3134
 30
0.000000
  70
    32
  0
VERTEX
  8
0
  5
A26A
 10
133.939
 20
92.3240
 30
0.000000
  70
    32
  0
VERTEX
  8
0
  5
A26B
 10
133.982
 20
92.3346
 30
0.000000
  70
    32
  0
VERTEX
  8
0
  5
A26C
 10
134.025
 20
92.3452
 30
0.000000
  70
    32
  0
VERTEX
  8
0
  5
A26D
 10
134.069
 20
92.3559
 30
0.000000
  70
    32
  0
VERTEX
  8
0
  5
A26E
 10
134.112
 20
92.3666
 30
0.000000
  70
    32
  0
VERTEX
  8
0
  5
A26F
 10
134.155
 20
92.3773
 30
0.000000
  70
    32
  0
VERTEX
  8
0
  5
A270
 10
134.199
 20
92.3881
 30
0.000000
  70
    32
  0
VERTEX
  8
0
  5
A271
 10
134.242
 20
92.3989
 30
0.000000
  70
    32
  0
VERTEX
  8
0
  5
A272
 10
134.285
 20
92.4097
 30
0.000000
  70
    32
  0
VERTEX
  8
0
  5
A273
 10
134.329
 20
92.4206
 30
0.000000
  70
    32
  0
VERTEX
  8
0
  5
A274
 10
134.372
 20
92.4315
 30
0.000000
  70
    32
  0
VERTEX
  8
0
  5
A275
 10
134.415
 20
92.4424
 30
0.000000
  70
    32
  0
VERTEX
  8
0
  5
A276
 10
134.459
 20
92.4534
 30
0.000000
  70
    32
  0
VERTEX
  8
0
  5
A277
 10
134.502
 20
92.4644
 30
0.000000
  70
    32
  0
VERTEX
  8
0
  5
A278
 10
134.545
 20
92.4755
 30
0.000000
  70
    32
  0
VERTEX
  8
0
  5
A279
 10
134.588
 20
92.4865
 30
0.000000
  70
    32
  0
VERTEX
  8
0
  5
A27A
 10
134.632
 20
92.4977
 30
0.000000
  70
    32
  0
VERTEX
  8
0
  5
A27B
 10
134.675
 20
92.5088
 30
0.000000
  70
    32
  0
VERTEX
  8
0
  5
A27C
 10
134.718
 20
92.5200
 30
0.000000
  70
    32
  0
VERTEX
  8
0
  5
A27D
 10
134.761
 20
92.5312
 30
0.000000
  70
    32
  0
VERTEX
  8
0
  5
A27E
 10
134.804
 20
92.5425
 30
0.000000
  70
    32
  0
VERTEX
  8
0
  5
A27F
 10
134.848
 20
92.5538
 30
0.000000
  70
    32
  0
VERTEX
  8
0
  5
A280
 10
134.891
 20
92.5651
 30
0.000000
  70
    32
  0
VERTEX
  8
0
  5
A281
 10
134.934
 20
92.5764
 30
0.000000
  70
    32
  0
VERTEX
  8
0
  5
A282
 10
134.977
 20
92.5878
 30
0.000000
  70
    32
  0
VERTEX
  8
0
  5
A283
 10
135.020
 20
92.5993
 30
0.000000
  70
    32
  0
VERTEX
  8
0
  5
A284
 10
135.064
 20
92.6107
 30
0.000000
  70
    32
  0
VERTEX
  8
0
  5
A285
 10
135.107
 20
92.6222
 30
0.000000
  70
    32
  0
VERTEX
  8
0
  5
A286
 10
135.150
 20
92.6337
 30
0.000000
  70
    32
  0
VERTEX
  8
0
  5
A287
 10
135.193
 20
92.6453
 30
0.000000
  70
    32
  0
VERTEX
  8
0
  5
A288
 10
135.236
 20
92.6569
 30
0.000000
  70
    32
  0
VERTEX
  8
0
  5
A289
 10
135.279
 20
92.6686
 30
0.000000
  70
    32
  0
VERTEX
  8
0
  5
A28A
 10
135.322
 20
92.6802
 30
0.000000
  70
    32
  0
VERTEX
  8
0
  5
A28B
 10
135.365
 20
92.6919
 30
0.000000
  70
    32
  0
VERTEX
  8
0
  5
A28C
 10
135.408
 20
92.7037
 30
0.000000
  70
    32
  0
VERTEX
  8
0
  5
A28D
 10
135.451
 20
92.7154
 30
0.000000
  70
    32
  0
VERTEX
  8
0
  5
A28E
 10
135.495
 20
92.7272
 30
0.000000
  70
    32
  0
VERTEX
  8
0
  5
A28F
 10
135.538
 20
92.7391
 30
0.000000
  70
    32
  0
VERTEX
  8
0
  5
A290
 10
135.581
 20
92.7510
 30
0.000000
  70
    32
  0
VERTEX
  8
0
  5
A291
 10
135.624
 20
92.7629
 30
0.000000
  70
    32
  0
VERTEX
  8
0
  5
A292
 10
135.667
 20
92.7748
 30
0.000000
  70
    32
  0
VERTEX
  8
0
  5
A293
 10
135.710
 20
92.7868
 30
0.000000
  70
    32
  0
VERTEX
  8
0
  5
A294
 10
135.753
 20
92.7988
 30
0.000000
  70
    32
  0
VERTEX
  8
0
  5
A295
 10
135.796
 20
92.8109
 30
0.000000
  70
    32
  0
VERTEX
  8
0
  5
A296
 10
135.839
 20
92.8230
 30
0.000000
  70
    32
  0
VERTEX
  8
0
  5
A297
 10
135.882
 20
92.8351
 30
0.000000
  70
    32
  0
VERTEX
  8
0
  5
A298
 10
135.925
 20
92.8472
 30
0.000000
  70
    32
  0
VERTEX
  8
0
  5
A299
 10
135.968
 20
92.8594
 30
0.000000
  70
    32
  0
VERTEX
  8
0
  5
A29A
 10
136.011
 20
92.8716
 30
0.000000
  70
    32
  0
VERTEX
  8
0
  5
A29B
 10
136.054
 20
92.8839
 30
0.000000
  70
    32
  0
SEQEND
  8
0
  5
A29C
  0
POLYLINE
  5
666A
  8
0
 66
     1
 10
0.0
 20
0.0
 30
0.0
  0
VERTEX
  5
A06D
  8
0
 10
136.05350379140731
 20
92.883895872313119
 30
0.0
  0
VERTEX
  5
A06E
  8
0
 10
136.146050215461
 20
92.926659906097896
 30
0.0
  0
VERTEX
  5
A06F
  8
0
 10
136.33005694923139
 20
93.007759011227222
 30
0.0
  0
VERTEX
  5
A070
  8
0
 10
136.51288744920879
 20
93.083294035845356
 30
0.0
  0
VERTEX
  5
A071
  8
0
 10
136.6058657790235
 20
93.119824085296386
 30
0.0
  0
VERTEX
  5
A072
  8
0
 10
136.70019683910311
 20
93.155611592291166
 30
0.0
  0
VERTEX
  5
A073
  8
0
 10
136.89263027632151
 20
93.224708059438399
 30
0.0
  0
VERTEX
  5
A074
  8
0
 10
137.08960153356321
 20
93.290113632539814
 30
0.0
  0
VERTEX
  5
A075
  8
0
 10
137.29050847567899
 20
93.351412100048336
 30
0.0
  0
VERTEX
  5
A076
  8
0
 10
137.49473562632579
 20
93.408242472375889
 30
0.0
  0
VERTEX
  5
A077
  8
0
 10
137.70164782220601
 20
93.460297929678916
 30
0.0
  0
VERTEX
  5
A078
  8
0
 10
137.80590728097241
 20
93.484454373117103
 30
0.0
  0
VERTEX
  5
A079
  8
0
 10
137.91059212928261
 20
93.507327443082929
 30
0.0
  0
VERTEX
  5
A07A
  8
0
 10
138.12090983514861
 20
93.549138904249503
 30
0.0
  0
VERTEX
  5
A07B
  8
0
 10
138.33196272310909
 20
93.585602639371487
 30
0.0
  0
VERTEX
  5
A07C
  8
0
 10
138.54307076297681
 20
93.616639020412379
 30
0.0
  0
VERTEX
  5
A07D
  8
0
 10
138.75353576869031
 20
93.642225054052176
 30
0.0
  0
VERTEX
  5
A07E
  8
0
 10
138.96265451684999
 20
93.662396393214195
 30
0.0
  0
VERTEX
  5
A07F
  8
0
 10
139.06648890502029
 20
93.670478610699149
 30
0.0
  0
VERTEX
  5
A080
  8
0
 10
139.1697215417887
 20
93.677246725738186
 30
0.0
  0
VERTEX
  5
A081
  8
0
 10
139.37402277378271
 20
93.686926391209511
 30
0.0
  0
VERTEX
  5
A082
  8
0
 10
139.57483819186609
 20
93.691641933702897
 30
0.0
  0
VERTEX
  5
A083
  8
0
 10
139.67371372677451
 20
93.692217839614614
 30
0.0
  0
SEQEND
  5
A084
  8
0
  0
POLYLINE
  5
666B
  8
0
 66
     1
 10
0.0
 20
0.0
 30
0.0
  0
VERTEX
  5
A085
  8
0
 10
105.7556012919311
 20
92.883895872313119
 30
0.0
  0
VERTEX
  5
A086
  8
0
 10
105.66305486787741
 20
92.926659906097896
 30
0.0
  0
VERTEX
  5
A087
  8
0
 10
105.479048134107
 20
93.007759011227222
 30
0.0
  0
VERTEX
  5
A088
  8
0
 10
105.2962176341295
 20
93.083294035845356
 30
0.0
  0
VERTEX
  5
A089
  8
0
 10
105.20323930431481
 20
93.119824085296386
 30
0.0
  0
VERTEX
  5
A08A
  8
0
 10
105.10890824423529
 20
93.155611592291166
 30
0.0
  0
VERTEX
  5
A08B
  8
0
 10
104.9164748070169
 20
93.224708059438399
 30
0.0
  0
VERTEX
  5
A08C
  8
0
 10
104.7195035497751
 20
93.290113632539814
 30
0.0
  0
VERTEX
  5
A08D
  8
0
 10
104.5185966076594
 20
93.351412100048336
 30
0.0
  0
VERTEX
  5
A08E
  8
0
 10
104.3143694570126
 20
93.408242472375889
 30
0.0
  0
VERTEX
  5
A08F
  8
0
 10
104.1074572611325
 20
93.460297929678916
 30
0.0
  0
VERTEX
  5
A090
  8
0
 10
104.0031978023659
 20
93.484454373117103
 30
0.0
  0
VERTEX
  5
A091
  8
0
 10
103.8985129540557
 20
93.507327443082929
 30
0.0
  0
VERTEX
  5
A092
  8
0
 10
103.6881952481898
 20
93.549138904249503
 30
0.0
  0
VERTEX
  5
A093
  8
0
 10
103.47714236022919
 20
93.585602639371487
 30
0.0
  0
VERTEX
  5
A094
  8
0
 10
103.2660343203616
 20
93.616639020412379
 30
0.0
  0
VERTEX
  5
A095
  8
0
 10
103.0555693146481
 20
93.642225054052176
 30
0.0
  0
VERTEX
  5
A096
  8
0
 10
102.8464505664884
 20
93.662396393214195
 30
0.0
  0
VERTEX
  5
A097
  8
0
 10
102.7426161783181
 20
93.670478610699149
 30
0.0
  0
VERTEX
  5
A098
  8
0
 10
102.63938354154961
 20
93.677246725738186
 30
0.0
  0
VERTEX
  5
A099
  8
0
 10
102.4350823095557
 20
93.686926391209511
 30
0.0
  0
VERTEX
  5
A09A
  8
0
 10
102.2342668914723
 20
93.691641933702897
 30
0.0
  0
VERTEX
  5
A09B
  8
0
 10
102.1353913565638
 20
93.692217839614614
 30
0.0
  0
SEQEND
  5
A09C
  8
0
  0
POLYLINE
  5
666C
  8
0
 10
105.7556012916728
 20
92.883895871405855
 30
0.0
 66
     1
 70
     8
  0
VERTEX
  8
0
  5
A29D
 10
105.756
 20
92.8839
 30
0.000000
  70
    32
  0
VERTEX
  8
0
  5
A29E
 10
105.799
 20
92.8716
 30
0.000000
  70
    32
  0
VERTEX
  8
0
  5
A29F
 10
105.841
 20
92.8594
 30
0.000000
  70
    32
  0
VERTEX
  8
0
  5
A2A0
 10
105.884
 20
92.8472
 30
0.000000
  70
    32
  0
VERTEX
  8
0
  5
A2A1
 10
105.927
 20
92.8351
 30
0.000000
  70
    32
  0
VERTEX
  8
0
  5
A2A2
 10
105.970
 20
92.8230
 30
0.000000
  70
    32
  0
VERTEX
  8
0
  5
A2A3
 10
106.013
 20
92.8109
 30
0.000000
  70
    32
  0
VERTEX
  8
0
  5
A2A4
 10
106.056
 20
92.7988
 30
0.000000
  70
    32
  0
VERTEX
  8
0
  5
A2A5
 10
106.099
 20
92.7868
 30
0.000000
  70
    32
  0
VERTEX
  8
0
  5
A2A6
 10
106.142
 20
92.7748
 30
0.000000
  70
    32
  0
VERTEX
  8
0
  5
A2A7
 10
106.185
 20
92.7629
 30
0.000000
  70
    32
  0
VERTEX
  8
0
  5
A2A8
 10
106.228
 20
92.7510
 30
0.000000
  70
    32
  0
VERTEX
  8
0
  5
A2A9
 10
106.271
 20
92.7391
 30
0.000000
  70
    32
  0
VERTEX
  8
0
  5
A2AA
 10
106.315
 20
92.7272
 30
0.000000
  70
    32
  0
VERTEX
  8
0
  5
A2AB
 10
106.358
 20
92.7154
 30
0.000000
  70
    32
  0
VERTEX
  8
0
  5
A2AC
 10
106.401
 20
92.7037
 30
0.000000
  70
    32
  0
VERTEX
  8
0
  5
A2AD
 10
106.444
 20
92.6919
 30
0.000000
  70
    32
  0
VERTEX
  8
0
  5
A2AE
 10
106.487
 20
92.6802
 30
0.000000
  70
    32
  0
VERTEX
  8
0
  5
A2AF
 10
106.530
 20
92.6686
 30
0.000000
  70
    32
  0
VERTEX
  8
0
  5
A2B0
 10
106.573
 20
92.6569
 30
0.000000
  70
    32
  0
VERTEX
  8
0
  5
A2B1
 10
106.616
 20
92.6453
 30
0.000000
  70
    32
  0
VERTEX
  8
0
  5
A2B2
 10
106.659
 20
92.6337
 30
0.000000
  70
    32
  0
VERTEX
  8
0
  5
A2B3
 10
106.702
 20
92.6222
 30
0.000000
  70
    32
  0
VERTEX
  8
0
  5
A2B4
 10
106.746
 20
92.6107
 30
0.000000
  70
    32
  0
VERTEX
  8
0
  5
A2B5
 10
106.789
 20
92.5993
 30
0.000000
  70
    32
  0
VERTEX
  8
0
  5
A2B6
 10
106.832
 20
92.5878
 30
0.000000
  70
    32
  0
VERTEX
  8
0
  5
A2B7
 10
106.875
 20
92.5764
 30
0.000000
  70
    32
  0
VERTEX
  8
0
  5
A2B8
 10
106.918
 20
92.5651
 30
0.000000
  70
    32
  0
VERTEX
  8
0
  5
A2B9
 10
106.961
 20
92.5538
 30
0.000000
  70
    32
  0
VERTEX
  8
0
  5
A2BA
 10
107.005
 20
92.5425
 30
0.000000
  70
    32
  0
VERTEX
  8
0
  5
A2BB
 10
107.048
 20
92.5312
 30
0.000000
  70
    32
  0
VERTEX
  8
0
  5
A2BC
 10
107.091
 20
92.5200
 30
0.000000
  70
    32
  0
VERTEX
  8
0
  5
A2BD
 10
107.134
 20
92.5088
 30
0.000000
  70
    32
  0
VERTEX
  8
0
  5
A2BE
 10
107.178
 20
92.4977
 30
0.000000
  70
    32
  0
VERTEX
  8
0
  5
A2BF
 10
107.221
 20
92.4865
 30
0.000000
  70
    32
  0
VERTEX
  8
0
  5
A2C0
 10
107.264
 20
92.4755
 30
0.000000
  70
    32
  0
VERTEX
  8
0
  5
A2C1
 10
107.307
 20
92.4644
 30
0.000000
  70
    32
  0
VERTEX
  8
0
  5
A2C2
 10
107.351
 20
92.4534
 30
0.000000
  70
    32
  0
VERTEX
  8
0
  5
A2C3
 10
107.394
 20
92.4424
 30
0.000000
  70
    32
  0
VERTEX
  8
0
  5
A2C4
 10
107.437
 20
92.4315
 30
0.000000
  70
    32
  0
VERTEX
  8
0
  5
A2C5
 10
107.480
 20
92.4206
 30
0.000000
  70
    32
  0
VERTEX
  8
0
  5
A2C6
 10
107.524
 20
92.4097
 30
0.000000
  70
    32
  0
VERTEX
  8
0
  5
A2C7
 10
107.567
 20
92.3989
 30
0.000000
  70
    32
  0
VERTEX
  8
0
  5
A2C8
 10
107.610
 20
92.3881
 30
0.000000
  70
    32
  0
VERTEX
  8
0
  5
A2C9
 10
107.654
 20
92.3773
 30
0.000000
  70
    32
  0
VERTEX
  8
0
  5
A2CA
 10
107.697
 20
92.3666
 30
0.000000
  70
    32
  0
VERTEX
  8
0
  5
A2CB
 10
107.740
 20
92.3559
 30
0.000000
  70
    32
  0
VERTEX
  8
0
  5
A2CC
 10
107.784
 20
92.3452
 30
0.000000
  70
    32
  0
VERTEX
  8
0
  5
A2CD
 10
107.827
 20
92.3346
 30
0.000000
  70
    32
  0
VERTEX
  8
0
  5
A2CE
 10
107.871
 20
92.3240
 30
0.000000
  70
    32
  0
VERTEX
  8
0
  5
A2CF
 10
107.914
 20
92.3134
 30
0.000000
  70
    32
  0
VERTEX
  8
0
  5
A2D0
 10
107.957
 20
92.3029
 30
0.000000
  70
    32
  0
VERTEX
  8
0
  5
A2D1
 10
108.001
 20
92.2924
 30
0.000000
  70
    32
  0
VERTEX
  8
0
  5
A2D2
 10
108.044
 20
92.2819
 30
0.000000
  70
    32
  0
VERTEX
  8
0
  5
A2D3
 10
108.088
 20
92.2715
 30
0.000000
  70
    32
  0
VERTEX
  8
0
  5
A2D4
 10
108.131
 20
92.2611
 30
0.000000
  70
    32
  0
VERTEX
  8
0
  5
A2D5
 10
108.174
 20
92.2508
 30
0.000000
  70
    32
  0
VERTEX
  8
0
  5
A2D6
 10
108.218
 20
92.2405
 30
0.000000
  70
    32
  0
VERTEX
  8
0
  5
A2D7
 10
108.261
 20
92.2302
 30
0.000000
  70
    32
  0
VERTEX
  8
0
  5
A2D8
 10
108.305
 20
92.2199
 30
0.000000
  70
    32
  0
VERTEX
  8
0
  5
A2D9
 10
108.348
 20
92.2097
 30
0.000000
  70
    32
  0
VERTEX
  8
0
  5
A2DA
 10
108.392
 20
92.1995
 30
0.000000
  70
    32
  0
VERTEX
  8
0
  5
A2DB
 10
108.435
 20
92.1894
 30
0.000000
  70
    32
  0
VERTEX
  8
0
  5
A2DC
 10
108.479
 20
92.1793
 30
0.000000
  70
    32
  0
VERTEX
  8
0
  5
A2DD
 10
108.522
 20
92.1692
 30
0.000000
  70
    32
  0
VERTEX
  8
0
  5
A2DE
 10
108.566
 20
92.1592
 30
0.000000
  70
    32
  0
VERTEX
  8
0
  5
A2DF
 10
108.609
 20
92.1492
 30
0.000000
  70
    32
  0
VERTEX
  8
0
  5
A2E0
 10
108.653
 20
92.1392
 30
0.000000
  70
    32
  0
VERTEX
  8
0
  5
A2E1
 10
108.696
 20
92.1293
 30
0.000000
  70
    32
  0
VERTEX
  8
0
  5
A2E2
 10
108.740
 20
92.1194
 30
0.000000
  70
    32
  0
VERTEX
  8
0
  5
A2E3
 10
108.783
 20
92.1095
 30
0.000000
  70
    32
  0
VERTEX
  8
0
  5
A2E4
 10
108.827
 20
92.0997
 30
0.000000
  70
    32
  0
VERTEX
  8
0
  5
A2E5
 10
108.870
 20
92.0899
 30
0.000000
  70
    32
  0
VERTEX
  8
0
  5
A2E6
 10
108.914
 20
92.0801
 30
0.000000
  70
    32
  0
VERTEX
  8
0
  5
A2E7
 10
108.958
 20
92.0704
 30
0.000000
  70
    32
  0
VERTEX
  8
0
  5
A2E8
 10
109.001
 20
92.0607
 30
0.000000
  70
    32
  0
VERTEX
  8
0
  5
A2E9
 10
109.045
 20
92.0511
 30
0.000000
  70
    32
  0
VERTEX
  8
0
  5
A2EA
 10
109.088
 20
92.0415
 30
0.000000
  70
    32
  0
VERTEX
  8
0
  5
A2EB
 10
109.132
 20
92.0319
 30
0.000000
  70
    32
  0
VERTEX
  8
0
  5
A2EC
 10
109.176
 20
92.0223
 30
0.000000
  70
    32
  0
VERTEX
  8
0
  5
A2ED
 10
109.219
 20
92.0128
 30
0.000000
  70
    32
  0
VERTEX
  8
0
  5
A2EE
 10
109.263
 20
92.0033
 30
0.000000
  70
    32
  0
VERTEX
  8
0
  5
A2EF
 10
109.307
 20
91.9939
 30
0.000000
  70
    32
  0
VERTEX
  8
0
  5
A2F0
 10
109.350
 20
91.9845
 30
0.000000
  70
    32
  0
VERTEX
  8
0
  5
A2F1
 10
109.394
 20
91.9751
 30
0.000000
  70
    32
  0
VERTEX
  8
0
  5
A2F2
 10
109.438
 20
91.9658
 30
0.000000
  70
    32
  0
VERTEX
  8
0
  5
A2F3
 10
109.481
 20
91.9565
 30
0.000000
  70
    32
  0
VERTEX
  8
0
  5
A2F4
 10
109.525
 20
91.9472
 30
0.000000
  70
    32
  0
VERTEX
  8
0
  5
A2F5
 10
109.569
 20
91.9380
 30
0.000000
  70
    32
  0
VERTEX
  8
0
  5
A2F6
 10
109.612
 20
91.9288
 30
0.000000
  70
    32
  0
VERTEX
  8
0
  5
A2F7
 10
109.656
 20
91.9196
 30
0.000000
  70
    32
  0
VERTEX
  8
0
  5
A2F8
 10
109.700
 20
91.9105
 30
0.000000
  70
    32
  0
VERTEX
  8
0
  5
A2F9
 10
109.743
 20
91.9014
 30
0.000000
  70
    32
  0
VERTEX
  8
0
  5
A2FA
 10
109.787
 20
91.8923
 30
0.000000
  70
    32
  0
VERTEX
  8
0
  5
A2FB
 10
109.831
 20
91.8833
 30
0.000000
  70
    32
  0
VERTEX
  8
0
  5
A2FC
 10
109.875
 20
91.8743
 30
0.000000
  70
    32
  0
VERTEX
  8
0
  5
A2FD
 10
109.918
 20
91.8654
 30
0.000000
  70
    32
  0
VERTEX
  8
0
  5
A2FE
 10
109.962
 20
91.8565
 30
0.000000
  70
    32
  0
VERTEX
  8
0
  5
A2FF
 10
110.006
 20
91.8476
 30
0.000000
  70
    32
  0
VERTEX
  8
0
  5
A300
 10
110.050
 20
91.8387
 30
0.000000
  70
    32
  0
VERTEX
  8
0
  5
A301
 10
110.093
 20
91.8299
 30
0.000000
  70
    32
  0
VERTEX
  8
0
  5
A302
 10
110.137
 20
91.8211
 30
0.000000
  70
    32
  0
VERTEX
  8
0
  5
A303
 10
110.181
 20
91.8124
 30
0.000000
  70
    32
  0
VERTEX
  8
0
  5
A304
 10
110.225
 20
91.8037
 30
0.000000
  70
    32
  0
VERTEX
  8
0
  5
A305
 10
110.268
 20
91.7950
 30
0.000000
  70
    32
  0
VERTEX
  8
0
  5
A306
 10
110.312
 20
91.7864
 30
0.000000
  70
    32
  0
VERTEX
  8
0
  5
A307
 10
110.356
 20
91.7778
 30
0.000000
  70
    32
  0
VERTEX
  8
0
  5
A308
 10
110.400
 20
91.7692
 30
0.000000
  70
    32
  0
VERTEX
  8
0
  5
A309
 10
110.444
 20
91.7607
 30
0.000000
  70
    32
  0
VERTEX
  8
0
  5
A30A
 10
110.488
 20
91.7522
 30
0.000000
  70
    32
  0
VERTEX
  8
0
  5
A30B
 10
110.531
 20
91.7437
 30
0.000000
  70
    32
  0
VERTEX
  8
0
  5
A30C
 10
110.575
 20
91.7353
 30
0.000000
  70
    32
  0
VERTEX
  8
0
  5
A30D
 10
110.619
 20
91.7269
 30
0.000000
  70
    32
  0
VERTEX
  8
0
  5
A30E
 10
110.663
 20
91.7186
 30
0.000000
  70
    32
  0
VERTEX
  8
0
  5
A30F
 10
110.707
 20
91.7102
 30
0.000000
  70
    32
  0
VERTEX
  8
0
  5
A310
 10
110.751
 20
91.7020
 30
0.000000
  70
    32
  0
VERTEX
  8
0
  5
A311
 10
110.795
 20
91.6937
 30
0.000000
  70
    32
  0
VERTEX
  8
0
  5
A312
 10
110.838
 20
91.6855
 30
0.000000
  70
    32
  0
VERTEX
  8
0
  5
A313
 10
110.882
 20
91.6773
 30
0.000000
  70
    32
  0
VERTEX
  8
0
  5
A314
 10
110.926
 20
91.6692
 30
0.000000
  70
    32
  0
VERTEX
  8
0
  5
A315
 10
110.970
 20
91.6611
 30
0.000000
  70
    32
  0
VERTEX
  8
0
  5
A316
 10
111.014
 20
91.6530
 30
0.000000
  70
    32
  0
VERTEX
  8
0
  5
A317
 10
111.058
 20
91.6450
 30
0.000000
  70
    32
  0
VERTEX
  8
0
  5
A318
 10
111.102
 20
91.6370
 30
0.000000
  70
    32
  0
VERTEX
  8
0
  5
A319
 10
111.146
 20
91.6290
 30
0.000000
  70
    32
  0
VERTEX
  8
0
  5
A31A
 10
111.190
 20
91.6211
 30
0.000000
  70
    32
  0
VERTEX
  8
0
  5
A31B
 10
111.234
 20
91.6132
 30
0.000000
  70
    32
  0
VERTEX
  8
0
  5
A31C
 10
111.278
 20
91.6053
 30
0.000000
  70
    32
  0
VERTEX
  8
0
  5
A31D
 10
111.322
 20
91.5975
 30
0.000000
  70
    32
  0
SEQEND
  8
0
  5
A31E
  0
POLYLINE
  5
666D
  8
0
 10
102.1009789436513
 20
79.822300107143704
 30
0.0
 66
     1
 70
     8
  0
VERTEX
  8
0
  5
A31F
 10
102.101
 20
79.8223
 30
0.000000
  70
    32
  0
VERTEX
  8
0
  5
A320
 10
102.369
 20
79.8289
 30
0.000000
  70
    32
  0
VERTEX
  8
0
  5
A321
 10
102.636
 20
79.8486
 30
0.000000
  70
    32
  0
VERTEX
  8
0
  5
A322
 10
102.902
 20
79.8815
 30
0.000000
  70
    32
  0
VERTEX
  8
0
  5
A323
 10
103.166
 20
79.9274
 30
0.000000
  70
    32
  0
VERTEX
  8
0
  5
A324
 10
103.427
 20
79.9862
 30
0.000000
  70
    32
  0
VERTEX
  8
0
  5
A325
 10
103.685
 20
80.0578
 30
0.000000
  70
    32
  0
VERTEX
  8
0
  5
A326
 10
103.940
 20
80.1420
 30
0.000000
  70
    32
  0
VERTEX
  8
0
  5
A327
 10
104.190
 20
80.2387
 30
0.000000
  70
    32
  0
VERTEX
  8
0
  5
A328
 10
104.435
 20
80.3475
 30
0.000000
  70
    32
  0
VERTEX
  8
0
  5
A329
 10
104.674
 20
80.4682
 30
0.000000
  70
    32
  0
VERTEX
  8
0
  5
A32A
 10
104.907
 20
80.6005
 30
0.000000
  70
    32
  0
VERTEX
  8
0
  5
A32B
 10
105.133
 20
80.7441
 30
0.000000
  70
    32
  0
VERTEX
  8
0
  5
A32C
 10
105.352
 20
80.8987
 30
0.000000
  70
    32
  0
VERTEX
  8
0
  5
A32D
 10
105.564
 20
81.0639
 30
0.000000
  70
    32
  0
VERTEX
  8
0
  5
A32E
 10
105.766
 20
81.2393
 30
0.000000
  70
    32
  0
VERTEX
  8
0
  5
A32F
 10
105.961
 20
81.4244
 30
0.000000
  70
    32
  0
VERTEX
  8
0
  5
A330
 10
106.145
 20
81.6188
 30
0.000000
  70
    32
  0
VERTEX
  8
0
  5
A331
 10
106.320
 20
81.8221
 30
0.000000
  70
    32
  0
VERTEX
  8
0
  5
A332
 10
106.485
 20
82.0338
 30
0.000000
  70
    32
  0
VERTEX
  8
0
  5
A333
 10
106.639
 20
82.2533
 30
0.000000
  70
    32
  0
VERTEX
  8
0
  5
A334
 10
106.783
 20
82.4801
 30
0.000000
  70
    32
  0
VERTEX
  8
0
  5
A335
 10
106.915
 20
82.7137
 30
0.000000
  70
    32
  0
VERTEX
  8
0
  5
A336
 10
107.035
 20
82.9535
 30
0.000000
  70
    32
  0
VERTEX
  8
0
  5
A337
 10
107.144
 20
83.1990
 30
0.000000
  70
    32
  0
VERTEX
  8
0
  5
A338
 10
107.240
 20
83.4495
 30
0.000000
  70
    32
  0
VERTEX
  8
0
  5
A339
 10
107.324
 20
83.7044
 30
0.000000
  70
    32
  0
VERTEX
  8
0
  5
A33A
 10
107.396
 20
83.9631
 30
0.000000
  70
    32
  0
VERTEX
  8
0
  5
A33B
 10
107.454
 20
84.2251
 30
0.000000
  70
    32
  0
VERTEX
  8
0
  5
A33C
 10
107.500
 20
84.4896
 30
0.000000
  70
    32
  0
VERTEX
  8
0
  5
A33D
 10
107.533
 20
84.7561
 30
0.000000
  70
    32
  0
VERTEX
  8
0
  5
A33E
 10
107.553
 20
85.0238
 30
0.000000
  70
    32
  0
VERTEX
  8
0
  5
A33F
 10
107.559
 20
85.2922
 30
0.000000
  70
    32
  0
VERTEX
  8
0
  5
A340
 10
107.553
 20
85.5606
 30
0.000000
  70
    32
  0
VERTEX
  8
0
  5
A341
 10
107.533
 20
85.8284
 30
0.000000
  70
    32
  0
VERTEX
  8
0
  5
A342
 10
107.500
 20
86.0948
 30
0.000000
  70
    32
  0
VERTEX
  8
0
  5
A343
 10
107.454
 20
86.3593
 30
0.000000
  70
    32
  0
VERTEX
  8
0
  5
A344
 10
107.396
 20
86.6213
 30
0.000000
  70
    32
  0
VERTEX
  8
0
  5
A345
 10
107.324
 20
86.8801
 30
0.000000
  70
    32
  0
VERTEX
  8
0
  5
A346
 10
107.240
 20
87.1350
 30
0.000000
  70
    32
  0
VERTEX
  8
0
  5
A347
 10
107.144
 20
87.3855
 30
0.000000
  70
    32
  0
VERTEX
  8
0
  5
A348
 10
107.035
 20
87.6309
 30
0.000000
  70
    32
  0
VERTEX
  8
0
  5
A349
 10
106.915
 20
87.8707
 30
0.000000
  70
    32
  0
VERTEX
  8
0
  5
A34A
 10
106.783
 20
88.1043
 30
0.000000
  70
    32
  0
VERTEX
  8
0
  5
A34B
 10
106.639
 20
88.3311
 30
0.000000
  70
    32
  0
VERTEX
  8
0
  5
A34C
 10
106.485
 20
88.5506
 30
0.000000
  70
    32
  0
VERTEX
  8
0
  5
A34D
 10
106.320
 20
88.7623
 30
0.000000
  70
    32
  0
VERTEX
  8
0
  5
A34E
 10
106.145
 20
88.9656
 30
0.000000
  70
    32
  0
VERTEX
  8
0
  5
A34F
 10
105.961
 20
89.1600
 30
0.000000
  70
    32
  0
VERTEX
  8
0
  5
A350
 10
105.766
 20
89.3452
 30
0.000000
  70
    32
  0
VERTEX
  8
0
  5
A351
 10
105.564
 20
89.5205
 30
0.000000
  70
    32
  0
VERTEX
  8
0
  5
A352
 10
105.352
 20
89.6857
 30
0.000000
  70
    32
  0
VERTEX
  8
0
  5
A353
 10
105.133
 20
89.8403
 30
0.000000
  70
    32
  0
VERTEX
  8
0
  5
A354
 10
104.907
 20
89.9839
 30
0.000000
  70
    32
  0
VERTEX
  8
0
  5
A355
 10
104.674
 20
90.1163
 30
0.000000
  70
    32
  0
VERTEX
  8
0
  5
A356
 10
104.435
 20
90.2370
 30
0.000000
  70
    32
  0
VERTEX
  8
0
  5
A357
 10
104.190
 20
90.3458
 30
0.000000
  70
    32
  0
VERTEX
  8
0
  5
A358
 10
103.940
 20
90.4424
 30
0.000000
  70
    32
  0
VERTEX
  8
0
  5
A359
 10
103.685
 20
90.5266
 30
0.000000
  70
    32
  0
VERTEX
  8
0
  5
A35A
 10
103.427
 20
90.5982
 30
0.000000
  70
    32
  0
VERTEX
  8
0
  5
A35B
 10
103.166
 20
90.6570
 30
0.000000
  70
    32
  0
VERTEX
  8
0
  5
A35C
 10
102.902
 20
90.7029
 30
0.000000
  70
    32
  0
VERTEX
  8
0
  5
A35D
 10
102.636
 20
90.7358
 30
0.000000
  70
    32
  0
VERTEX
  8
0
  5
A35E
 10
102.369
 20
90.7555
 30
0.000000
  70
    32
  0
VERTEX
  8
0
  5
A35F
 10
102.101
 20
90.7621
 30
0.000000
  70
    32
  0
VERTEX
  8
0
  5
A360
 10
101.833
 20
90.7555
 30
0.000000
  70
    32
  0
VERTEX
  8
0
  5
A361
 10
101.566
 20
90.7358
 30
0.000000
  70
    32
  0
VERTEX
  8
0
  5
A362
 10
101.300
 20
90.7029
 30
0.000000
  70
    32
  0
VERTEX
  8
0
  5
A363
 10
101.036
 20
90.6570
 30
0.000000
  70
    32
  0
VERTEX
  8
0
  5
A364
 10
100.775
 20
90.5982
 30
0.000000
  70
    32
  0
VERTEX
  8
0
  5
A365
 10
100.517
 20
90.5266
 30
0.000000
  70
    32
  0
VERTEX
  8
0
  5
A366
 10
100.262
 20
90.4424
 30
0.000000
  70
    32
  0
VERTEX
  8
0
  5
A367
 10
100.012
 20
90.3458
 30
0.000000
  70
    32
  0
VERTEX
  8
0
  5
A368
 10
99.7673
 20
90.2370
 30
0.000000
  70
    32
  0
VERTEX
  8
0
  5
A369
 10
99.5280
 20
90.1163
 30
0.000000
  70
    32
  0
VERTEX
  8
0
  5
A36A
 10
99.2949
 20
89.9839
 30
0.000000
  70
    32
  0
VERTEX
  8
0
  5
A36B
 10
99.0686
 20
89.8403
 30
0.000000
  70
    32
  0
VERTEX
  8
0
  5
A36C
 10
98.8495
 20
89.6857
 30
0.000000
  70
    32
  0
VERTEX
  8
0
  5
A36D
 10
98.6383
 20
89.5205
 30
0.000000
  70
    32
  0
VERTEX
  8
0
  5
A36E
 10
98.4355
 20
89.3452
 30
0.000000
  70
    32
  0
VERTEX
  8
0
  5
A36F
 10
98.2415
 20
89.1600
 30
0.000000
  70
    32
  0
VERTEX
  8
0
  5
A370
 10
98.0567
 20
88.9656
 30
0.000000
  70
    32
  0
VERTEX
  8
0
  5
A371
 10
97.8817
 20
88.7623
 30
0.000000
  70
    32
  0
VERTEX
  8
0
  5
A372
 10
97.7169
 20
88.5506
 30
0.000000
  70
    32
  0
VERTEX
  8
0
  5
A373
 10
97.5627
 20
88.3311
 30
0.000000
  70
    32
  0
VERTEX
  8
0
  5
A374
 10
97.4193
 20
88.1043
 30
0.000000
  70
    32
  0
VERTEX
  8
0
  5
A375
 10
97.2873
 20
87.8707
 30
0.000000
  70
    32
  0
VERTEX
  8
0
  5
A376
 10
97.1668
 20
87.6309
 30
0.000000
  70
    32
  0
VERTEX
  8
0
  5
A377
 10
97.0583
 20
87.3855
 30
0.000000
  70
    32
  0
VERTEX
  8
0
  5
A378
 10
96.9619
 20
87.1350
 30
0.000000
  70
    32
  0
VERTEX
  8
0
  5
A379
 10
96.8778
 20
86.8801
 30
0.000000
  70
    32
  0
VERTEX
  8
0
  5
A37A
 10
96.8064
 20
86.6213
 30
0.000000
  70
    32
  0
VERTEX
  8
0
  5
A37B
 10
96.7477
 20
86.3593
 30
0.000000
  70
    32
  0
VERTEX
  8
0
  5
A37C
 10
96.7019
 20
86.0948
 30
0.000000
  70
    32
  0
VERTEX
  8
0
  5
A37D
 10
96.6691
 20
85.8284
 30
0.000000
  70
    32
  0
VERTEX
  8
0
  5
A37E
 10
96.6494
 20
85.5606
 30
0.000000
  70
    32
  0
VERTEX
  8
0
  5
A37F
 10
96.6428
 20
85.2922
 30
0.000000
  70
    32
  0
VERTEX
  8
0
  5
A380
 10
96.6494
 20
85.0238
 30
0.000000
  70
    32
  0
VERTEX
  8
0
  5
A381
 10
96.6691
 20
84.7561
 30
0.000000
  70
    32
  0
VERTEX
  8
0
  5
A382
 10
96.7019
 20
84.4896
 30
0.000000
  70
    32
  0
VERTEX
  8
0
  5
A383
 10
96.7477
 20
84.2251
 30
0.000000
  70
    32
  0
VERTEX
  8
0
  5
A384
 10
96.8064
 20
83.9631
 30
0.000000
  70
    32
  0
VERTEX
  8
0
  5
A385
 10
96.8778
 20
83.7044
 30
0.000000
  70
    32
  0
VERTEX
  8
0
  5
A386
 10
96.9619
 20
83.4495
 30
0.000000
  70
    32
  0
VERTEX
  8
0
  5
A387
 10
97.0583
 20
83.1990
 30
0.000000
  70
    32
  0
VERTEX
  8
0
  5
A388
 10
97.1668
 20
82.9535
 30
0.000000
  70
    32
  0
VERTEX
  8
0
  5
A389
 10
97.2873
 20
82.7137
 30
0.000000
  70
    32
  0
VERTEX
  8
0
  5
A38A
 10
97.4193
 20
82.4801
 30
0.000000
  70
    32
  0
VERTEX
  8
0
  5
A38B
 10
97.5627
 20
82.2533
 30
0.000000
  70
    32
  0
VERTEX
  8
0
  5
A38C
 10
97.7169
 20
82.0338
 30
0.000000
  70
    32
  0
VERTEX
  8
0
  5
A38D
 10
97.8817
 20
81.8221
 30
0.000000
  70
    32
  0
VERTEX
  8
0
  5
A38E
 10
98.0567
 20
81.6188
 30
0.000000
  70
    32
  0
VERTEX
  8
0
  5
A38F
 10
98.2415
 20
81.4244
 30
0.000000
  70
    32
  0
VERTEX
  8
0
  5
A390
 10
98.4355
 20
81.2393
 30
0.000000
  70
    32
  0
VERTEX
  8
0
  5
A391
 10
98.6383
 20
81.0639
 30
0.000000
  70
    32
  0
VERTEX
  8
0
  5
A392
 10
98.8495
 20
80.8987
 30
0.000000
  70
    32
  0
VERTEX
  8
0
  5
A393
 10
99.0686
 20
80.7441
 30
0.000000
  70
    32
  0
VERTEX
  8
0
  5
A394
 10
99.2949
 20
80.6005
 30
0.000000
  70
    32
  0
VERTEX
  8
0
  5
A395
 10
99.5280
 20
80.4682
 30
0.000000
  70
    32
  0
VERTEX
  8
0
  5
A396
 10
99.7673
 20
80.3475
 30
0.000000
  70
    32
  0
VERTEX
  8
0
  5
A397
 10
100.012
 20
80.2387
 30
0.000000
  70
    32
  0
VERTEX
  8
0
  5
A398
 10
100.262
 20
80.1420
 30
0.000000
  70
    32
  0
VERTEX
  8
0
  5
A399
 10
100.517
 20
80.0578
 30
0.000000
  70
    32
  0
VERTEX
  8
0
  5
A39A
 10
100.775
 20
79.9862
 30
0.000000
  70
    32
  0
VERTEX
  8
0
  5
A39B
 10
101.036
 20
79.9274
 30
0.000000
  70
    32
  0
VERTEX
  8
0
  5
A39C
 10
101.300
 20
79.8815
 30
0.000000
  70
    32
  0
VERTEX
  8
0
  5
A39D
 10
101.566
 20
79.8486
 30
0.000000
  70
    32
  0
VERTEX
  8
0
  5
A39E
 10
101.833
 20
79.8289
 30
0.000000
  70
    32
  0
VERTEX
  8
0
  5
A39F
 10
102.101
 20
79.8223
 30
0.000000
  70
    32
  0
SEQEND
  8
0
  5
A3A0
  0
POLYLINE
  5
666E
  8
0
 10
139.70812605817898
 20
90.762135572085583
 30
0.0
 66
     1
 70
     8
  0
VERTEX
  8
0
  5
A3A1
 10
139.708
 20
90.7621
 30
0.000000
  70
    32
  0
VERTEX
  8
0
  5
A3A2
 10
139.440
 20
90.7555
 30
0.000000
  70
    32
  0
VERTEX
  8
0
  5
A3A3
 10
139.173
 20
90.7358
 30
0.000000
  70
    32
  0
VERTEX
  8
0
  5
A3A4
 10
138.907
 20
90.7029
 30
0.000000
  70
    32
  0
VERTEX
  8
0
  5
A3A5
 10
138.643
 20
90.6570
 30
0.000000
  70
    32
  0
VERTEX
  8
0
  5
A3A6
 10
138.382
 20
90.5982
 30
0.000000
  70
    32
  0
VERTEX
  8
0
  5
A3A7
 10
138.124
 20
90.5266
 30
0.000000
  70
    32
  0
VERTEX
  8
0
  5
A3A8
 10
137.869
 20
90.4424
 30
0.000000
  70
    32
  0
VERTEX
  8
0
  5
A3A9
 10
137.619
 20
90.3458
 30
0.000000
  70
    32
  0
VERTEX
  8
0
  5
A3AA
 10
137.374
 20
90.2370
 30
0.000000
  70
    32
  0
VERTEX
  8
0
  5
A3AB
 10
137.135
 20
90.1163
 30
0.000000
  70
    32
  0
VERTEX
  8
0
  5
A3AC
 10
136.902
 20
89.9839
 30
0.000000
  70
    32
  0
VERTEX
  8
0
  5
A3AD
 10
136.676
 20
89.8403
 30
0.000000
  70
    32
  0
VERTEX
  8
0
  5
A3AE
 10
136.457
 20
89.6857
 30
0.000000
  70
    32
  0
VERTEX
  8
0
  5
A3AF
 10
136.245
 20
89.5205
 30
0.000000
  70
    32
  0
VERTEX
  8
0
  5
A3B0
 10
136.043
 20
89.3452
 30
0.000000
  70
    32
  0
VERTEX
  8
0
  5
A3B1
 10
135.849
 20
89.1600
 30
0.000000
  70
    32
  0
VERTEX
  8
0
  5
A3B2
 10
135.664
 20
88.9656
 30
0.000000
  70
    32
  0
VERTEX
  8
0
  5
A3B3
 10
135.489
 20
88.7623
 30
0.000000
  70
    32
  0
VERTEX
  8
0
  5
A3B4
 10
135.324
 20
88.5506
 30
0.000000
  70
    32
  0
VERTEX
  8
0
  5
A3B5
 10
135.170
 20
88.3311
 30
0.000000
  70
    32
  0
VERTEX
  8
0
  5
A3B6
 10
135.026
 20
88.1043
 30
0.000000
  70
    32
  0
VERTEX
  8
0
  5
A3B7
 10
134.894
 20
87.8707
 30
0.000000
  70
    32
  0
VERTEX
  8
0
  5
A3B8
 10
134.774
 20
87.6309
 30
0.000000
  70
    32
  0
VERTEX
  8
0
  5
A3B9
 10
134.665
 20
87.3855
 30
0.000000
  70
    32
  0
VERTEX
  8
0
  5
A3BA
 10
134.569
 20
87.1350
 30
0.000000
  70
    32
  0
VERTEX
  8
0
  5
A3BB
 10
134.485
 20
86.8801
 30
0.000000
  70
    32
  0
VERTEX
  8
0
  5
A3BC
 10
134.414
 20
86.6213
 30
0.000000
  70
    32
  0
VERTEX
  8
0
  5
A3BD
 10
134.355
 20
86.3593
 30
0.000000
  70
    32
  0
VERTEX
  8
0
  5
A3BE
 10
134.309
 20
86.0948
 30
0.000000
  70
    32
  0
VERTEX
  8
0
  5
A3BF
 10
134.276
 20
85.8284
 30
0.000000
  70
    32
  0
VERTEX
  8
0
  5
A3C0
 10
134.257
 20
85.5606
 30
0.000000
  70
    32
  0
VERTEX
  8
0
  5
A3C1
 10
134.250
 20
85.2922
 30
0.000000
  70
    32
  0
VERTEX
  8
0
  5
A3C2
 10
134.257
 20
85.0238
 30
0.000000
  70
    32
  0
VERTEX
  8
0
  5
A3C3
 10
134.276
 20
84.7561
 30
0.000000
  70
    32
  0
VERTEX
  8
0
  5
A3C4
 10
134.309
 20
84.4896
 30
0.000000
  70
    32
  0
VERTEX
  8
0
  5
A3C5
 10
134.355
 20
84.2251
 30
0.000000
  70
    32
  0
VERTEX
  8
0
  5
A3C6
 10
134.414
 20
83.9631
 30
0.000000
  70
    32
  0
VERTEX
  8
0
  5
A3C7
 10
134.485
 20
83.7044
 30
0.000000
  70
    32
  0
VERTEX
  8
0
  5
A3C8
 10
134.569
 20
83.4495
 30
0.000000
  70
    32
  0
VERTEX
  8
0
  5
A3C9
 10
134.665
 20
83.1990
 30
0.000000
  70
    32
  0
VERTEX
  8
0
  5
A3CA
 10
134.774
 20
82.9535
 30
0.000000
  70
    32
  0
VERTEX
  8
0
  5
A3CB
 10
134.894
 20
82.7137
 30
0.000000
  70
    32
  0
VERTEX
  8
0
  5
A3CC
 10
135.026
 20
82.4801
 30
0.000000
  70
    32
  0
VERTEX
  8
0
  5
A3CD
 10
135.170
 20
82.2533
 30
0.000000
  70
    32
  0
VERTEX
  8
0
  5
A3CE
 10
135.324
 20
82.0338
 30
0.000000
  70
    32
  0
VERTEX
  8
0
  5
A3CF
 10
135.489
 20
81.8221
 30
0.000000
  70
    32
  0
VERTEX
  8
0
  5
A3D0
 10
135.664
 20
81.6188
 30
0.000000
  70
    32
  0
VERTEX
  8
0
  5
A3D1
 10
135.849
 20
81.4244
 30
0.000000
  70
    32
  0
VERTEX
  8
0
  5
A3D2
 10
136.043
 20
81.2393
 30
0.000000
  70
    32
  0
VERTEX
  8
0
  5
A3D3
 10
136.245
 20
81.0639
 30
0.000000
  70
    32
  0
VERTEX
  8
0
  5
A3D4
 10
136.457
 20
80.8987
 30
0.000000
  70
    32
  0
VERTEX
  8
0
  5
A3D5
 10
136.676
 20
80.7441
 30
0.000000
  70
    32
  0
VERTEX
  8
0
  5
A3D6
 10
136.902
 20
80.6005
 30
0.000000
  70
    32
  0
VERTEX
  8
0
  5
A3D7
 10
137.135
 20
80.4682
 30
0.000000
  70
    32
  0
VERTEX
  8
0
  5
A3D8
 10
137.374
 20
80.3475
 30
0.000000
  70
    32
  0
VERTEX
  8
0
  5
A3D9
 10
137.619
 20
80.2387
 30
0.000000
  70
    32
  0
VERTEX
  8
0
  5
A3DA
 10
137.869
 20
80.1420
 30
0.000000
  70
    32
  0
VERTEX
  8
0
  5
A3DB
 10
138.124
 20
80.0578
 30
0.000000
  70
    32
  0
VERTEX
  8
0
  5
A3DC
 10
138.382
 20
79.9862
 30
0.000000
  70
    32
  0
VERTEX
  8
0
  5
A3DD
 10
138.643
 20
79.9274
 30
0.000000
  70
    32
  0
VERTEX
  8
0
  5
A3DE
 10
138.907
 20
79.8815
 30
0.000000
  70
    32
  0
VERTEX
  8
0
  5
A3DF
 10
139.173
 20
79.8486
 30
0.000000
  70
    32
  0
VERTEX
  8
0
  5
A3E0
 10
139.440
 20
79.8289
 30
0.000000
  70
    32
  0
VERTEX
  8
0
  5
A3E1
 10
139.708
 20
79.8223
 30
0.000000
  70
    32
  0
VERTEX
  8
0
  5
A3E2
 10
139.976
 20
79.8289
 30
0.000000
  70
    32
  0
VERTEX
  8
0
  5
A3E3
 10
140.243
 20
79.8486
 30
0.000000
  70
    32
  0
VERTEX
  8
0
  5
A3E4
 10
140.509
 20
79.8815
 30
0.000000
  70
    32
  0
VERTEX
  8
0
  5
A3E5
 10
140.773
 20
79.9274
 30
0.000000
  70
    32
  0
VERTEX
  8
0
  5
A3E6
 10
141.034
 20
79.9862
 30
0.000000
  70
    32
  0
VERTEX
  8
0
  5
A3E7
 10
141.293
 20
80.0578
 30
0.000000
  70
    32
  0
VERTEX
  8
0
  5
A3E8
 10
141.547
 20
80.1420
 30
0.000000
  70
    32
  0
VERTEX
  8
0
  5
A3E9
 10
141.797
 20
80.2387
 30
0.000000
  70
    32
  0
VERTEX
  8
0
  5
A3EA
 10
142.042
 20
80.3475
 30
0.000000
  70
    32
  0
VERTEX
  8
0
  5
A3EB
 10
142.281
 20
80.4682
 30
0.000000
  70
    32
  0
VERTEX
  8
0
  5
A3EC
 10
142.514
 20
80.6005
 30
0.000000
  70
    32
  0
VERTEX
  8
0
  5
A3ED
 10
142.741
 20
80.7441
 30
0.000000
  70
    32
  0
VERTEX
  8
0
  5
A3EE
 10
142.960
 20
80.8987
 30
0.000000
  70
    32
  0
VERTEX
  8
0
  5
A3EF
 10
143.171
 20
81.0639
 30
0.000000
  70
    32
  0
VERTEX
  8
0
  5
A3F0
 10
143.374
 20
81.2393
 30
0.000000
  70
    32
  0
VERTEX
  8
0
  5
A3F1
 10
143.568
 20
81.4244
 30
0.000000
  70
    32
  0
VERTEX
  8
0
  5
A3F2
 10
143.752
 20
81.6188
 30
0.000000
  70
    32
  0
VERTEX
  8
0
  5
A3F3
 10
143.927
 20
81.8221
 30
0.000000
  70
    32
  0
VERTEX
  8
0
  5
A3F4
 10
144.092
 20
82.0338
 30
0.000000
  70
    32
  0
VERTEX
  8
0
  5
A3F5
 10
144.246
 20
82.2533
 30
0.000000
  70
    32
  0
VERTEX
  8
0
  5
A3F6
 10
144.390
 20
82.4801
 30
0.000000
  70
    32
  0
VERTEX
  8
0
  5
A3F7
 10
144.522
 20
82.7137
 30
0.000000
  70
    32
  0
VERTEX
  8
0
  5
A3F8
 10
144.642
 20
82.9535
 30
0.000000
  70
    32
  0
VERTEX
  8
0
  5
A3F9
 10
144.751
 20
83.1990
 30
0.000000
  70
    32
  0
VERTEX
  8
0
  5
A3FA
 10
144.847
 20
83.4495
 30
0.000000
  70
    32
  0
VERTEX
  8
0
  5
A3FB
 10
144.931
 20
83.7044
 30
0.000000
  70
    32
  0
VERTEX
  8
0
  5
A3FC
 10
145.003
 20
83.9631
 30
0.000000
  70
    32
  0
VERTEX
  8
0
  5
A3FD
 10
145.061
 20
84.2251
 30
0.000000
  70
    32
  0
VERTEX
  8
0
  5
A3FE
 10
145.107
 20
84.4896
 30
0.000000
  70
    32
  0
VERTEX
  8
0
  5
A3FF
 10
145.140
 20
84.7561
 30
0.000000
  70
    32
  0
VERTEX
  8
0
  5
A400
 10
145.160
 20
85.0238
 30
0.000000
  70
    32
  0
VERTEX
  8
0
  5
A401
 10
145.166
 20
85.2922
 30
0.000000
  70
    32
  0
VERTEX
  8
0
  5
A402
 10
145.160
 20
85.5606
 30
0.000000
  70
    32
  0
VERTEX
  8
0
  5
A403
 10
145.140
 20
85.8284
 30
0.000000
  70
    32
  0
VERTEX
  8
0
  5
A404
 10
145.107
 20
86.0948
 30
0.000000
  70
    32
  0
VERTEX
  8
0
  5
A405
 10
145.061
 20
86.3593
 30
0.000000
  70
    32
  0
VERTEX
  8
0
  5
A406
 10
145.003
 20
86.6213
 30
0.000000
  70
    32
  0
VERTEX
  8
0
  5
A407
 10
144.931
 20
86.8801
 30
0.000000
  70
    32
  0
VERTEX
  8
0
  5
A408
 10
144.847
 20
87.1350
 30
0.000000
  70
    32
  0
VERTEX
  8
0
  5
A409
 10
144.751
 20
87.3855
 30
0.000000
  70
    32
  0
VERTEX
  8
0
  5
A40A
 10
144.642
 20
87.6309
 30
0.000000
  70
    32
  0
VERTEX
  8
0
  5
A40B
 10
144.522
 20
87.8707
 30
0.000000
  70
    32
  0
VERTEX
  8
0
  5
A40C
 10
144.390
 20
88.1043
 30
0.000000
  70
    32
  0
VERTEX
  8
0
  5
A40D
 10
144.246
 20
88.3311
 30
0.000000
  70
    32
  0
VERTEX
  8
0
  5
A40E
 10
144.092
 20
88.5506
 30
0.000000
  70
    32
  0
VERTEX
  8
0
  5
A40F
 10
143.927
 20
88.7623
 30
0.000000
  70
    32
  0
VERTEX
  8
0
  5
A410
 10
143.752
 20
88.9656
 30
0.000000
  70
    32
  0
VERTEX
  8
0
  5
A411
 10
143.568
 20
89.1600
 30
0.000000
  70
    32
  0
VERTEX
  8
0
  5
A412
 10
143.374
 20
89.3452
 30
0.000000
  70
    32
  0
VERTEX
  8
0
  5
A413
 10
143.171
 20
89.5205
 30
0.000000
  70
    32
  0
VERTEX
  8
0
  5
A414
 10
142.960
 20
89.6857
 30
0.000000
  70
    32
  0
VERTEX
  8
0
  5
A415
 10
142.741
 20
89.8403
 30
0.000000
  70
    32
  0
VERTEX
  8
0
  5
A416
 10
142.514
 20
89.9839
 30
0.000000
  70
    32
  0
VERTEX
  8
0
  5
A417
 10
142.281
 20
90.1163
 30
0.000000
  70
    32
  0
VERTEX
  8
0
  5
A418
 10
142.042
 20
90.2370
 30
0.000000
  70
    32
  0
VERTEX
  8
0
  5
A419
 10
141.797
 20
90.3458
 30
0.000000
  70
    32
  0
VERTEX
  8
0
  5
A41A
 10
141.547
 20
90.4424
 30
0.000000
  70
    32
  0
VERTEX
  8
0
  5
A41B
 10
141.293
 20
90.5266
 30
0.000000
  70
    32
  0
VERTEX
  8
0
  5
A41C
 10
141.034
 20
90.5982
 30
0.000000
  70
    32
  0
VERTEX
  8
0
  5
A41D
 10
140.773
 20
90.6570
 30
0.000000
  70
    32
  0
VERTEX
  8
0
  5
A41E
 10
140.509
 20
90.7029
 30
0.000000
  70
    32
  0
VERTEX
  8
0
  5
A41F
 10
140.243
 20
90.7358
 30
0.000000
  70
    32
  0
VERTEX
  8
0
  5
A420
 10
139.976
 20
90.7555
 30
0.000000
  70
    32
  0
VERTEX
  8
0
  5
A421
 10
139.708
 20
90.7621
 30
0.000000
  70
    32
  0
SEQEND
  8
0
  5
A422
  0
LINE
  5
666F
  8
1
 10
120.9045525416692
 20
116.8836625822678
 30
0.0
 11
120.9045525416692
 21
141.633726927851
 31
0.0
  0
LINE
  5
6670
  8
1
 10
153.0452855133515
 20
129.25869475505939
 30
0.0
 11
88.763819569986936
 21
129.25869475505939
 31
0.0
  0
ARC
  5
6671
  8
0
 10
120.90455254166871
 20
129.25869475505939
 30
0.0
 40
27.499999999999499
 50
174.6831109538285
 51
185.3168890461715
  0
ARC
  5
6672
  8
0
 10
120.9045525416697
 20
129.25869475505939
 30
0.0
 40
27.49999999999952
 50
354.68311095382847
 51
5.3168890461682556
  0
LINE
  5
6673
  8
0
 10
107.54660356994989
 20
132.43769228682541
 30
0.0
 11
107.5591674210621
 21
132.4425062715336
 31
0.0
  0
POLYLINE
  5
6674
  8
0
 66
     1
 10
0.0
 20
0.0
 30
0.0
  0
VERTEX
  5
A09D
  8
0
 10
111.32167351740679
 20
126.3216782363565
 30
0.0
  0
VERTEX
  5
A09E
  8
0
 10
111.41152542597619
 20
126.3263043896458
 30
0.0
  0
VERTEX
  5
A09F
  8
0
 10
111.5940141759483
 20
126.32792196253899
 30
0.0
  0
VERTEX
  5
A0A0
  8
0
 10
111.779172157367
 20
126.3189116744321
 30
0.0
  0
VERTEX
  5
A0A1
  8
0
 10
111.8723590088248
 20
126.31029385148931
 30
0.0
  0
VERTEX
  5
A0A2
  8
0
 10
111.9657448588426
 20
126.2988874894545
 30
0.0
  0
VERTEX
  5
A0A3
  8
0
 10
112.15251006770239
 20
126.26762856723219
 30
0.0
  0
VERTEX
  5
A0A4
  8
0
 10
112.33825754487739
 20
126.2250755326687
 30
0.0
  0
VERTEX
  5
A0A5
  8
0
 10
112.52178816599221
 20
126.1713315750399
 30
0.0
  0
VERTEX
  5
A0A6
  8
0
 10
112.70201022635899
 20
126.1066301113753
 30
0.0
  0
VERTEX
  5
A0A7
  8
0
 10
112.87793969834691
 20
126.0313114285246
 30
0.0
  0
VERTEX
  5
A0A8
  8
0
 10
112.9639596626524
 20
125.9898292331806
 30
0.0
  0
VERTEX
  5
A0A9
  8
0
 10
113.0485107844838
 20
125.9459024340798
 30
0.0
  0
VERTEX
  5
A0AA
  8
0
 10
113.2127240011187
 20
125.8510782363837
 30
0.0
  0
VERTEX
  5
A0AB
  8
0
 10
113.3696733295038
 20
125.7476483749107
 30
0.0
  0
VERTEX
  5
A0AC
  8
0
 10
113.5185215401346
 20
125.63657562027259
 30
0.0
  0
VERTEX
  5
A0AD
  8
0
 10
113.6585462722298
 20
125.5189511585375
 30
0.0
  0
VERTEX
  5
A0AE
  8
0
 10
113.79214179844119
 20
125.3930021766534
 30
0.0
  0
VERTEX
  5
A0AF
  8
0
 10
113.8569842798092
 20
125.32634893227549
 30
0.0
  0
VERTEX
  5
A0B0
  8
0
 10
113.920309415014
 20
125.25733846688421
 30
0.0
  0
VERTEX
  5
A0B1
  8
0
 10
114.0418156030894
 20
125.1125805710446
 30
0.0
  0
VERTEX
  5
A0B2
  8
0
 10
114.1555729690715
 20
124.9594568217788
 30
0.0
  0
VERTEX
  5
A0B3
  8
0
 10
114.2092448248633
 20
124.88001292404221
 30
0.0
  0
SEQEND
  5
A0B4
  8
0
  0
POLYLINE
  5
6675
  8
0
 66
     1
 10
0.0
 20
0.0
 30
0.0
  0
VERTEX
  5
A0B5
  8
0
 10
127.4721784983463
 20
124.6907313912416
 30
0.0
  0
VERTEX
  5
A0B6
  8
0
 10
127.6509328770792
 20
124.9557254065076
 30
0.0
  0
VERTEX
  5
A0B7
  8
0
 10
127.76093923080791
 20
125.10451813686259
 30
0.0
  0
VERTEX
  5
A0B8
  8
0
 10
127.88111040174179
 20
125.24868168420851
 30
0.0
  0
VERTEX
  5
A0B9
  8
0
 10
127.9448541658314
 20
125.31863335376769
 30
0.0
  0
VERTEX
  5
A0BA
  8
0
 10
128.01093969390971
 20
125.38697170054429
 30
0.0
  0
VERTEX
  5
A0BB
  8
0
 10
128.1498053391166
 20
125.51828036865609
 30
0.0
  0
VERTEX
  5
A0BC
  8
0
 10
128.29695920347871
 20
125.64161460990989
 30
0.0
  0
VERTEX
  5
A0BD
  8
0
 10
128.451528328622
 20
125.75609831619769
 30
0.0
  0
VERTEX
  5
A0BE
  8
0
 10
128.61261481444049
 20
125.8610385406452
 30
0.0
  0
VERTEX
  5
A0BF
  8
0
 10
128.77928258599849
 20
125.9558879862454
 30
0.0
  0
VERTEX
  5
A0C0
  8
0
 10
128.8643595518175
 20
125.9993706049824
 30
0.0
  0
VERTEX
  5
A0C1
  8
0
 10
128.95040138252921
 20
126.040159259859
 30
0.0
  0
VERTEX
  5
A0C2
  8
0
 10
129.1247704404542
 20
126.11351915528169
 30
0.0
  0
VERTEX
  5
A0C3
  8
0
 10
129.30113867937399
 20
126.1757969693809
 30
0.0
  0
VERTEX
  5
A0C4
  8
0
 10
129.47817531290571
 20
126.2269763195098
 30
0.0
  0
VERTEX
  5
A0C5
  8
0
 10
129.65472274550339
 20
126.26725736768169
 30
0.0
  0
VERTEX
  5
A0C6
  8
0
 10
129.8344207579957
 20
126.2976491324772
 30
0.0
  0
VERTEX
  5
A0C7
  8
0
 10
129.92584805392681
 20
126.3091061736128
 30
0.0
  0
VERTEX
  5
A0C8
  8
0
 10
130.01813570147081
 20
126.317972494261
 30
0.0
  0
VERTEX
  5
A0C9
  8
0
 10
130.20471168914801
 20
126.32770108802291
 30
0.0
  0
VERTEX
  5
A0CA
  8
0
 10
130.39300157891131
 20
126.3264723282843
 30
0.0
  0
VERTEX
  5
A0CB
  8
0
 10
130.4874315659317
 20
126.3216782363565
 30
0.0
  0
SEQEND
  5
A0CC
  8
0
  0
LINE
  5
6676
  8
0
 10
130.4874315659317
 20
126.3216782363565
 30
0.0
 11
146.6931158983202
 21
125.25869475505939
 31
0.0
  0
POLYLINE
  5
6677
  8
0
 66
     1
 10
0.0
 20
0.0
 30
0.0
  0
VERTEX
  5
A0CD
  8
0
 10
146.6931158983202
 20
125.25869475505939
 30
0.0
  0
VERTEX
  5
A0CE
  8
0
 10
146.77262504352231
 20
125.2606715087237
 30
0.0
  0
VERTEX
  5
A0CF
  8
0
 10
146.92646707893101
 20
125.2758027099384
 30
0.0
  0
VERTEX
  5
A0D0
  8
0
 10
147.07309920849801
 20
125.3044706129273
 30
0.0
  0
VERTEX
  5
A0D1
  8
0
 10
147.14355223617039
 20
125.3234074511504
 30
0.0
  0
VERTEX
  5
A0D2
  8
0
 10
147.2120049823537
 20
125.3451710127709
 30
0.0
  0
VERTEX
  5
A0D3
  8
0
 10
147.34294862650299
 20
125.39660124731699
 30
0.0
  0
VERTEX
  5
A0D4
  8
0
 10
147.46596145752781
 20
125.4577273244555
 30
0.0
  0
VERTEX
  5
A0D5
  8
0
 10
147.58085148137741
 20
125.5275578219928
 30
0.0
  0
VERTEX
  5
A0D6
  8
0
 10
147.68744313866341
 20
125.60517437664051
 30
0.0
  0
VERTEX
  5
A0D7
  8
0
 10
147.78557993485191
 20
125.689711295431
 30
0.0
  0
VERTEX
  5
A0D8
  8
0
 10
147.83143505606421
 20
125.7343151505162
 30
0.0
  0
VERTEX
  5
A0D9
  8
0
 10
147.87512852672751
 20
125.7803413128682
 30
0.0
  0
VERTEX
  5
A0DA
  8
0
 10
147.95601231759699
 20
125.87630347141641
 30
0.0
  0
VERTEX
  5
A0DB
  8
0
 10
148.02830347689439
 20
125.97706323905
 30
0.0
  0
VERTEX
  5
A0DC
  8
0
 10
148.09197858002179
 20
126.0820460585805
 30
0.0
  0
VERTEX
  5
A0DD
  8
0
 10
148.14699463835649
 20
126.1906853170495
 30
0.0
  0
VERTEX
  5
A0DE
  8
0
 10
148.1933071764544
 20
126.3024339088641
 30
0.0
  0
VERTEX
  5
A0DF
  8
0
 10
148.21318567521769
 20
126.3593072568549
 30
0.0
  0
VERTEX
  5
A0E0
  8
0
 10
148.2308716642786
 20
126.41675900830271
 30
0.0
  0
VERTEX
  5
A0E1
  8
0
 10
148.25964479948649
 20
126.5331379983937
 30
0.0
  0
VERTEX
  5
A0E2
  8
0
 10
148.27958551510281
 20
126.65105527175839
 30
0.0
  0
VERTEX
  5
A0E3
  8
0
 10
148.28623178135649
 20
126.7104322067969
 30
0.0
  0
SEQEND
  5
A0E4
  8
0
  0
LINE
  5
6678
  8
0
 10
111.32167351740669
 20
132.1957112737623
 30
0.0
 11
95.115989185018293
 21
133.25869475505939
 31
0.0
  0
POLYLINE
  5
6679
  8
0
 66
     1
 10
0.0
 20
0.0
 30
0.0
  0
VERTEX
  5
A0E5
  8
0
 10
95.115989185018293
 20
133.25869475505939
 30
0.0
  0
VERTEX
  5
A0E6
  8
0
 10
95.036480039816183
 20
133.25671800139509
 30
0.0
  0
VERTEX
  5
A0E7
  8
0
 10
94.882638004407454
 20
133.2415868001805
 30
0.0
  0
VERTEX
  5
A0E8
  8
0
 10
94.736005874840544
 20
133.2129188971916
 30
0.0
  0
VERTEX
  5
A0E9
  8
0
 10
94.665552847168158
 20
133.1939820589684
 30
0.0
  0
VERTEX
  5
A0EA
  8
0
 10
94.597100100984846
 20
133.1722184973479
 30
0.0
  0
VERTEX
  5
A0EB
  8
0
 10
94.466156456835549
 20
133.1207882628018
 30
0.0
  0
VERTEX
  5
A0EC
  8
0
 10
94.343143625810754
 20
133.0596621856634
 30
0.0
  0
VERTEX
  5
A0ED
  8
0
 10
94.228253601961114
 20
132.989831688126
 30
0.0
  0
VERTEX
  5
A0EE
  8
0
 10
94.121661944675111
 20
132.9122151334783
 30
0.0
  0
VERTEX
  5
A0EF
  8
0
 10
94.023525148486613
 20
132.82767821468781
 30
0.0
  0
VERTEX
  5
A0F0
  8
0
 10
93.977670027274243
 20
132.78307435960269
 30
0.0
  0
VERTEX
  5
A0F1
  8
0
 10
93.933976556611015
 20
132.73704819725069
 30
0.0
  0
VERTEX
  5
A0F2
  8
0
 10
93.853092765741508
 20
132.6410860387025
 30
0.0
  0
VERTEX
  5
A0F3
  8
0
 10
93.780801606444058
 20
132.54032627106889
 30
0.0
  0
VERTEX
  5
A0F4
  8
0
 10
93.717126503316635
 20
132.43534345153839
 30
0.0
  0
VERTEX
  5
A0F5
  8
0
 10
93.662110444981906
 20
132.3267041930693
 30
0.0
  0
VERTEX
  5
A0F6
  8
0
 10
93.61579790688404
 20
132.21495560125479
 30
0.0
  0
VERTEX
  5
A0F7
  8
0
 10
93.595919408120835
 20
132.1580822532639
 30
0.0
  0
VERTEX
  5
A0F8
  8
0
 10
93.578233419059757
 20
132.10063050181611
 30
0.0
  0
VERTEX
  5
A0F9
  8
0
 10
93.549460283851943
 20
131.98425151172501
 30
0.0
  0
VERTEX
  5
A0FA
  8
0
 10
93.529519568235628
 20
131.86633423836051
 30
0.0
  0
VERTEX
  5
A0FB
  8
0
 10
93.522873301981917
 20
131.80695730332189
 30
0.0
  0
SEQEND
  5
A0FC
  8
0
  0
POLYLINE
  5
667A
  8
0
 66
     1
 10
0.0
 20
0.0
 30
0.0
  0
VERTEX
  5
A0FD
  8
0
 10
148.28623178135649
 20
131.80695730332189
 30
0.0
  0
VERTEX
  5
A0FE
  8
0
 10
148.27958551510281
 20
131.86633423836051
 30
0.0
  0
VERTEX
  5
A0FF
  8
0
 10
148.25964479948649
 20
131.98425151172501
 30
0.0
  0
VERTEX
  5
A100
  8
0
 10
148.2308716642786
 20
132.10063050181611
 30
0.0
  0
VERTEX
  5
A101
  8
0
 10
148.2131856752176
 20
132.1580822532639
 30
0.0
  0
VERTEX
  5
A102
  8
0
 10
148.1933071764544
 20
132.21495560125479
 30
0.0
  0
VERTEX
  5
A103
  8
0
 10
148.14699463835649
 20
132.3267041930693
 30
0.0
  0
VERTEX
  5
A104
  8
0
 10
148.09197858002179
 20
132.43534345153839
 30
0.0
  0
VERTEX
  5
A105
  8
0
 10
148.02830347689439
 20
132.54032627106889
 30
0.0
  0
VERTEX
  5
A106
  8
0
 10
147.9560123175969
 20
132.6410860387025
 30
0.0
  0
VERTEX
  5
A107
  8
0
 10
147.87512852672739
 20
132.73704819725069
 30
0.0
  0
VERTEX
  5
A108
  8
0
 10
147.83143505606409
 20
132.78307435960269
 30
0.0
  0
VERTEX
  5
A109
  8
0
 10
147.7855799348518
 20
132.82767821468781
 30
0.0
  0
VERTEX
  5
A10A
  8
0
 10
147.6874431386633
 20
132.9122151334783
 30
0.0
  0
VERTEX
  5
A10B
  8
0
 10
147.58085148137741
 20
132.989831688126
 30
0.0
  0
VERTEX
  5
A10C
  8
0
 10
147.46596145752781
 20
133.0596621856634
 30
0.0
  0
VERTEX
  5
A10D
  8
0
 10
147.3429486265029
 20
133.1207882628018
 30
0.0
  0
VERTEX
  5
A10E
  8
0
 10
147.21200498235359
 20
133.1722184973479
 30
0.0
  0
VERTEX
  5
A10F
  8
0
 10
147.14355223617031
 20
133.1939820589684
 30
0.0
  0
VERTEX
  5
A110
  8
0
 10
147.07309920849781
 20
133.2129188971916
 30
0.0
  0
VERTEX
  5
A111
  8
0
 10
146.9264670789309
 20
133.2415868001805
 30
0.0
  0
VERTEX
  5
A112
  8
0
 10
146.7726250435222
 20
133.25671800139509
 30
0.0
  0
VERTEX
  5
A113
  8
0
 10
146.6931158983202
 20
133.25869475505939
 30
0.0
  0
SEQEND
  5
A114
  8
0
  0
LINE
  5
667B
  8
0
 10
95.115989185018293
 20
125.25869475505939
 30
0.0
 11
111.32167351740679
 21
126.3216782363565
 31
0.0
  0
POLYLINE
  5
667C
  8
0
 66
     1
 10
0.0
 20
0.0
 30
0.0
  0
VERTEX
  5
A115
  8
0
 10
93.522873301981917
 20
126.7104322067969
 30
0.0
  0
VERTEX
  5
A116
  8
0
 10
93.529519568235628
 20
126.6510552717583
 30
0.0
  0
VERTEX
  5
A117
  8
0
 10
93.549460283851943
 20
126.5331379983938
 30
0.0
  0
VERTEX
  5
A118
  8
0
 10
93.578233419059757
 20
126.41675900830271
 30
0.0
  0
VERTEX
  5
A119
  8
0
 10
93.595919408120835
 20
126.3593072568549
 30
0.0
  0
VERTEX
  5
A11A
  8
0
 10
93.61579790688404
 20
126.3024339088641
 30
0.0
  0
VERTEX
  5
A11B
  8
0
 10
93.662110444981863
 20
126.1906853170496
 30
0.0
  0
VERTEX
  5
A11C
  8
0
 10
93.717126503316592
 20
126.0820460585805
 30
0.0
  0
VERTEX
  5
A11D
  8
0
 10
93.780801606444015
 20
125.97706323905
 30
0.0
  0
VERTEX
  5
A11E
  8
0
 10
93.853092765741465
 20
125.87630347141641
 30
0.0
  0
VERTEX
  5
A11F
  8
0
 10
93.933976556610943
 20
125.7803413128682
 30
0.0
  0
VERTEX
  5
A120
  8
0
 10
93.9776700272742
 20
125.7343151505162
 30
0.0
  0
VERTEX
  5
A121
  8
0
 10
94.023525148486485
 20
125.689711295431
 30
0.0
  0
VERTEX
  5
A122
  8
0
 10
94.121661944674997
 20
125.60517437664051
 30
0.0
  0
VERTEX
  5
A123
  8
0
 10
94.228253601960944
 20
125.5275578219928
 30
0.0
  0
VERTEX
  5
A124
  8
0
 10
94.343143625810626
 20
125.4577273244555
 30
0.0
  0
VERTEX
  5
A125
  8
0
 10
94.466156456835449
 20
125.39660124731699
 30
0.0
  0
VERTEX
  5
A126
  8
0
 10
94.597100100984676
 20
125.345171012771
 30
0.0
  0
VERTEX
  5
A127
  8
0
 10
94.665552847168044
 20
125.3234074511505
 30
0.0
  0
VERTEX
  5
A128
  8
0
 10
94.736005874840416
 20
125.3044706129273
 30
0.0
  0
VERTEX
  5
A129
  8
0
 10
94.88263800440734
 20
125.2758027099384
 30
0.0
  0
VERTEX
  5
A12A
  8
0
 10
95.036480039816126
 20
125.2606715087237
 30
0.0
  0
VERTEX
  5
A12B
  8
0
 10
95.115989185018293
 20
125.25869475505939
 30
0.0
  0
SEQEND
  5
A12C
  8
0
  0
LINE
  5
667D
  8
0
 10
146.6931158983202
 20
133.25869475505939
 30
0.0
 11
130.4874315659317
 21
132.1957112737623
 31
0.0
  0
POLYLINE
  5
667E
  8
0
 66
     1
 10
0.0
 20
0.0
 30
0.0
  0
VERTEX
  5
A12D
  8
0
 10
130.4874315659317
 20
132.1957112737623
 30
0.0
  0
VERTEX
  5
A12E
  8
0
 10
130.3975796544467
 20
132.19108512036399
 30
0.0
  0
VERTEX
  5
A12F
  8
0
 10
130.21509089848391
 20
132.1894675477549
 30
0.0
  0
VERTEX
  5
A130
  8
0
 10
130.0299329109632
 20
132.19847783685361
 30
0.0
  0
VERTEX
  5
A131
  8
0
 10
129.93674605645049
 20
132.20709566056681
 30
0.0
  0
VERTEX
  5
A132
  8
0
 10
129.8433602033943
 20
132.21850202355719
 30
0.0
  0
VERTEX
  5
A133
  8
0
 10
129.6565949885653
 20
132.2497609482453
 30
0.0
  0
VERTEX
  5
A134
  8
0
 10
129.47084750566239
 20
132.29231398599919
 30
0.0
  0
VERTEX
  5
A135
  8
0
 10
129.28731687917181
 20
132.3460579475076
 30
0.0
  0
VERTEX
  5
A136
  8
0
 10
129.1070948138462
 20
132.41075941570199
 30
0.0
  0
VERTEX
  5
A137
  8
0
 10
128.93116533743219
 20
132.48607810366059
 30
0.0
  0
VERTEX
  5
A138
  8
0
 10
128.84514537114549
 20
132.52756030174641
 30
0.0
  0
VERTEX
  5
A139
  8
0
 10
128.76059424750039
 20
132.57148710369771
 30
0.0
  0
VERTEX
  5
A13A
  8
0
 10
128.5963810277716
 20
132.6663113073655
 30
0.0
  0
VERTEX
  5
A13B
  8
0
 10
128.4394316970556
 20
132.7697411750656
 30
0.0
  0
VERTEX
  5
A13C
  8
0
 10
128.2905834849127
 20
132.88081393603679
 30
0.0
  0
VERTEX
  5
A13D
  8
0
 10
128.15055875193079
 20
132.99843840424839
 30
0.0
  0
VERTEX
  5
A13E
  8
0
 10
128.01696322356759
 20
133.12438739470181
 30
0.0
  0
VERTEX
  5
A13F
  8
0
 10
127.9521207414779
 20
133.19104064350989
 30
0.0
  0
VERTEX
  5
A140
  8
0
 10
127.8887956057989
 20
133.260051113408
 30
0.0
  0
VERTEX
  5
A141
  8
0
 10
127.7672894175393
 20
133.40480901842989
 30
0.0
  0
VERTEX
  5
A142
  8
0
 10
127.65353205241
 20
133.55793277700619
 30
0.0
  0
VERTEX
  5
A143
  8
0
 10
127.5998601974416
 20
133.6373766794008
 30
0.0
  0
SEQEND
  5
A144
  8
0
  0
POLYLINE
  5
667F
  8
0
 66
     1
 10
0.0
 20
0.0
 30
0.0
  0
VERTEX
  5
A145
  8
0
 10
114.2092448206493
 20
133.63737657963301
 30
0.0
  0
VERTEX
  5
A146
  8
0
 10
114.15817213999929
 20
133.56166400834559
 30
0.0
  0
VERTEX
  5
A147
  8
0
 10
114.04816578488909
 20
133.412871287093
 30
0.0
  0
VERTEX
  5
A148
  8
0
 10
113.9279946134362
 20
133.26870774885319
 30
0.0
  0
VERTEX
  5
A149
  8
0
 10
113.8642508494068
 20
133.19875608380329
 30
0.0
  0
VERTEX
  5
A14A
  8
0
 10
113.79816532159801
 20
133.13041774148519
 30
0.0
  0
VERTEX
  5
A14B
  8
0
 10
113.6592996775351
 20
132.99910908207491
 30
0.0
  0
VERTEX
  5
A14C
  8
0
 10
113.5121458150718
 20
132.87577484913751
 30
0.0
  0
VERTEX
  5
A14D
  8
0
 10
113.357576692506
 20
132.76129115067769
 30
0.0
  0
VERTEX
  5
A14E
  8
0
 10
113.19649020989181
 20
132.65635093351131
 30
0.0
  0
VERTEX
  5
A14F
  8
0
 10
113.0298224420342
 20
132.5615014945574
 30
0.0
  0
VERTEX
  5
A150
  8
0
 10
112.94474547821061
 20
132.5180188788859
 30
0.0
  0
VERTEX
  5
A151
  8
0
 10
112.8587036495698
 20
132.47723022689661
 30
0.0
  0
VERTEX
  5
A152
  8
0
 10
112.6843345959482
 20
132.4038703367039
 30
0.0
  0
VERTEX
  5
A153
  8
0
 10
112.50796636142
 20
132.34159252709969
 30
0.0
  0
VERTEX
  5
A154
  8
0
 10
112.33092973219929
 20
132.29041318073971
 30
0.0
  0
VERTEX
  5
A155
  8
0
 10
112.1543823045219
 20
132.2501321358221
 30
0.0
  0
VERTEX
  5
A156
  8
0
 10
111.9746842994647
 20
132.21974037401969
 30
0.0
  0
VERTEX
  5
A157
  8
0
 10
111.8832570072845
 20
132.2082833340562
 30
0.0
  0
VERTEX
  5
A158
  8
0
 10
111.7909693634946
 20
132.1994170143609
 30
0.0
  0
VERTEX
  5
A159
  8
0
 10
111.6043933832832
 20
132.18968842184611
 30
0.0
  0
VERTEX
  5
A15A
  8
0
 10
111.41610350085109
 20
132.19091718196299
 30
0.0
  0
VERTEX
  5
A15B
  8
0
 10
111.32167351740669
 20
132.1957112737623
 30
0.0
  0
SEQEND
  5
A15C
  8
0
  0
LINE
  5
6680
  8
1
 10
60.051080359811287
 20
60.575412723161293
 30
0.0
 11
60.051080359811287
 21
98.8105272266165
 31
0.0
  0
LINE
  5
6681
  8
0
 10
63.590654968084941
 20
93.692217839614614
 30
0.0
 11
56.511505751537698
 21
93.692217839614614
 31
0.0
  0
LINE
  5
6682
  8
0
 10
52.051080359811301
 20
91.267230587631175
 30
0.0
 11
52.051080359811301
 21
65.692217839614614
 31
0.0
  0
LINE
  5
6683
  8
0
 10
68.051080359811294
 20
65.692217839614614
 30
0.0
 11
68.051080359811294
 21
91.267230587631175
 31
0.0
  0
LINE
  5
6684
  8
0
 10
52.051080359811301
 20
91.267230587631175
 30
0.0
 11
56.123100061157572
 21
91.267230587631175
 31
0.0
  0
LINE
  5
6685
  8
0
 10
64.429762190828455
 20
72.192217839614528
 30
0.0
 11
55.672398535237669
 21
72.192217839614528
 31
0.0
  0
LINE
  5
6686
  8
0
 10
63.979060658465073
 20
91.267230587631175
 30
0.0
 11
68.051080359811294
 21
91.267230587631175
 31
0.0
  0
LINE
  5
6687
  8
0
 10
68.051080359811294
 20
65.692217839614614
 30
0.0
 11
52.051080359811301
 21
65.692217839614614
 31
0.0
  0
LINE
  5
6688
  8
0
 10
64.429762190828455
 20
91.267230587631175
 30
0.0
 11
64.429762190828455
 21
72.192217839614528
 31
0.0
  0
POLYLINE
  5
6689
  8
0
 66
     1
 10
0.0
 20
0.0
 30
0.0
  0
VERTEX
  5
A15D
  8
0
 10
64.429762190828455
 20
72.192217839614528
 30
0.0
  0
VERTEX
  5
A15E
  8
0
 10
64.355576180269736
 20
72.192648270899284
 30
0.0
  0
VERTEX
  5
A15F
  8
0
 10
64.211764639588125
 20
72.196080049198429
 30
0.0
  0
VERTEX
  5
A160
  8
0
 10
64.07427835280123
 20
72.2029102480696
 30
0.0
  0
VERTEX
  5
A161
  8
0
 10
64.00799924563114
 20
72.207587122843563
 30
0.0
  0
VERTEX
  5
A162
  8
0
 10
63.943412071727487
 20
72.213097628030425
 30
0.0
  0
VERTEX
  5
A163
  8
0
 10
63.819461702379499
 20
72.226594591505773
 30
0.0
  0
VERTEX
  5
A164
  8
0
 10
63.70303289614867
 20
72.243297788011205
 30
0.0
  0
VERTEX
  5
A165
  8
0
 10
63.594628015181847
 20
72.263069193896285
 30
0.0
  0
VERTEX
  5
A166
  8
0
 10
63.494421647237338
 20
72.285799449222154
 30
0.0
  0
VERTEX
  5
A167
  8
0
 10
63.40258966793624
 20
72.311377593767759
 30
0.0
  0
VERTEX
  5
A168
  8
0
 10
63.359869123788137
 20
72.325199648362741
 30
0.0
  0
VERTEX
  5
A169
  8
0
 10
63.319308188229172
 20
72.339691631255903
 30
0.0
  0
VERTEX
  5
A16A
  8
0
 10
63.244813751244237
 20
72.370601184748011
 30
0.0
  0
VERTEX
  5
A16B
  8
0
 10
63.179453019293483
 20
72.403877091618426
 30
0.0
  0
VERTEX
  5
A16C
  8
0
 10
63.123298961941138
 20
72.439372475506559
 30
0.0
  0
VERTEX
  5
A16D
  8
0
 10
63.076401806017259
 20
72.476953034069197
 30
0.0
  0
VERTEX
  5
A16E
  8
0
 10
63.038812090675769
 20
72.516487525910463
 30
0.0
  0
VERTEX
  5
A16F
  8
0
 10
63.023523034001357
 20
72.536947295597457
 30
0.0
  0
VERTEX
  5
A170
  8
0
 10
63.010582135666482
 20
72.557842414519513
 30
0.0
  0
VERTEX
  5
A171
  8
0
 10
62.991785093507993
 20
72.600800131516493
 30
0.0
  0
VERTEX
  5
A172
  8
0
 10
62.982405629430779
 20
72.645198772276274
 30
0.0
  0
VERTEX
  5
A173
  8
0
 10
62.98123505388935
 20
72.667898824097676
 30
0.0
  0
SEQEND
  5
A174
  8
0
  0
POLYLINE
  5
668A
  8
0
 66
     1
 10
0.0
 20
0.0
 30
0.0
  0
VERTEX
  5
A175
  8
0
 10
62.98123505388935
 20
72.667898824097676
 30
0.0
  0
VERTEX
  5
A176
  8
0
 10
62.981425937339957
 20
72.677159733021711
 30
0.0
  0
VERTEX
  5
A177
  8
0
 10
62.982952012223159
 20
72.695830854150302
 30
0.0
  0
VERTEX
  5
A178
  8
0
 10
62.986001606129953
 20
72.714694378456784
 30
0.0
  0
VERTEX
  5
A179
  8
0
 10
62.988096878514227
 20
72.724195811013203
 30
0.0
  0
SEQEND
  5
A17A
  8
0
  0
POLYLINE
  5
668B
  8
0
 66
     1
 10
0.0
 20
0.0
 30
0.0
  0
VERTEX
  5
A17B
  8
0
 10
63.822266153948313
 20
77.663845660011646
 30
0.0
  0
VERTEX
  5
A17C
  8
0
 10
63.81587496051668
 20
77.619809794331445
 30
0.0
  0
VERTEX
  5
A17D
  8
0
 10
63.803190763331713
 20
77.53676267486162
 30
0.0
  0
VERTEX
  5
A17E
  8
0
 10
63.790391270732812
 20
77.458666542917655
 30
0.0
  0
VERTEX
  5
A17F
  8
0
 10
63.783840487756947
 20
77.420858414071802
 30
0.0
  0
SEQEND
  5
A180
  8
0
  0
POLYLINE
  5
668C
  8
0
 66
     1
 10
0.0
 20
0.0
 30
0.0
  0
VERTEX
  5
A181
  8
0
 10
56.511505751537698
 20
93.692217839614614
 30
0.0
  0
VERTEX
  5
A182
  8
0
 10
56.497102212485572
 20
93.689376270448619
 30
0.0
  0
VERTEX
  5
A183
  8
0
 10
56.467453020026483
 20
93.665590667609536
 30
0.0
  0
VERTEX
  5
A184
  8
0
 10
56.43710515980387
 20
93.616017227078927
 30
0.0
  0
VERTEX
  5
A185
  8
0
 10
56.421826150408272
 20
93.581258179003612
 30
0.0
  0
VERTEX
  5
A186
  8
0
 10
56.406559850976521
 20
93.539863722070834
 30
0.0
  0
VERTEX
  5
A187
  8
0
 10
56.376301083484691
 20
93.437705906807764
 30
0.0
  0
VERTEX
  5
A188
  8
0
 10
56.346792474357237
 20
93.311478442894156
 30
0.0
  0
VERTEX
  5
A189
  8
0
 10
56.318483887365062
 20
93.164503347558934
 30
0.0
  0
VERTEX
  5
A18A
  8
0
 10
56.291686751356558
 20
93.000687391053589
 30
0.0
  0
VERTEX
  5
A18B
  8
0
 10
56.264944770252221
 20
92.811671004607888
 30
0.0
  0
VERTEX
  5
A18C
  8
0
 10
56.251502874267658
 20
92.706418988515964
 30
0.0
  0
VERTEX
  5
A18D
  8
0
 10
56.23809914159159
 20
92.594254940111526
 30
0.0
  0
VERTEX
  5
A18E
  8
0
 10
56.211646362714582
 20
92.350406225252414
 30
0.0
  0
VERTEX
  5
A18F
  8
0
 10
56.186035201657432
 20
92.083303473071794
 30
0.0
  0
VERTEX
  5
A190
  8
0
 10
56.16165767712733
 20
91.797252176310849
 30
0.0
  0
VERTEX
  5
A191
  8
0
 10
56.138859931369552
 20
91.497802476547406
 30
0.0
  0
VERTEX
  5
A192
  8
0
 10
56.117917051687243
 20
91.191401518751263
 30
0.0
  0
VERTEX
  5
A193
  8
0
 10
56.107861798143738
 20
91.032194364473185
 30
0.0
  0
VERTEX
  5
A194
  8
0
 10
56.097883548539528
 20
90.865557650067444
 30
0.0
  0
VERTEX
  5
A195
  8
0
 10
56.078392381766889
 20
90.512021848386325
 30
0.0
  0
VERTEX
  5
A196
  8
0
 10
56.059867547222439
 20
90.135395136233228
 30
0.0
  0
VERTEX
  5
A197
  8
0
 10
56.051080359811287
 20
89.940110372933816
 30
0.0
  0
SEQEND
  5
A198
  8
0
  0
POLYLINE
  5
668D
  8
0
 66
     1
 10
0.0
 20
0.0
 30
0.0
  0
VERTEX
  5
A199
  8
0
 10
56.051080359811287
 20
80.6443253062954
 30
0.0
  0
VERTEX
  5
A19A
  8
0
 10
56.05665130807477
 20
80.519154808585711
 30
0.0
  0
VERTEX
  5
A19B
  8
0
 10
56.068204822862022
 20
80.274071228773195
 30
0.0
  0
VERTEX
  5
A19C
  8
0
 10
56.080235402453972
 20
80.037248172076815
 30
0.0
  0
VERTEX
  5
A19D
  8
0
 10
56.086399718222083
 20
79.922369175498403
 30
0.0
  0
VERTEX
  5
A19E
  8
0
 10
56.092646017216452
 20
79.810056682329076
 30
0.0
  0
VERTEX
  5
A19F
  8
0
 10
56.105327908635559
 20
79.593711681086006
 30
0.0
  0
VERTEX
  5
A1A0
  8
0
 10
56.118160305153992
 20
79.389285081871634
 30
0.0
  0
VERTEX
  5
A1A1
  8
0
 10
56.1313224356619
 20
79.19321406324471
 30
0.0
  0
VERTEX
  5
A1A2
  8
0
 10
56.145272547379541
 20
78.999026543622847
 30
0.0
  0
VERTEX
  5
A1A3
  8
0
 10
56.159953851546959
 20
78.808442563720348
 30
0.0
  0
VERTEX
  5
A1A4
  8
0
 10
56.167545135682992
 20
78.715040562037757
 30
0.0
  0
VERTEX
  5
A1A5
  8
0
 10
56.175289780945661
 20
78.623162712456406
 30
0.0
  0
VERTEX
  5
A1A6
  8
0
 10
56.191193983542853
 20
78.444707025189246
 30
0.0
  0
VERTEX
  5
A1A7
  8
0
 10
56.20757029444956
 20
78.274409983638975
 30
0.0
  0
VERTEX
  5
A1A8
  8
0
 10
56.224317527403002
 20
78.113371938169877
 30
0.0
  0
VERTEX
  5
A1A9
  8
0
 10
56.241323902436022
 20
77.962520307791294
 30
0.0
  0
VERTEX
  5
A1AA
  8
0
 10
56.258467777509111
 20
77.822596333588422
 30
0.0
  0
VERTEX
  5
A1AB
  8
0
 10
56.267051426350001
 20
77.756905537888599
 30
0.0
  0
VERTEX
  5
A1AC
  8
0
 10
56.275620694805689
 20
77.694129360782711
 30
0.0
  0
VERTEX
  5
A1AD
  8
0
 10
56.292646750457891
 20
77.577447736184965
 30
0.0
  0
VERTEX
  5
A1AE
  8
0
 10
56.309607569143111
 20
77.47146248998331
 30
0.0
  0
VERTEX
  5
A1AF
  8
0
 10
56.318320231865641
 20
77.420858414071802
 30
0.0
  0
SEQEND
  5
A1B0
  8
0
  0
POLYLINE
  5
668E
  8
0
 66
     1
 10
0.0
 20
0.0
 30
0.0
  0
VERTEX
  5
A1B1
  8
0
 10
56.318320231865641
 20
77.420858414071802
 30
0.0
  0
VERTEX
  5
A1B2
  8
0
 10
56.441147092838719
 20
76.505318444530985
 30
0.0
  0
VERTEX
  5
A1B3
  8
0
 10
56.70128635276609
 20
74.805112811509616
 30
0.0
  0
VERTEX
  5
A1B4
  8
0
 10
56.859680047096681
 20
73.920126136047088
 30
0.0
  0
VERTEX
  5
A1B5
  8
0
 10
56.905561716065442
 20
73.684162474079983
 30
0.0
  0
VERTEX
  5
A1B6
  8
0
 10
56.951655392366149
 20
73.456167038783235
 30
0.0
  0
VERTEX
  5
A1B7
  8
0
 10
56.97477025658776
 20
73.345227011473213
 30
0.0
  0
VERTEX
  5
A1B8
  8
0
 10
56.997924322400081
 20
73.236360273577645
 30
0.0
  0
VERTEX
  5
A1B9
  8
0
 10
57.044324889187578
 20
73.024974440208837
 30
0.0
  0
VERTEX
  5
A1BA
  8
0
 10
57.090804530309349
 20
72.822258240594067
 30
0.0
  0
VERTEX
  5
A1BB
  8
0
 10
57.114063841108418
 20
72.724195811013203
 30
0.0
  0
SEQEND
  5
A1BC
  8
0
  0
LINE
  5
668F
  8
0
 10
56.051080359811287
 20
89.940110372933816
 30
0.0
 11
56.051080359811287
 21
80.6443253062954
 31
0.0
  0
POLYLINE
  5
6690
  8
0
 66
     1
 10
0.0
 20
0.0
 30
0.0
  0
VERTEX
  5
A1BD
  8
0
 10
64.051080359811294
 20
89.940110372933873
 30
0.0
  0
VERTEX
  5
A1BE
  8
0
 10
64.04229317240015
 20
90.135395136233228
 30
0.0
  0
VERTEX
  5
A1BF
  8
0
 10
64.023768337855756
 20
90.512021848386325
 30
0.0
  0
VERTEX
  5
A1C0
  8
0
 10
64.004277171083061
 20
90.865557650067444
 30
0.0
  0
VERTEX
  5
A1C1
  8
0
 10
63.994298921478837
 20
91.032194364473185
 30
0.0
  0
VERTEX
  5
A1C2
  8
0
 10
63.984243667935402
 20
91.191401518751263
 30
0.0
  0
VERTEX
  5
A1C3
  8
0
 10
63.963300788253093
 20
91.497802476547463
 30
0.0
  0
VERTEX
  5
A1C4
  8
0
 10
63.940503042495322
 20
91.797252176310906
 30
0.0
  0
VERTEX
  5
A1C5
  8
0
 10
63.916125517965163
 20
92.083303473071851
 30
0.0
  0
VERTEX
  5
A1C6
  8
0
 10
63.890514356908056
 20
92.350406225252414
 30
0.0
  0
VERTEX
  5
A1C7
  8
0
 10
63.864061578030999
 20
92.594254940111526
 30
0.0
  0
VERTEX
  5
A1C8
  8
0
 10
63.850657845354931
 20
92.706418988515907
 30
0.0
  0
VERTEX
  5
A1C9
  8
0
 10
63.837215949370368
 20
92.811671004607888
 30
0.0
  0
VERTEX
  5
A1CA
  8
0
 10
63.810473968266017
 20
93.000687391053589
 30
0.0
  0
VERTEX
  5
A1CB
  8
0
 10
63.783676832257576
 20
93.164503347558934
 30
0.0
  0
VERTEX
  5
A1CC
  8
0
 10
63.755368245265338
 20
93.311478442894156
 30
0.0
  0
VERTEX
  5
A1CD
  8
0
 10
63.725859636137898
 20
93.437705906807764
 30
0.0
  0
VERTEX
  5
A1CE
  8
0
 10
63.695600868646132
 20
93.539863722070834
 30
0.0
  0
VERTEX
  5
A1CF
  8
0
 10
63.680334569214381
 20
93.581258179003612
 30
0.0
  0
VERTEX
  5
A1D0
  8
0
 10
63.665055559818711
 20
93.616017227078927
 30
0.0
  0
VERTEX
  5
A1D1
  8
0
 10
63.634707699596113
 20
93.665590667609536
 30
0.0
  0
VERTEX
  5
A1D2
  8
0
 10
63.605058507137073
 20
93.689376270448619
 30
0.0
  0
VERTEX
  5
A1D3
  8
0
 10
63.590654968084941
 20
93.692217839614614
 30
0.0
  0
SEQEND
  5
A1D4
  8
0
  0
POLYLINE
  5
6691
  8
0
 66
     1
 10
0.0
 20
0.0
 30
0.0
  0
VERTEX
  5
A1D5
  8
0
 10
62.988096878514227
 20
72.724195811013203
 30
0.0
  0
VERTEX
  5
A1D6
  8
0
 10
63.011356189313233
 20
72.822258240594067
 30
0.0
  0
VERTEX
  5
A1D7
  8
0
 10
63.05783583043506
 20
73.024974440208837
 30
0.0
  0
VERTEX
  5
A1D8
  8
0
 10
63.104236397222508
 20
73.236360273577674
 30
0.0
  0
VERTEX
  5
A1D9
  8
0
 10
63.127390463034828
 20
73.345227011473213
 30
0.0
  0
VERTEX
  5
A1DA
  8
0
 10
63.150505327256489
 20
73.456167038783235
 30
0.0
  0
VERTEX
  5
A1DB
  8
0
 10
63.196599003557139
 20
73.684162474079983
 30
0.0
  0
VERTEX
  5
A1DC
  8
0
 10
63.242480672525971
 20
73.920126136047088
 30
0.0
  0
VERTEX
  5
A1DD
  8
0
 10
63.400874366856563
 20
74.805112811509588
 30
0.0
  0
VERTEX
  5
A1DE
  8
0
 10
63.66101362678392
 20
76.505318444530985
 30
0.0
  0
VERTEX
  5
A1DF
  8
0
 10
63.783840487756947
 20
77.420858414071802
 30
0.0
  0
SEQEND
  5
A1E0
  8
0
  0
LINE
  5
6692
  8
0
 10
64.051080359811294
 20
89.940110372933873
 30
0.0
 11
64.051080359811294
 21
80.644325306295357
 31
0.0
  0
LINE
  5
6693
  8
0
 10
55.672398535237733
 20
91.267230587631175
 30
0.0
 11
55.672398535237733
 21
72.192217839614528
 31
0.0
  0
POLYLINE
  5
6694
  8
0
 66
     1
 10
0.0
 20
0.0
 30
0.0
  0
VERTEX
  5
A1E1
  8
0
 10
57.114063841108418
 20
72.724195811013203
 30
0.0
  0
VERTEX
  5
A1E2
  8
0
 10
57.116158633576283
 20
72.714696765990254
 30
0.0
  0
VERTEX
  5
A1E3
  8
0
 10
57.11920818605801
 20
72.695835129910563
 30
0.0
  0
VERTEX
  5
A1E4
  8
0
 10
57.120734685142509
 20
72.677162095906723
 30
0.0
  0
VERTEX
  5
A1E5
  8
0
 10
57.120925665733289
 20
72.66789882394886
 30
0.0
  0
SEQEND
  5
A1E6
  8
0
  0
POLYLINE
  5
6695
  8
0
 66
     1
 10
0.0
 20
0.0
 30
0.0
  0
VERTEX
  5
A1E7
  8
0
 10
57.120925665733289
 20
72.66789882394886
 30
0.0
  0
VERTEX
  5
A1E8
  8
0
 10
57.119750702733249
 20
72.645156589067625
 30
0.0
  0
VERTEX
  5
A1E9
  8
0
 10
57.110332460489808
 20
72.600666318828019
 30
0.0
  0
VERTEX
  5
A1EA
  8
0
 10
57.091478015154792
 20
72.557662161046721
 30
0.0
  0
VERTEX
  5
A1EB
  8
0
 10
57.078511417087149
 20
72.536762461171719
 30
0.0
  0
VERTEX
  5
A1EC
  8
0
 10
57.063184645459224
 20
72.516286102823344
 30
0.0
  0
VERTEX
  5
A1ED
  8
0
 10
57.025448707343848
 20
72.476670073132169
 30
0.0
  0
VERTEX
  5
A1EE
  8
0
 10
56.9783545680475
 20
72.439013075433195
 30
0.0
  0
VERTEX
  5
A1EF
  8
0
 10
56.922071154053299
 20
72.40351705718362
 30
0.0
  0
VERTEX
  5
A1F0
  8
0
 10
56.85670463641992
 20
72.370306496838907
 30
0.0
  0
VERTEX
  5
A1F1
  8
0
 10
56.782362351599197
 20
72.339507684346444
 30
0.0
  0
VERTEX
  5
A1F2
  8
0
 10
56.741858914833529
 20
72.325052609811024
 30
0.0
  0
VERTEX
  5
A1F3
  8
0
 10
56.699151776036267
 20
72.311248574327152
 30
0.0
  0
VERTEX
  5
A1F4
  8
0
 10
56.607179117921987
 20
72.285658608111817
 30
0.0
  0
VERTEX
  5
A1F5
  8
0
 10
56.50656372176843
 20
72.262871861272401
 30
0.0
  0
VERTEX
  5
A1F6
  8
0
 10
56.3979150711803
 20
72.243101153888119
 30
0.0
  0
VERTEX
  5
A1F7
  8
0
 10
56.281703207356138
 20
72.226469552530403
 30
0.0
  0
VERTEX
  5
A1F8
  8
0
 10
56.15819887522872
 20
72.213046548728101
 30
0.0
  0
VERTEX
  5
A1F9
  8
0
 10
56.093796505723958
 20
72.207558723774696
 30
0.0
  0
VERTEX
  5
A1FA
  8
0
 10
56.02767230946921
 20
72.202896925178749
 30
0.0
  0
VERTEX
  5
A1FB
  8
0
 10
55.890392986665518
 20
72.196079936251067
 30
0.0
  0
VERTEX
  5
A1FC
  8
0
 10
55.746629024491313
 20
72.19264879215558
 30
0.0
  0
VERTEX
  5
A1FD
  8
0
 10
55.672398535237733
 20
72.192217839614528
 30
0.0
  0
SEQEND
  5
A1FE
  8
0
  0
POLYLINE
  5
6696
  8
0
 66
     1
 10
0.0
 20
0.0
 30
0.0
  0
VERTEX
  5
A1FF
  8
0
 10
64.051080359811237
 20
80.6443253062954
 30
0.0
  0
VERTEX
  5
A200
  8
0
 10
64.045509411547755
 20
80.519154808585711
 30
0.0
  0
VERTEX
  5
A201
  8
0
 10
64.033955896760503
 20
80.274071228773195
 30
0.0
  0
VERTEX
  5
A202
  8
0
 10
64.021925317168552
 20
80.037248172076815
 30
0.0
  0
VERTEX
  5
A203
  8
0
 10
64.015761001400449
 20
79.922369175498403
 30
0.0
  0
VERTEX
  5
A204
  8
0
 10
64.009514702406079
 20
79.810056682329076
 30
0.0
  0
VERTEX
  5
A205
  8
0
 10
63.996832810986973
 20
79.593711681086006
 30
0.0
  0
VERTEX
  5
A206
  8
0
 10
63.984000414468539
 20
79.389285081871634
 30
0.0
  0
VERTEX
  5
A207
  8
0
 10
63.970838283960632
 20
79.19321406324471
 30
0.0
  0
VERTEX
  5
A208
  8
0
 10
63.956888172242998
 20
78.999026543622847
 30
0.0
  0
VERTEX
  5
A209
  8
0
 10
63.942206868075573
 20
78.808442563720348
 30
0.0
  0
VERTEX
  5
A20A
  8
0
 10
63.934615583939546
 20
78.715040562037757
 30
0.0
  0
VERTEX
  5
A20B
  8
0
 10
63.926870938676871
 20
78.623162712456406
 30
0.0
  0
VERTEX
  5
A20C
  8
0
 10
63.910966736079672
 20
78.444707025189246
 30
0.0
  0
VERTEX
  5
A20D
  8
0
 10
63.894590425172957
 20
78.274409983638975
 30
0.0
  0
VERTEX
  5
A20E
  8
0
 10
63.87784319221953
 20
78.113371938169877
 30
0.0
  0
VERTEX
  5
A20F
  8
0
 10
63.86083681718651
 20
77.962520307791294
 30
0.0
  0
VERTEX
  5
A210
  8
0
 10
63.843692942113421
 20
77.822596333588422
 30
0.0
  0
VERTEX
  5
A211
  8
0
 10
63.835109293272517
 20
77.756905537888599
 30
0.0
  0
VERTEX
  5
A212
  8
0
 10
63.826540024816829
 20
77.694129360782711
 30
0.0
  0
VERTEX
  5
A213
  8
0
 10
63.809513969164641
 20
77.577447736184965
 30
0.0
  0
VERTEX
  5
A214
  8
0
 10
63.792553150479421
 20
77.47146248998331
 30
0.0
  0
VERTEX
  5
A215
  8
0
 10
63.783840487756891
 20
77.420858414071802
 30
0.0
  0
SEQEND
  5
A216
  8
0
  0
LINE
  5
66A1
  8
2
 10
126.9045525416692
 20
85.727140805794988
 30
0.0
 11
114.9045525416692
 21
85.727140805794988
 31
0.0
  0
LINE
  5
66A2
  8
2
 10
126.9045525416692
 20
91.267230587631175
 30
0.0
 11
126.9045525416692
 21
85.727140805794988
 31
0.0
  0
LINE
  5
66A3
  8
2
 10
114.9045525416692
 20
91.267230587631175
 30
0.0
 11
114.9045525416692
 21
85.727140805794988
 31
0.0
  0
LINE
  5
66A4
  8
2
 62
     2
 10
126.1583494179621
 20
85.727140805794988
 30
0.0
 11
126.1583494179621
 21
83.692217839614614
 31
0.0
  0
LINE
  5
66A5
  8
2
 62
     2
 10
115.6583494179621
 20
85.727140805794988
 30
0.0
 11
115.6583494179622
 21
83.692217839614614
 31
0.0
  0
LINE
  5
66A6
  8
2
 10
114.9045525416692
 20
83.692217839614614
 30
0.0
 11
126.9045525416692
 21
83.692217839614614
 31
0.0
  0
LINE
  5
66A7
  8
2
 10
114.9045525416692
 20
83.692217839614642
 30
0.0
 11
114.9045525416692
 21
65.692217839614614
 31
0.0
  0
LINE
  5
66A8
  8
2
 10
126.9045525416692
 20
83.692217839614614
 30
0.0
 11
126.9045525416692
 21
65.692217839614614
 31
0.0
  0
CIRCLE
  5
66A9
  8
0
 10
120.9045525416692
 20
129.25869475505939
 30
0.0
 40
6.0
  0
ARC
  5
66AA
  8
0
 10
120.9045525416692
 20
129.25869475505939
 30
0.0
 40
8.0
 50
33.1843907101089
 51
146.81561014365681
  0
CIRCLE
  5
66AB
  8
0
 62
     7
 10
124.9045525416692
 20
129.25869475505939
 30
0.0
 40
0.6
  0
ARC
  5
66AC
  8
0
 10
120.9045525416692
 20
129.25869475505939
 30
0.0
 40
8.0
 50
213.18438991148261
 51
326.81560928988659
  0
CIRCLE
  5
66AD
  8
0
 62
     7
 10
120.9045525416692
 20
129.25869475505939
 30
0.0
 40
0.6
  0
CIRCLE
  5
66AE
  8
0
 62
     7
 10
116.9045525416692
 20
129.25869475505939
 30
0.0
 40
0.6
  0
CIRCLE
  5
66AF
  8
0
 62
     7
 10
118.9045525416692
 20
129.25869475505939
 30
0.0
 40
0.6
  0
CIRCLE
  5
66B0
  8
0
 62
     7
 10
122.9045525416693
 20
129.25869475505939
 30
0.0
 40
0.6
  0
ARC
  5
66B1
  8
0
 10
60.051080359811408
 20
85.06235853028744
 30
0.0
 40
8.6313635798757442
 50
45.961681682998091
 51
63.990547733298442
  0
ARC
  5
66B2
  8
0
 10
60.051080359811408
 20
85.06235853028744
 30
0.0
 40
8.6313635798757442
 50
116.0094522667037
 51
134.0383183170031
  0
ARC
  5
66B3
  8
0
 10
120.9045525416692
 20
85.057004780653756
 30
0.0
 40
8.6352130589608596
 50
45.986375003063507
 51
134.0136249969365
  0
LINE
  5
67AD
  8
2
 10
117.4045525416692
 20
66.192217839614784
 30
0.0
 11
116.9045525416691
 21
65.692217839614614
 31
0.0
  0
LINE
  5
67AE
  8
2
 10
124.4045525416692
 20
66.192217839614884
 30
0.0
 11
117.4045525416692
 21
66.192217839614784
 31
0.0
  0
LINE
  5
67AF
  8
2
 10
124.4045525416692
 20
66.192217839614784
 30
0.0
 11
124.9045525416693
 21
65.692217839614614
 31
0.0
  0
LINE
  5
67B1
  8
2
 62
     2
 10
124.9045525416692
 20
83.692217839614614
 30
0.0
 11
124.9045525416692
 21
65.692217839614614
 31
0.0
  0
LINE
  5
67B2
  8
2
 62
     2
 10
124.4045525416693
 20
83.192217839614329
 30
0.0
 11
124.4045525416692
 21
66.192217839614884
 31
0.0
  0
LINE
  5
67B3
  8
2
 62
     2
 10
116.9045525416693
 20
83.692217839614614
 30
0.0
 11
116.9045525416692
 21
65.692217839614614
 31
0.0
  0
LINE
  5
67B4
  8
2
 62
     2
 10
117.4045525416692
 20
83.192217839614429
 30
0.0
 11
117.4045525416692
 21
66.192217839614784
 31
0.0
  0
LINE
  5
67B5
  8
2
 10
117.4045525416692
 20
83.192217839614429
 30
0.0
 11
116.9045525416691
 21
83.692217839614614
 31
0.0
  0
LINE
  5
67B6
  8
2
 10
124.4045525416692
 20
83.192217839614329
 30
0.0
 11
117.4045525416692
 21
83.192217839614429
 31
0.0
  0
LINE
  5
67B7
  8
2
 10
124.4045525416692
 20
83.192217839614429
 30
0.0
 11
124.9045525416693
 21
83.692217839614614
 31
0.0
  0
TEXT
  5
9FDE
  8
0
 62
     3
 10
0.0
 20
0.0
 30
0.0
 40
10.0
  1
EWN55A-SUS-RE
  7
STANDARD1
  0
ENDSEC
  0
EOF
