  0
SECTION
  2
HEADER
  9
$ACADVER
  1
AC1009
  9
$INSBASE
 10
0.0
 20
0.0
 30
0.0
  9
$EXTMIN
 10
0.0
 20
-2.960436562073669
 30
0.0
  9
$EXTMAX
 10
136.28200824704851
 20
130.98776825223999
 30
0.0
  9
$LIMMIN
 10
0.0
 20
0.0
  9
$LIMMAX
 10
187.5
 20
135.0
  9
$ORTHOMODE
 70
     1
  9
$REGENMODE
 70
     1
  9
$FILLMODE
 70
     1
  9
$QTEXTMODE
 70
     0
  9
$MIRRTEXT
 70
     0
  9
$DRAGMODE
 70
     2
  9
$LTSCALE
 40
5.0
  9
$OSMODE
 70
    37
  9
$ATTMODE
 70
     1
  9
$TEXTSIZE
 40
0.2
  9
$TRACEWID
 40
0.05
  9
$TEXTSTYLE
  7
STANDARD
  9
$CLAYER
  8
0
  9
$CELTYPE
  6
BYLAYER
  9
$CECOLOR
 62
   256
  9
$DIMSCALE
 40
1.0
  9
$DIMASZ
 40
3.0
  9
$DIMEXO
 40
2.0
  9
$DIMDLI
 40
0.3799999999999999
  9
$DIMRND
 40
0.0
  9
$DIMDLE
 40
0.0
  9
$DIMEXE
 40
2.0
  9
$DIMTP
 40
0.0
  9
$DIMTM
 40
0.0
  9
$DIMTXT
 40
3.2000000000000002
  9
$DIMCEN
 40
0.09
  9
$DIMTSZ
 40
0.0
  9
$DIMTOL
 70
     0
  9
$DIMLIM
 70
     0
  9
$DIMTIH
 70
     0
  9
$DIMTOH
 70
     0
  9
$DIMSE1
 70
     0
  9
$DIMSE2
 70
     0
  9
$DIMTAD
 70
     1
  9
$DIMZIN
 70
     8
  9
$DIMBLK
  1

  9
$DIMASO
 70
     0
  9
$DIMSHO
 70
     0
  9
$DIMPOST
  1

  9
$DIMAPOST
  1

  9
$DIMALT
 70
     0
  9
$DIMALTD
 70
     2
  9
$DIMALTF
 40
25.399999999999999
  9
$DIMLFAC
 40
1.0
  9
$DIMTOFL
 70
     0
  9
$DIMTVP
 40
1.6000000000000001
  9
$DIMTIX
 70
     1
  9
$DIMSOXD
 70
     0
  9
$DIMSAH
 70
     0
  9
$DIMBLK1
  1

  9
$DIMBLK2
  1

  9
$DIMSTYLE
  2
STANDARD
  9
$DIMCLRD
 70
     0
  9
$DIMCLRE
 70
     0
  9
$DIMCLRT
 70
     0
  9
$DIMTFAC
 40
1.0
  9
$DIMGAP
 40
1.0
  9
$LUNITS
 70
     2
  9
$LUPREC
 70
     4
  9
$SKETCHINC
 40
0.1
  9
$FILLETRAD
 40
0.4
  9
$AUNITS
 70
     0
  9
$AUPREC
 70
     0
  9
$MENU
  1
E:\r13\win\SUPPORT\ACAD
  9
$ELEVATION
 40
0.0
  9
$PELEVATION
 40
0.0
  9
$THICKNESS
 40
0.0
  9
$LIMCHECK
 70
     0
  9
$BLIPMODE
 70
     0
  9
$CHAMFERA
 40
0.0
  9
$CHAMFERB
 40
0.0
  9
$SKPOLY
 70
     0
  9
$TDCREATE
 40
2456129.6740617128
  9
$TDUPDATE
 40
2456806.4334528479
  9
$TDINDWG
 40
0.6156588657
  9
$TDUSRTIMER
 40
2456681.4412495489
  9
$USRTIMER
 70
     1
  9
$ANGBASE
 50
0.0
  9
$ANGDIR
 70
     0
  9
$PDMODE
 70
     0
  9
$PDSIZE
 40
0.0
  9
$PLINEWID
 40
0.0
  9
$COORDS
 70
     1
  9
$SPLFRAME
 70
     0
  9
$SPLINETYPE
 70
     6
  9
$SPLINESEGS
 70
     8
  9
$ATTDIA
 70
     0
  9
$ATTREQ
 70
     1
  9
$HANDLING
 70
     1
  9
$HANDSEED
  5
AA53
  9
$SURFTAB1
 70
     6
  9
$SURFTAB2
 70
     6
  9
$SURFTYPE
 70
     6
  9
$SURFU
 70
     6
  9
$SURFV
 70
     6
  9
$UCSNAME
  2

  9
$UCSORG
 10
0.0
 20
0.0
 30
0.0
  9
$UCSXDIR
 10
1.0
 20
0.0
 30
0.0
  9
$UCSYDIR
 10
0.0
 20
1.0
 30
0.0
  9
$PUCSNAME
  2

  9
$PUCSORG
 10
0.0
 20
0.0
 30
0.0
  9
$PUCSXDIR
 10
1.0
 20
0.0
 30
0.0
  9
$PUCSYDIR
 10
0.0
 20
1.0
 30
0.0
  9
$USERI1
 70
     0
  9
$USERI2
 70
     1
  9
$USERI3
 70
     0
  9
$USERI4
 70
     0
  9
$USERI5
 70
     0
  9
$USERR1
 40
0.0
  9
$USERR2
 40
0.0
  9
$USERR3
 40
0.0
  9
$USERR4
 40
0.0
  9
$USERR5
 40
0.0
  9
$WORLDVIEW
 70
     1
  9
$SHADEDGE
 70
     3
  9
$SHADEDIF
 70
    70
  9
$TILEMODE
 70
     1
  9
$MAXACTVP
 70
    16
  9
$PLIMCHECK
 70
     0
  9
$PEXTMIN
 10
1.0000000000000000E+020
 20
1.0000000000000000E+020
 30
1.0000000000000000E+020
  9
$PEXTMAX
 10
-1.0000000000000000E+020
 20
-1.0000000000000000E+020
 30
-1.0000000000000000E+020
  9
$PLIMMIN
 10
0.0
 20
0.0
  9
$PLIMMAX
 10
12.0
 20
9.0
  9
$UNITMODE
 70
     0
  9
$VISRETAIN
 70
     0
  9
$PLINEGEN
 70
     0
  9
$PSLTSCALE
 70
     0
  0
ENDSEC
  0
SECTION
  2
TABLES
  0
TABLE
  2
VPORT
 70
     1
  0
VPORT
  2
*ACTIVE
 70
     0
 10
0.0
 20
0.0
 11
1.0
 21
1.0
 12
390.29363784665583
 22
150.0
 13
0.0
 23
0.0
 14
5.0
 24
5.0
 15
5.0
 25
5.0
 16
0.0
 26
0.0
 36
1.0
 17
0.0
 27
0.0
 37
0.0
 40
300.0
 41
2.6019575856443709
 42
50.0
 43
0.0
 44
0.0
 50
0.0
 51
0.0
 71
    16
 72
   500
 73
     1
 74
     0
 75
     0
 76
     0
 77
     0
 78
     2
  0
ENDTAB
  0
TABLE
  2
LTYPE
 70
     3
  0
LTYPE
  2
CONTINUOUS
 70
     0
  3
Solid Line
 72
    65
 73
     0
 40
0.0
  0
LTYPE
  2
CENTER
 70
     0
  3
____ _ ____ _ ____ _ ____ _ ____ _ ____ _ ____
 72
    65
 73
     4
 40
2.0
 49
1.25
 49
-0.25
 49
0.25
 49
-0.25
  0
LTYPE
  2
PHANTOM2
 70
     0
  3
___ _ _ ___ _ _ ___ _ _ ___ _ _
 72
    65
 73
     6
 40
1.25
 49
0.625
 49
-0.125
 49
0.125
 49
-0.125
 49
0.125
 49
-0.125
  0
ENDTAB
  0
TABLE
  2
LAYER
 70
     3
  0
LAYER
  2
0
 70
     0
 62
     7
  6
CONTINUOUS
  0
LAYER
  2
1
 70
     0
 62
     1
  6
CENTER
  0
LAYER
  2
3
 70
     0
 62
     3
  6
CONTINUOUS
  0
ENDTAB
  0
TABLE
  2
STYLE
 70
     2
  0
STYLE
  2
STANDARD
 70
     0
 40
0.0
 41
1.0
 50
0.0
 71
     0
 42
0.2
  3
TXT
  4
BIGFONT
  0
STYLE
  2
STANDARD1
 70
     0
 40
0.0
 41
1.0
 50
0.0
 71
     0
 42
3.0
  3
txt
  4

  0
ENDTAB
  0
TABLE
  2
VIEW
 70
     0
  0
ENDTAB
  0
TABLE
  2
UCS
 70
     0
  0
ENDTAB
  0
TABLE
  2
APPID
 70
     7
  0
APPID
  2
ACAD
 70
     0
  0
APPID
  2
ACAD_MLEADERVER
 70
     0
  0
APPID
  2
ACAD_PSEXT
 70
     0
  0
APPID
  2
ACAD_EXEMPT_FROM_CAD_STANDARDS
 70
     0
  0
APPID
  2
ACAD_DSTYLE_DIMJAG
 70
     0
  0
APPID
  2
ACAD_DSTYLE_DIMTALN
 70
     0
  0
APPID
  2
ACAD_NAV_VCDISPLAY
 70
     0
  0
ENDTAB
  0
TABLE
  2
DIMSTYLE
 70
     1
  0
DIMSTYLE
  2
STANDARD
 70
     0
  3

  4

  5

  6

  7

 40
1.0
 41
0.18
 42
0.0625
 43
0.38
 44
0.18
 45
0.0
 46
0.0
 47
0.0
 48
0.0
140
0.18
141
0.09
142
0.0
143
25.399999999999999
144
1.0
145
0.0
146
1.0
147
0.09
 71
     0
 72
     0
 73
     1
 74
     1
 75
     0
 76
     0
 77
     0
 78
     0
170
     0
171
     2
172
     0
173
     0
174
     0
175
     0
176
     0
177
     0
178
     0
  0
ENDTAB
  0
ENDSEC
  0
SECTION
  2
BLOCKS
  0
BLOCK
  8
0
  2
$MODEL_SPACE
 70
     0
 10
0.0
 20
0.0
 30
0.0
  3
$MODEL_SPACE
  1

  0
ENDBLK
  5
9
  8
0
  0
BLOCK
 67
     1
  8
0
  2
$PAPER_SPACE
 70
     0
 10
0.0
 20
0.0
 30
0.0
  3
$PAPER_SPACE
  1

  0
ENDBLK
  5
E
 67
     1
  8
0
  0
ENDSEC
  0
SECTION
  2
ENTITIES
  0
LINE
  5
4FCE
  8
1
 10
108.28200824704849
 20
26.111350227879711
 30
0.0
 11
108.28200824704849
 21
90.611350227879626
 31
0.0
  0
ARC
  5
4FD2
  8
0
 10
91.982008247048569
 20
78.911350227879694
 30
0.0
 40
7.199999999999986
 50
90.0
 51
249.32290360735919
  0
LINE
  5
4FD3
  8
0
 10
124.58200824704851
 20
86.111350227879683
 30
0.0
 11
124.2846692605499
 21
86.111350227879683
 31
0.0
  0
ARC
  5
4FD4
  8
0
 10
124.58200824704851
 20
78.911350227879694
 30
0.0
 40
7.199999999999986
 50
290.67709639263933
 51
90.0
  0
ARC
  5
4FD5
  8
0
 10
115.5301046150794
 20
123.0030338438236
 30
0.0
 40
57.133049242426239
 50
242.82815740995949
 51
255.81764980476601
  0
ARC
  5
4FD6
  8
0
 10
101.03391187901769
 20
123.0030338438236
 30
0.0
 40
57.133049242426218
 50
284.18235019523399
 51
297.17184259004051
  0
LINE
  5
4FD7
  8
0
 10
101.53200824704849
 20
67.611350227879768
 30
0.0
 11
101.53200824704849
 21
62.111350227879718
 31
0.0
  0
LINE
  5
4FD8
  8
0
 10
115.03200824704859
 20
62.111350227879718
 30
0.0
 11
115.03200824704859
 21
67.611350227879711
 31
0.0
  0
LINE
  5
4FDD
  8
0
 10
102.69732430814121
 20
84.079131107668104
 30
0.0
 11
113.8666921859558
 21
84.079131107668104
 31
0.0
  0
LINE
  5
4FDF
  8
0
 10
115.03200824704859
 20
62.111350227879718
 30
0.0
 11
101.53200824704849
 21
62.111350227879718
 31
0.0
  0
POLYLINE
  5
4FE0
  8
0
 66
     1
 10
0.0
 20
0.0
 30
0.0
  0
VERTEX
  5
A679
  8
0
 10
100.193993179166
 20
84.352868073439311
 30
0.0
  0
VERTEX
  5
A67A
  8
0
 10
100.2714760001066
 20
84.339710036435747
 30
0.0
  0
VERTEX
  5
A67B
  8
0
 10
100.4288181069881
 20
84.313736483086018
 30
0.0
  0
VERTEX
  5
A67C
  8
0
 10
100.58845483336989
 20
84.288404058009974
 30
0.0
  0
VERTEX
  5
A67D
  8
0
 10
100.6688043889073
 20
84.276043827589476
 30
0.0
  0
VERTEX
  5
A67E
  8
0
 10
100.7493351071427
 20
84.263920123893172
 30
0.0
  0
VERTEX
  5
A67F
  8
0
 10
100.9104343297961
 20
84.240472146348225
 30
0.0
  0
VERTEX
  5
A680
  8
0
 10
101.070739155583
 20
84.218230663631516
 30
0.0
  0
VERTEX
  5
A681
  8
0
 10
101.22924340364411
 20
84.197349887977566
 30
0.0
  0
VERTEX
  5
A682
  8
0
 10
101.3850180139253
 20
84.177958800905117
 30
0.0
  0
VERTEX
  5
A683
  8
0
 10
101.53724547351349
 20
84.160159030852014
 30
0.0
  0
VERTEX
  5
A684
  8
0
 10
101.6117486746822
 20
84.151886940298127
 30
0.0
  0
VERTEX
  5
A685
  8
0
 10
101.6850325998831
 20
84.144047482262124
 30
0.0
  0
VERTEX
  5
A686
  8
0
 10
101.82753270377781
 20
84.129699618512177
 30
0.0
  0
VERTEX
  5
A687
  8
0
 10
101.9639769566019
 20
84.117166034526306
 30
0.0
  0
VERTEX
  5
A688
  8
0
 10
102.09365520928429
 20
84.106474165193447
 30
0.0
  0
VERTEX
  5
A689
  8
0
 10
102.21592649031329
 20
84.097626372849803
 30
0.0
  0
VERTEX
  5
A68A
  8
0
 10
102.3320391035936
 20
84.090497400773643
 30
0.0
  0
VERTEX
  5
A68B
  8
0
 10
102.388513282131
 20
84.087539401076214
 30
0.0
  0
VERTEX
  5
A68C
  8
0
 10
102.44375906060181
 20
84.085006424463643
 30
0.0
  0
VERTEX
  5
A68D
  8
0
 10
102.55005805493769
 20
84.081268354833185
 30
0.0
  0
VERTEX
  5
A68E
  8
0
 10
102.649998250024
 20
84.079370471155698
 30
0.0
  0
VERTEX
  5
A68F
  8
0
 10
102.69732430814121
 20
84.079131107668104
 30
0.0
  0
SEQEND
  5
A690
  8
0
  0
POLYLINE
  5
4FE4
  8
0
 66
     1
 10
0.0
 20
0.0
 30
0.0
  0
VERTEX
  5
A691
  8
0
 10
113.8666921859558
 20
84.079131107668104
 30
0.0
  0
VERTEX
  5
A692
  8
0
 10
113.9117953900777
 20
84.079348935515895
 30
0.0
  0
VERTEX
  5
A693
  8
0
 10
114.00863521644889
 20
84.081124690059596
 30
0.0
  0
VERTEX
  5
A694
  8
0
 10
114.1140415715135
 20
84.084745213538795
 30
0.0
  0
VERTEX
  5
A695
  8
0
 10
114.1698244106848
 20
84.087262042853055
 30
0.0
  0
VERTEX
  5
A696
  8
0
 10
114.22757721459099
 20
84.090254265150634
 30
0.0
  0
VERTEX
  5
A697
  8
0
 10
114.3487118899926
 20
84.097668060125685
 30
0.0
  0
VERTEX
  5
A698
  8
0
 10
114.4768141322205
 20
84.10697577995478
 30
0.0
  0
VERTEX
  5
A699
  8
0
 10
114.61114972100729
 20
84.118139396598735
 30
0.0
  0
VERTEX
  5
A69A
  8
0
 10
114.7509536339454
 20
84.131100098381765
 30
0.0
  0
VERTEX
  5
A69B
  8
0
 10
114.89545519785069
 20
84.145783132976973
 30
0.0
  0
VERTEX
  5
A69C
  8
0
 10
114.969177228934
 20
84.153738120955708
 30
0.0
  0
VERTEX
  5
A69D
  8
0
 10
115.04371572256829
 20
84.162081642185569
 30
0.0
  0
VERTEX
  5
A69E
  8
0
 10
115.19473355276079
 20
84.179864789440146
 30
0.0
  0
VERTEX
  5
A69F
  8
0
 10
115.34746965508749
 20
84.198980582453942
 30
0.0
  0
VERTEX
  5
A6A0
  8
0
 10
115.5008234522241
 20
84.219252685648442
 30
0.0
  0
VERTEX
  5
A6A1
  8
0
 10
115.6536509197628
 20
84.240481921783157
 30
0.0
  0
VERTEX
  5
A6A2
  8
0
 10
115.8081533640844
 20
84.262949014860951
 30
0.0
  0
VERTEX
  5
A6A3
  8
0
 10
115.88677403004409
 20
84.274761044256593
 30
0.0
  0
VERTEX
  5
A6A4
  8
0
 10
115.9661465620984
 20
84.286942161739489
 30
0.0
  0
VERTEX
  5
A6A5
  8
0
 10
116.1266574203121
 20
84.312355110153348
 30
0.0
  0
VERTEX
  5
A6A6
  8
0
 10
116.2887146396954
 20
84.339066630210169
 30
0.0
  0
VERTEX
  5
A6A7
  8
0
 10
116.3700233149311
 20
84.352868073439311
 30
0.0
  0
SEQEND
  5
A6A8
  8
0
  0
POLYLINE
  5
4FE7
  8
0
 10
116.37002331493099
 20
84.352868073439254
 30
0.0
 66
     1
 70
     8
  0
VERTEX
  8
0
  5
A84B
 10
116.370
 20
84.3529
 30
0.000000
  70
    32
  0
VERTEX
  8
0
  5
A84C
 10
116.409
 20
84.3595
 30
0.000000
  70
    32
  0
VERTEX
  8
0
  5
A84D
 10
116.447
 20
84.3661
 30
0.000000
  70
    32
  0
VERTEX
  8
0
  5
A84E
 10
116.485
 20
84.3728
 30
0.000000
  70
    32
  0
VERTEX
  8
0
  5
A84F
 10
116.524
 20
84.3795
 30
0.000000
  70
    32
  0
VERTEX
  8
0
  5
A850
 10
116.562
 20
84.3862
 30
0.000000
  70
    32
  0
VERTEX
  8
0
  5
A851
 10
116.601
 20
84.3930
 30
0.000000
  70
    32
  0
VERTEX
  8
0
  5
A852
 10
116.639
 20
84.3998
 30
0.000000
  70
    32
  0
VERTEX
  8
0
  5
A853
 10
116.678
 20
84.4066
 30
0.000000
  70
    32
  0
VERTEX
  8
0
  5
A854
 10
116.716
 20
84.4135
 30
0.000000
  70
    32
  0
VERTEX
  8
0
  5
A855
 10
116.755
 20
84.4204
 30
0.000000
  70
    32
  0
VERTEX
  8
0
  5
A856
 10
116.793
 20
84.4273
 30
0.000000
  70
    32
  0
VERTEX
  8
0
  5
A857
 10
116.831
 20
84.4342
 30
0.000000
  70
    32
  0
VERTEX
  8
0
  5
A858
 10
116.870
 20
84.4412
 30
0.000000
  70
    32
  0
VERTEX
  8
0
  5
A859
 10
116.908
 20
84.4482
 30
0.000000
  70
    32
  0
VERTEX
  8
0
  5
A85A
 10
116.947
 20
84.4553
 30
0.000000
  70
    32
  0
VERTEX
  8
0
  5
A85B
 10
116.985
 20
84.4624
 30
0.000000
  70
    32
  0
VERTEX
  8
0
  5
A85C
 10
117.024
 20
84.4695
 30
0.000000
  70
    32
  0
VERTEX
  8
0
  5
A85D
 10
117.062
 20
84.4766
 30
0.000000
  70
    32
  0
VERTEX
  8
0
  5
A85E
 10
117.100
 20
84.4838
 30
0.000000
  70
    32
  0
VERTEX
  8
0
  5
A85F
 10
117.139
 20
84.4910
 30
0.000000
  70
    32
  0
VERTEX
  8
0
  5
A860
 10
117.177
 20
84.4982
 30
0.000000
  70
    32
  0
VERTEX
  8
0
  5
A861
 10
117.215
 20
84.5055
 30
0.000000
  70
    32
  0
VERTEX
  8
0
  5
A862
 10
117.254
 20
84.5127
 30
0.000000
  70
    32
  0
VERTEX
  8
0
  5
A863
 10
117.292
 20
84.5201
 30
0.000000
  70
    32
  0
VERTEX
  8
0
  5
A864
 10
117.331
 20
84.5274
 30
0.000000
  70
    32
  0
VERTEX
  8
0
  5
A865
 10
117.369
 20
84.5348
 30
0.000000
  70
    32
  0
VERTEX
  8
0
  5
A866
 10
117.407
 20
84.5422
 30
0.000000
  70
    32
  0
VERTEX
  8
0
  5
A867
 10
117.446
 20
84.5497
 30
0.000000
  70
    32
  0
VERTEX
  8
0
  5
A868
 10
117.484
 20
84.5571
 30
0.000000
  70
    32
  0
VERTEX
  8
0
  5
A869
 10
117.522
 20
84.5646
 30
0.000000
  70
    32
  0
VERTEX
  8
0
  5
A86A
 10
117.561
 20
84.5722
 30
0.000000
  70
    32
  0
VERTEX
  8
0
  5
A86B
 10
117.599
 20
84.5797
 30
0.000000
  70
    32
  0
VERTEX
  8
0
  5
A86C
 10
117.637
 20
84.5873
 30
0.000000
  70
    32
  0
VERTEX
  8
0
  5
A86D
 10
117.675
 20
84.5950
 30
0.000000
  70
    32
  0
VERTEX
  8
0
  5
A86E
 10
117.714
 20
84.6026
 30
0.000000
  70
    32
  0
VERTEX
  8
0
  5
A86F
 10
117.752
 20
84.6103
 30
0.000000
  70
    32
  0
VERTEX
  8
0
  5
A870
 10
117.790
 20
84.6180
 30
0.000000
  70
    32
  0
VERTEX
  8
0
  5
A871
 10
117.829
 20
84.6258
 30
0.000000
  70
    32
  0
VERTEX
  8
0
  5
A872
 10
117.867
 20
84.6336
 30
0.000000
  70
    32
  0
VERTEX
  8
0
  5
A873
 10
117.905
 20
84.6414
 30
0.000000
  70
    32
  0
VERTEX
  8
0
  5
A874
 10
117.943
 20
84.6492
 30
0.000000
  70
    32
  0
VERTEX
  8
0
  5
A875
 10
117.982
 20
84.6571
 30
0.000000
  70
    32
  0
VERTEX
  8
0
  5
A876
 10
118.020
 20
84.6650
 30
0.000000
  70
    32
  0
VERTEX
  8
0
  5
A877
 10
118.058
 20
84.6729
 30
0.000000
  70
    32
  0
VERTEX
  8
0
  5
A878
 10
118.096
 20
84.6809
 30
0.000000
  70
    32
  0
VERTEX
  8
0
  5
A879
 10
118.135
 20
84.6889
 30
0.000000
  70
    32
  0
VERTEX
  8
0
  5
A87A
 10
118.173
 20
84.6969
 30
0.000000
  70
    32
  0
VERTEX
  8
0
  5
A87B
 10
118.211
 20
84.7050
 30
0.000000
  70
    32
  0
VERTEX
  8
0
  5
A87C
 10
118.249
 20
84.7131
 30
0.000000
  70
    32
  0
VERTEX
  8
0
  5
A87D
 10
118.287
 20
84.7212
 30
0.000000
  70
    32
  0
VERTEX
  8
0
  5
A87E
 10
118.326
 20
84.7293
 30
0.000000
  70
    32
  0
VERTEX
  8
0
  5
A87F
 10
118.364
 20
84.7375
 30
0.000000
  70
    32
  0
VERTEX
  8
0
  5
A880
 10
118.402
 20
84.7457
 30
0.000000
  70
    32
  0
VERTEX
  8
0
  5
A881
 10
118.440
 20
84.7540
 30
0.000000
  70
    32
  0
VERTEX
  8
0
  5
A882
 10
118.478
 20
84.7622
 30
0.000000
  70
    32
  0
VERTEX
  8
0
  5
A883
 10
118.516
 20
84.7706
 30
0.000000
  70
    32
  0
VERTEX
  8
0
  5
A884
 10
118.555
 20
84.7789
 30
0.000000
  70
    32
  0
VERTEX
  8
0
  5
A885
 10
118.593
 20
84.7872
 30
0.000000
  70
    32
  0
VERTEX
  8
0
  5
A886
 10
118.631
 20
84.7956
 30
0.000000
  70
    32
  0
VERTEX
  8
0
  5
A887
 10
118.669
 20
84.8041
 30
0.000000
  70
    32
  0
VERTEX
  8
0
  5
A888
 10
118.707
 20
84.8125
 30
0.000000
  70
    32
  0
VERTEX
  8
0
  5
A889
 10
118.745
 20
84.8210
 30
0.000000
  70
    32
  0
VERTEX
  8
0
  5
A88A
 10
118.783
 20
84.8295
 30
0.000000
  70
    32
  0
VERTEX
  8
0
  5
A88B
 10
118.821
 20
84.8381
 30
0.000000
  70
    32
  0
VERTEX
  8
0
  5
A88C
 10
118.859
 20
84.8467
 30
0.000000
  70
    32
  0
VERTEX
  8
0
  5
A88D
 10
118.898
 20
84.8553
 30
0.000000
  70
    32
  0
VERTEX
  8
0
  5
A88E
 10
118.936
 20
84.8639
 30
0.000000
  70
    32
  0
VERTEX
  8
0
  5
A88F
 10
118.974
 20
84.8726
 30
0.000000
  70
    32
  0
VERTEX
  8
0
  5
A890
 10
119.012
 20
84.8813
 30
0.000000
  70
    32
  0
VERTEX
  8
0
  5
A891
 10
119.050
 20
84.8900
 30
0.000000
  70
    32
  0
VERTEX
  8
0
  5
A892
 10
119.088
 20
84.8988
 30
0.000000
  70
    32
  0
VERTEX
  8
0
  5
A893
 10
119.126
 20
84.9076
 30
0.000000
  70
    32
  0
VERTEX
  8
0
  5
A894
 10
119.164
 20
84.9164
 30
0.000000
  70
    32
  0
VERTEX
  8
0
  5
A895
 10
119.202
 20
84.9252
 30
0.000000
  70
    32
  0
VERTEX
  8
0
  5
A896
 10
119.240
 20
84.9341
 30
0.000000
  70
    32
  0
VERTEX
  8
0
  5
A897
 10
119.278
 20
84.9430
 30
0.000000
  70
    32
  0
VERTEX
  8
0
  5
A898
 10
119.316
 20
84.9520
 30
0.000000
  70
    32
  0
VERTEX
  8
0
  5
A899
 10
119.354
 20
84.9609
 30
0.000000
  70
    32
  0
VERTEX
  8
0
  5
A89A
 10
119.392
 20
84.9700
 30
0.000000
  70
    32
  0
VERTEX
  8
0
  5
A89B
 10
119.430
 20
84.9790
 30
0.000000
  70
    32
  0
VERTEX
  8
0
  5
A89C
 10
119.468
 20
84.9881
 30
0.000000
  70
    32
  0
VERTEX
  8
0
  5
A89D
 10
119.506
 20
84.9972
 30
0.000000
  70
    32
  0
VERTEX
  8
0
  5
A89E
 10
119.544
 20
85.0063
 30
0.000000
  70
    32
  0
VERTEX
  8
0
  5
A89F
 10
119.582
 20
85.0154
 30
0.000000
  70
    32
  0
VERTEX
  8
0
  5
A8A0
 10
119.620
 20
85.0246
 30
0.000000
  70
    32
  0
VERTEX
  8
0
  5
A8A1
 10
119.658
 20
85.0338
 30
0.000000
  70
    32
  0
VERTEX
  8
0
  5
A8A2
 10
119.696
 20
85.0431
 30
0.000000
  70
    32
  0
VERTEX
  8
0
  5
A8A3
 10
119.734
 20
85.0524
 30
0.000000
  70
    32
  0
VERTEX
  8
0
  5
A8A4
 10
119.772
 20
85.0617
 30
0.000000
  70
    32
  0
VERTEX
  8
0
  5
A8A5
 10
119.810
 20
85.0710
 30
0.000000
  70
    32
  0
VERTEX
  8
0
  5
A8A6
 10
119.848
 20
85.0804
 30
0.000000
  70
    32
  0
VERTEX
  8
0
  5
A8A7
 10
119.885
 20
85.0898
 30
0.000000
  70
    32
  0
VERTEX
  8
0
  5
A8A8
 10
119.923
 20
85.0992
 30
0.000000
  70
    32
  0
VERTEX
  8
0
  5
A8A9
 10
119.961
 20
85.1087
 30
0.000000
  70
    32
  0
VERTEX
  8
0
  5
A8AA
 10
119.999
 20
85.1182
 30
0.000000
  70
    32
  0
VERTEX
  8
0
  5
A8AB
 10
120.037
 20
85.1277
 30
0.000000
  70
    32
  0
VERTEX
  8
0
  5
A8AC
 10
120.075
 20
85.1373
 30
0.000000
  70
    32
  0
VERTEX
  8
0
  5
A8AD
 10
120.113
 20
85.1468
 30
0.000000
  70
    32
  0
VERTEX
  8
0
  5
A8AE
 10
120.151
 20
85.1565
 30
0.000000
  70
    32
  0
VERTEX
  8
0
  5
A8AF
 10
120.188
 20
85.1661
 30
0.000000
  70
    32
  0
VERTEX
  8
0
  5
A8B0
 10
120.226
 20
85.1758
 30
0.000000
  70
    32
  0
VERTEX
  8
0
  5
A8B1
 10
120.264
 20
85.1855
 30
0.000000
  70
    32
  0
VERTEX
  8
0
  5
A8B2
 10
120.302
 20
85.1952
 30
0.000000
  70
    32
  0
VERTEX
  8
0
  5
A8B3
 10
120.340
 20
85.2050
 30
0.000000
  70
    32
  0
VERTEX
  8
0
  5
A8B4
 10
120.377
 20
85.2148
 30
0.000000
  70
    32
  0
VERTEX
  8
0
  5
A8B5
 10
120.415
 20
85.2246
 30
0.000000
  70
    32
  0
VERTEX
  8
0
  5
A8B6
 10
120.453
 20
85.2345
 30
0.000000
  70
    32
  0
VERTEX
  8
0
  5
A8B7
 10
120.491
 20
85.2444
 30
0.000000
  70
    32
  0
VERTEX
  8
0
  5
A8B8
 10
120.529
 20
85.2543
 30
0.000000
  70
    32
  0
VERTEX
  8
0
  5
A8B9
 10
120.566
 20
85.2642
 30
0.000000
  70
    32
  0
VERTEX
  8
0
  5
A8BA
 10
120.604
 20
85.2742
 30
0.000000
  70
    32
  0
VERTEX
  8
0
  5
A8BB
 10
120.642
 20
85.2842
 30
0.000000
  70
    32
  0
VERTEX
  8
0
  5
A8BC
 10
120.680
 20
85.2942
 30
0.000000
  70
    32
  0
VERTEX
  8
0
  5
A8BD
 10
120.717
 20
85.3043
 30
0.000000
  70
    32
  0
VERTEX
  8
0
  5
A8BE
 10
120.755
 20
85.3144
 30
0.000000
  70
    32
  0
VERTEX
  8
0
  5
A8BF
 10
120.793
 20
85.3245
 30
0.000000
  70
    32
  0
VERTEX
  8
0
  5
A8C0
 10
120.831
 20
85.3347
 30
0.000000
  70
    32
  0
VERTEX
  8
0
  5
A8C1
 10
120.868
 20
85.3449
 30
0.000000
  70
    32
  0
VERTEX
  8
0
  5
A8C2
 10
120.906
 20
85.3551
 30
0.000000
  70
    32
  0
VERTEX
  8
0
  5
A8C3
 10
120.944
 20
85.3654
 30
0.000000
  70
    32
  0
VERTEX
  8
0
  5
A8C4
 10
120.981
 20
85.3756
 30
0.000000
  70
    32
  0
VERTEX
  8
0
  5
A8C5
 10
121.019
 20
85.3859
 30
0.000000
  70
    32
  0
VERTEX
  8
0
  5
A8C6
 10
121.057
 20
85.3963
 30
0.000000
  70
    32
  0
VERTEX
  8
0
  5
A8C7
 10
121.094
 20
85.4067
 30
0.000000
  70
    32
  0
VERTEX
  8
0
  5
A8C8
 10
121.132
 20
85.4171
 30
0.000000
  70
    32
  0
VERTEX
  8
0
  5
A8C9
 10
121.170
 20
85.4275
 30
0.000000
  70
    32
  0
VERTEX
  8
0
  5
A8CA
 10
121.207
 20
85.4380
 30
0.000000
  70
    32
  0
VERTEX
  8
0
  5
A8CB
 10
121.245
 20
85.4484
 30
0.000000
  70
    32
  0
SEQEND
  8
0
  5
A8CC
  0
POLYLINE
  5
4FE8
  8
0
 66
     1
 10
0.0
 20
0.0
 30
0.0
  0
VERTEX
  5
A6A9
  8
0
 10
121.2447736128932
 20
85.448445913739135
 30
0.0
  0
VERTEX
  5
A6AA
  8
0
 10
121.3222205834952
 20
85.48331735437074
 30
0.0
  0
VERTEX
  5
A6AB
  8
0
 10
121.4760527972184
 20
85.54942285430559
 30
0.0
  0
VERTEX
  5
A6AC
  8
0
 10
121.6300666492931
 20
85.611496646267653
 30
0.0
  0
VERTEX
  5
A6AD
  8
0
 10
121.70871572232311
 20
85.641645221070405
 30
0.0
  0
VERTEX
  5
A6AE
  8
0
 10
121.7884411539319
 20
85.671155297770184
 30
0.0
  0
VERTEX
  5
A6AF
  8
0
 10
121.9508872765753
 20
85.728064080606885
 30
0.0
  0
VERTEX
  5
A6B0
  8
0
 10
122.1169283446107
 20
85.781856959197626
 30
0.0
  0
VERTEX
  5
A6B1
  8
0
 10
122.2860763409921
 20
85.832210685366988
 30
0.0
  0
VERTEX
  5
A6B2
  8
0
 10
122.4578319520039
 20
85.878845370574965
 30
0.0
  0
VERTEX
  5
A6B3
  8
0
 10
122.6316798420536
 20
85.921523841410803
 30
0.0
  0
VERTEX
  5
A6B4
  8
0
 10
122.71922367102719
 20
85.941317462073926
 30
0.0
  0
VERTEX
  5
A6B5
  8
0
 10
122.807091752967
 20
85.960053284375405
 30
0.0
  0
VERTEX
  5
A6B6
  8
0
 10
122.9835392128748
 20
85.994288111378282
 30
0.0
  0
VERTEX
  5
A6B7
  8
0
 10
123.1605063407338
 20
86.024130890945912
 30
0.0
  0
VERTEX
  5
A6B8
  8
0
 10
123.33744128059359
 20
86.049523353554818
 30
0.0
  0
VERTEX
  5
A6B9
  8
0
 10
123.5137809209098
 20
86.070452483755247
 30
0.0
  0
VERTEX
  5
A6BA
  8
0
 10
123.6889587665262
 20
86.086951485750106
 30
0.0
  0
VERTEX
  5
A6BB
  8
0
 10
123.7759346427702
 20
86.093562579241166
 30
0.0
  0
VERTEX
  5
A6BC
  8
0
 10
123.86240635115389
 20
86.09909919413775
 30
0.0
  0
VERTEX
  5
A6BD
  8
0
 10
124.03354820393859
 20
86.107019027770349
 30
0.0
  0
VERTEX
  5
A6BE
  8
0
 10
124.201804426001
 20
86.110878667348615
 30
0.0
  0
VERTEX
  5
A6BF
  8
0
 10
124.2846692605499
 20
86.111350227879683
 30
0.0
  0
SEQEND
  5
A6C0
  8
0
  0
POLYLINE
  5
4FF3
  8
0
 10
95.319242881203579
 20
85.448445913738709
 30
0.0
 66
     1
 70
     8
  0
VERTEX
  8
0
  5
A8CD
 10
95.3192
 20
85.4484
 30
0.000000
  70
    32
  0
VERTEX
  8
0
  5
A8CE
 10
95.3569
 20
85.4380
 30
0.000000
  70
    32
  0
VERTEX
  8
0
  5
A8CF
 10
95.3945
 20
85.4275
 30
0.000000
  70
    32
  0
VERTEX
  8
0
  5
A8D0
 10
95.4321
 20
85.4171
 30
0.000000
  70
    32
  0
VERTEX
  8
0
  5
A8D1
 10
95.4698
 20
85.4067
 30
0.000000
  70
    32
  0
VERTEX
  8
0
  5
A8D2
 10
95.5074
 20
85.3963
 30
0.000000
  70
    32
  0
VERTEX
  8
0
  5
A8D3
 10
95.5451
 20
85.3859
 30
0.000000
  70
    32
  0
VERTEX
  8
0
  5
A8D4
 10
95.5827
 20
85.3756
 30
0.000000
  70
    32
  0
VERTEX
  8
0
  5
A8D5
 10
95.6204
 20
85.3654
 30
0.000000
  70
    32
  0
VERTEX
  8
0
  5
A8D6
 10
95.6581
 20
85.3551
 30
0.000000
  70
    32
  0
VERTEX
  8
0
  5
A8D7
 10
95.6958
 20
85.3449
 30
0.000000
  70
    32
  0
VERTEX
  8
0
  5
A8D8
 10
95.7335
 20
85.3347
 30
0.000000
  70
    32
  0
VERTEX
  8
0
  5
A8D9
 10
95.7712
 20
85.3245
 30
0.000000
  70
    32
  0
VERTEX
  8
0
  5
A8DA
 10
95.8089
 20
85.3144
 30
0.000000
  70
    32
  0
VERTEX
  8
0
  5
A8DB
 10
95.8466
 20
85.3043
 30
0.000000
  70
    32
  0
VERTEX
  8
0
  5
A8DC
 10
95.8844
 20
85.2942
 30
0.000000
  70
    32
  0
VERTEX
  8
0
  5
A8DD
 10
95.9221
 20
85.2842
 30
0.000000
  70
    32
  0
VERTEX
  8
0
  5
A8DE
 10
95.9599
 20
85.2742
 30
0.000000
  70
    32
  0
VERTEX
  8
0
  5
A8DF
 10
95.9976
 20
85.2642
 30
0.000000
  70
    32
  0
VERTEX
  8
0
  5
A8E0
 10
96.0354
 20
85.2543
 30
0.000000
  70
    32
  0
VERTEX
  8
0
  5
A8E1
 10
96.0732
 20
85.2444
 30
0.000000
  70
    32
  0
VERTEX
  8
0
  5
A8E2
 10
96.1109
 20
85.2345
 30
0.000000
  70
    32
  0
VERTEX
  8
0
  5
A8E3
 10
96.1487
 20
85.2246
 30
0.000000
  70
    32
  0
VERTEX
  8
0
  5
A8E4
 10
96.1865
 20
85.2148
 30
0.000000
  70
    32
  0
VERTEX
  8
0
  5
A8E5
 10
96.2243
 20
85.2050
 30
0.000000
  70
    32
  0
VERTEX
  8
0
  5
A8E6
 10
96.2621
 20
85.1952
 30
0.000000
  70
    32
  0
VERTEX
  8
0
  5
A8E7
 10
96.3000
 20
85.1855
 30
0.000000
  70
    32
  0
VERTEX
  8
0
  5
A8E8
 10
96.3378
 20
85.1758
 30
0.000000
  70
    32
  0
VERTEX
  8
0
  5
A8E9
 10
96.3756
 20
85.1661
 30
0.000000
  70
    32
  0
VERTEX
  8
0
  5
A8EA
 10
96.4135
 20
85.1565
 30
0.000000
  70
    32
  0
VERTEX
  8
0
  5
A8EB
 10
96.4513
 20
85.1468
 30
0.000000
  70
    32
  0
VERTEX
  8
0
  5
A8EC
 10
96.4892
 20
85.1373
 30
0.000000
  70
    32
  0
VERTEX
  8
0
  5
A8ED
 10
96.5270
 20
85.1277
 30
0.000000
  70
    32
  0
VERTEX
  8
0
  5
A8EE
 10
96.5649
 20
85.1182
 30
0.000000
  70
    32
  0
VERTEX
  8
0
  5
A8EF
 10
96.6028
 20
85.1087
 30
0.000000
  70
    32
  0
VERTEX
  8
0
  5
A8F0
 10
96.6407
 20
85.0992
 30
0.000000
  70
    32
  0
VERTEX
  8
0
  5
A8F1
 10
96.6786
 20
85.0898
 30
0.000000
  70
    32
  0
VERTEX
  8
0
  5
A8F2
 10
96.7165
 20
85.0804
 30
0.000000
  70
    32
  0
VERTEX
  8
0
  5
A8F3
 10
96.7544
 20
85.0710
 30
0.000000
  70
    32
  0
VERTEX
  8
0
  5
A8F4
 10
96.7923
 20
85.0617
 30
0.000000
  70
    32
  0
VERTEX
  8
0
  5
A8F5
 10
96.8302
 20
85.0524
 30
0.000000
  70
    32
  0
VERTEX
  8
0
  5
A8F6
 10
96.8682
 20
85.0431
 30
0.000000
  70
    32
  0
VERTEX
  8
0
  5
A8F7
 10
96.9061
 20
85.0338
 30
0.000000
  70
    32
  0
VERTEX
  8
0
  5
A8F8
 10
96.9440
 20
85.0246
 30
0.000000
  70
    32
  0
VERTEX
  8
0
  5
A8F9
 10
96.9820
 20
85.0154
 30
0.000000
  70
    32
  0
VERTEX
  8
0
  5
A8FA
 10
97.0200
 20
85.0063
 30
0.000000
  70
    32
  0
VERTEX
  8
0
  5
A8FB
 10
97.0579
 20
84.9972
 30
0.000000
  70
    32
  0
VERTEX
  8
0
  5
A8FC
 10
97.0959
 20
84.9881
 30
0.000000
  70
    32
  0
VERTEX
  8
0
  5
A8FD
 10
97.1339
 20
84.9790
 30
0.000000
  70
    32
  0
VERTEX
  8
0
  5
A8FE
 10
97.1719
 20
84.9700
 30
0.000000
  70
    32
  0
VERTEX
  8
0
  5
A8FF
 10
97.2099
 20
84.9609
 30
0.000000
  70
    32
  0
VERTEX
  8
0
  5
A900
 10
97.2479
 20
84.9520
 30
0.000000
  70
    32
  0
VERTEX
  8
0
  5
A901
 10
97.2859
 20
84.9430
 30
0.000000
  70
    32
  0
VERTEX
  8
0
  5
A902
 10
97.3239
 20
84.9341
 30
0.000000
  70
    32
  0
VERTEX
  8
0
  5
A903
 10
97.3620
 20
84.9252
 30
0.000000
  70
    32
  0
VERTEX
  8
0
  5
A904
 10
97.4000
 20
84.9164
 30
0.000000
  70
    32
  0
VERTEX
  8
0
  5
A905
 10
97.4380
 20
84.9076
 30
0.000000
  70
    32
  0
VERTEX
  8
0
  5
A906
 10
97.4761
 20
84.8988
 30
0.000000
  70
    32
  0
VERTEX
  8
0
  5
A907
 10
97.5141
 20
84.8900
 30
0.000000
  70
    32
  0
VERTEX
  8
0
  5
A908
 10
97.5522
 20
84.8813
 30
0.000000
  70
    32
  0
VERTEX
  8
0
  5
A909
 10
97.5903
 20
84.8726
 30
0.000000
  70
    32
  0
VERTEX
  8
0
  5
A90A
 10
97.6283
 20
84.8639
 30
0.000000
  70
    32
  0
VERTEX
  8
0
  5
A90B
 10
97.6664
 20
84.8553
 30
0.000000
  70
    32
  0
VERTEX
  8
0
  5
A90C
 10
97.7045
 20
84.8467
 30
0.000000
  70
    32
  0
VERTEX
  8
0
  5
A90D
 10
97.7426
 20
84.8381
 30
0.000000
  70
    32
  0
VERTEX
  8
0
  5
A90E
 10
97.7807
 20
84.8295
 30
0.000000
  70
    32
  0
VERTEX
  8
0
  5
A90F
 10
97.8188
 20
84.8210
 30
0.000000
  70
    32
  0
VERTEX
  8
0
  5
A910
 10
97.8569
 20
84.8125
 30
0.000000
  70
    32
  0
VERTEX
  8
0
  5
A911
 10
97.8951
 20
84.8041
 30
0.000000
  70
    32
  0
VERTEX
  8
0
  5
A912
 10
97.9332
 20
84.7956
 30
0.000000
  70
    32
  0
VERTEX
  8
0
  5
A913
 10
97.9713
 20
84.7872
 30
0.000000
  70
    32
  0
VERTEX
  8
0
  5
A914
 10
98.0095
 20
84.7789
 30
0.000000
  70
    32
  0
VERTEX
  8
0
  5
A915
 10
98.0476
 20
84.7706
 30
0.000000
  70
    32
  0
VERTEX
  8
0
  5
A916
 10
98.0858
 20
84.7622
 30
0.000000
  70
    32
  0
VERTEX
  8
0
  5
A917
 10
98.1240
 20
84.7540
 30
0.000000
  70
    32
  0
VERTEX
  8
0
  5
A918
 10
98.1621
 20
84.7457
 30
0.000000
  70
    32
  0
VERTEX
  8
0
  5
A919
 10
98.2003
 20
84.7375
 30
0.000000
  70
    32
  0
VERTEX
  8
0
  5
A91A
 10
98.2385
 20
84.7293
 30
0.000000
  70
    32
  0
VERTEX
  8
0
  5
A91B
 10
98.2767
 20
84.7212
 30
0.000000
  70
    32
  0
VERTEX
  8
0
  5
A91C
 10
98.3149
 20
84.7131
 30
0.000000
  70
    32
  0
VERTEX
  8
0
  5
A91D
 10
98.3531
 20
84.7050
 30
0.000000
  70
    32
  0
VERTEX
  8
0
  5
A91E
 10
98.3913
 20
84.6969
 30
0.000000
  70
    32
  0
VERTEX
  8
0
  5
A91F
 10
98.4295
 20
84.6889
 30
0.000000
  70
    32
  0
VERTEX
  8
0
  5
A920
 10
98.4677
 20
84.6809
 30
0.000000
  70
    32
  0
VERTEX
  8
0
  5
A921
 10
98.5060
 20
84.6729
 30
0.000000
  70
    32
  0
VERTEX
  8
0
  5
A922
 10
98.5442
 20
84.6650
 30
0.000000
  70
    32
  0
VERTEX
  8
0
  5
A923
 10
98.5824
 20
84.6571
 30
0.000000
  70
    32
  0
VERTEX
  8
0
  5
A924
 10
98.6207
 20
84.6492
 30
0.000000
  70
    32
  0
VERTEX
  8
0
  5
A925
 10
98.6589
 20
84.6414
 30
0.000000
  70
    32
  0
VERTEX
  8
0
  5
A926
 10
98.6972
 20
84.6336
 30
0.000000
  70
    32
  0
VERTEX
  8
0
  5
A927
 10
98.7355
 20
84.6258
 30
0.000000
  70
    32
  0
VERTEX
  8
0
  5
A928
 10
98.7737
 20
84.6180
 30
0.000000
  70
    32
  0
VERTEX
  8
0
  5
A929
 10
98.8120
 20
84.6103
 30
0.000000
  70
    32
  0
VERTEX
  8
0
  5
A92A
 10
98.8503
 20
84.6026
 30
0.000000
  70
    32
  0
VERTEX
  8
0
  5
A92B
 10
98.8886
 20
84.5950
 30
0.000000
  70
    32
  0
VERTEX
  8
0
  5
A92C
 10
98.9269
 20
84.5873
 30
0.000000
  70
    32
  0
VERTEX
  8
0
  5
A92D
 10
98.9652
 20
84.5797
 30
0.000000
  70
    32
  0
VERTEX
  8
0
  5
A92E
 10
99.0035
 20
84.5722
 30
0.000000
  70
    32
  0
VERTEX
  8
0
  5
A92F
 10
99.0418
 20
84.5646
 30
0.000000
  70
    32
  0
VERTEX
  8
0
  5
A930
 10
99.0802
 20
84.5571
 30
0.000000
  70
    32
  0
VERTEX
  8
0
  5
A931
 10
99.1185
 20
84.5497
 30
0.000000
  70
    32
  0
VERTEX
  8
0
  5
A932
 10
99.1568
 20
84.5422
 30
0.000000
  70
    32
  0
VERTEX
  8
0
  5
A933
 10
99.1952
 20
84.5348
 30
0.000000
  70
    32
  0
VERTEX
  8
0
  5
A934
 10
99.2335
 20
84.5274
 30
0.000000
  70
    32
  0
VERTEX
  8
0
  5
A935
 10
99.2719
 20
84.5201
 30
0.000000
  70
    32
  0
VERTEX
  8
0
  5
A936
 10
99.3102
 20
84.5127
 30
0.000000
  70
    32
  0
VERTEX
  8
0
  5
A937
 10
99.3486
 20
84.5055
 30
0.000000
  70
    32
  0
VERTEX
  8
0
  5
A938
 10
99.3869
 20
84.4982
 30
0.000000
  70
    32
  0
VERTEX
  8
0
  5
A939
 10
99.4253
 20
84.4910
 30
0.000000
  70
    32
  0
VERTEX
  8
0
  5
A93A
 10
99.4637
 20
84.4838
 30
0.000000
  70
    32
  0
VERTEX
  8
0
  5
A93B
 10
99.5021
 20
84.4766
 30
0.000000
  70
    32
  0
VERTEX
  8
0
  5
A93C
 10
99.5405
 20
84.4695
 30
0.000000
  70
    32
  0
VERTEX
  8
0
  5
A93D
 10
99.5789
 20
84.4624
 30
0.000000
  70
    32
  0
VERTEX
  8
0
  5
A93E
 10
99.6173
 20
84.4553
 30
0.000000
  70
    32
  0
VERTEX
  8
0
  5
A93F
 10
99.6557
 20
84.4482
 30
0.000000
  70
    32
  0
VERTEX
  8
0
  5
A940
 10
99.6941
 20
84.4412
 30
0.000000
  70
    32
  0
VERTEX
  8
0
  5
A941
 10
99.7325
 20
84.4342
 30
0.000000
  70
    32
  0
VERTEX
  8
0
  5
A942
 10
99.7709
 20
84.4273
 30
0.000000
  70
    32
  0
VERTEX
  8
0
  5
A943
 10
99.8094
 20
84.4204
 30
0.000000
  70
    32
  0
VERTEX
  8
0
  5
A944
 10
99.8478
 20
84.4135
 30
0.000000
  70
    32
  0
VERTEX
  8
0
  5
A945
 10
99.8863
 20
84.4066
 30
0.000000
  70
    32
  0
VERTEX
  8
0
  5
A946
 10
99.9247
 20
84.3998
 30
0.000000
  70
    32
  0
VERTEX
  8
0
  5
A947
 10
99.9632
 20
84.3930
 30
0.000000
  70
    32
  0
VERTEX
  8
0
  5
A948
 10
100.002
 20
84.3862
 30
0.000000
  70
    32
  0
VERTEX
  8
0
  5
A949
 10
100.040
 20
84.3795
 30
0.000000
  70
    32
  0
VERTEX
  8
0
  5
A94A
 10
100.079
 20
84.3728
 30
0.000000
  70
    32
  0
VERTEX
  8
0
  5
A94B
 10
100.117
 20
84.3661
 30
0.000000
  70
    32
  0
VERTEX
  8
0
  5
A94C
 10
100.156
 20
84.3595
 30
0.000000
  70
    32
  0
VERTEX
  8
0
  5
A94D
 10
100.194
 20
84.3529
 30
0.000000
  70
    32
  0
SEQEND
  8
0
  5
A94E
  0
LINE
  5
4FF9
  8
0
 10
116.0100063651646
 20
84.293782935220577
 30
0.0
 11
116.0027882792795
 21
84.292651783476799
 31
0.0
  0
POLYLINE
  5
4FFA
  8
0
 10
92.268652214637427
 20
74.227601729080874
 30
0.0
 66
     1
 70
     8
  0
VERTEX
  8
0
  5
A94F
 10
92.2687
 20
74.2276
 30
0.000000
  70
    32
  0
VERTEX
  8
0
  5
A950
 10
92.4980
 20
74.2332
 30
0.000000
  70
    32
  0
VERTEX
  8
0
  5
A951
 10
92.7267
 20
74.2502
 30
0.000000
  70
    32
  0
VERTEX
  8
0
  5
A952
 10
92.9544
 20
74.2783
 30
0.000000
  70
    32
  0
VERTEX
  8
0
  5
A953
 10
93.1804
 20
74.3176
 30
0.000000
  70
    32
  0
VERTEX
  8
0
  5
A954
 10
93.4042
 20
74.3680
 30
0.000000
  70
    32
  0
VERTEX
  8
0
  5
A955
 10
93.6252
 20
74.4293
 30
0.000000
  70
    32
  0
VERTEX
  8
0
  5
A956
 10
93.8430
 20
74.5014
 30
0.000000
  70
    32
  0
VERTEX
  8
0
  5
A957
 10
94.0571
 20
74.5841
 30
0.000000
  70
    32
  0
VERTEX
  8
0
  5
A958
 10
94.2668
 20
74.6773
 30
0.000000
  70
    32
  0
VERTEX
  8
0
  5
A959
 10
94.4716
 20
74.7807
 30
0.000000
  70
    32
  0
VERTEX
  8
0
  5
A95A
 10
94.6712
 20
74.8940
 30
0.000000
  70
    32
  0
VERTEX
  8
0
  5
A95B
 10
94.8650
 20
75.0170
 30
0.000000
  70
    32
  0
VERTEX
  8
0
  5
A95C
 10
95.0525
 20
75.1493
 30
0.000000
  70
    32
  0
VERTEX
  8
0
  5
A95D
 10
95.2334
 20
75.2908
 30
0.000000
  70
    32
  0
VERTEX
  8
0
  5
A95E
 10
95.4071
 20
75.4409
 30
0.000000
  70
    32
  0
VERTEX
  8
0
  5
A95F
 10
95.5732
 20
75.5994
 30
0.000000
  70
    32
  0
VERTEX
  8
0
  5
A960
 10
95.7314
 20
75.7659
 30
0.000000
  70
    32
  0
VERTEX
  8
0
  5
A961
 10
95.8812
 20
75.9400
 30
0.000000
  70
    32
  0
VERTEX
  8
0
  5
A962
 10
96.0223
 20
76.1212
 30
0.000000
  70
    32
  0
VERTEX
  8
0
  5
A963
 10
96.1544
 20
76.3092
 30
0.000000
  70
    32
  0
VERTEX
  8
0
  5
A964
 10
96.2771
 20
76.5034
 30
0.000000
  70
    32
  0
VERTEX
  8
0
  5
A965
 10
96.3902
 20
76.7034
 30
0.000000
  70
    32
  0
VERTEX
  8
0
  5
A966
 10
96.4933
 20
76.9088
 30
0.000000
  70
    32
  0
VERTEX
  8
0
  5
A967
 10
96.5862
 20
77.1190
 30
0.000000
  70
    32
  0
VERTEX
  8
0
  5
A968
 10
96.6688
 20
77.3334
 30
0.000000
  70
    32
  0
VERTEX
  8
0
  5
A969
 10
96.7407
 20
77.5517
 30
0.000000
  70
    32
  0
VERTEX
  8
0
  5
A96A
 10
96.8019
 20
77.7733
 30
0.000000
  70
    32
  0
VERTEX
  8
0
  5
A96B
 10
96.8522
 20
77.9976
 30
0.000000
  70
    32
  0
VERTEX
  8
0
  5
A96C
 10
96.8914
 20
78.2241
 30
0.000000
  70
    32
  0
VERTEX
  8
0
  5
A96D
 10
96.9195
 20
78.4523
 30
0.000000
  70
    32
  0
VERTEX
  8
0
  5
A96E
 10
96.9363
 20
78.6815
 30
0.000000
  70
    32
  0
VERTEX
  8
0
  5
A96F
 10
96.9420
 20
78.9114
 30
0.000000
  70
    32
  0
VERTEX
  8
0
  5
A970
 10
96.9363
 20
79.1412
 30
0.000000
  70
    32
  0
VERTEX
  8
0
  5
A971
 10
96.9195
 20
79.3704
 30
0.000000
  70
    32
  0
VERTEX
  8
0
  5
A972
 10
96.8914
 20
79.5986
 30
0.000000
  70
    32
  0
VERTEX
  8
0
  5
A973
 10
96.8522
 20
79.8251
 30
0.000000
  70
    32
  0
VERTEX
  8
0
  5
A974
 10
96.8019
 20
80.0494
 30
0.000000
  70
    32
  0
VERTEX
  8
0
  5
A975
 10
96.7407
 20
80.2710
 30
0.000000
  70
    32
  0
VERTEX
  8
0
  5
A976
 10
96.6688
 20
80.4893
 30
0.000000
  70
    32
  0
VERTEX
  8
0
  5
A977
 10
96.5862
 20
80.7037
 30
0.000000
  70
    32
  0
VERTEX
  8
0
  5
A978
 10
96.4933
 20
80.9139
 30
0.000000
  70
    32
  0
VERTEX
  8
0
  5
A979
 10
96.3902
 20
81.1193
 30
0.000000
  70
    32
  0
VERTEX
  8
0
  5
A97A
 10
96.2771
 20
81.3193
 30
0.000000
  70
    32
  0
VERTEX
  8
0
  5
A97B
 10
96.1544
 20
81.5135
 30
0.000000
  70
    32
  0
VERTEX
  8
0
  5
A97C
 10
96.0223
 20
81.7015
 30
0.000000
  70
    32
  0
VERTEX
  8
0
  5
A97D
 10
95.8812
 20
81.8827
 30
0.000000
  70
    32
  0
VERTEX
  8
0
  5
A97E
 10
95.7314
 20
82.0568
 30
0.000000
  70
    32
  0
VERTEX
  8
0
  5
A97F
 10
95.5732
 20
82.2233
 30
0.000000
  70
    32
  0
VERTEX
  8
0
  5
A980
 10
95.4071
 20
82.3818
 30
0.000000
  70
    32
  0
VERTEX
  8
0
  5
A981
 10
95.2334
 20
82.5319
 30
0.000000
  70
    32
  0
VERTEX
  8
0
  5
A982
 10
95.0525
 20
82.6734
 30
0.000000
  70
    32
  0
VERTEX
  8
0
  5
A983
 10
94.8650
 20
82.8057
 30
0.000000
  70
    32
  0
VERTEX
  8
0
  5
A984
 10
94.6712
 20
82.9287
 30
0.000000
  70
    32
  0
VERTEX
  8
0
  5
A985
 10
94.4716
 20
83.0420
 30
0.000000
  70
    32
  0
VERTEX
  8
0
  5
A986
 10
94.2668
 20
83.1454
 30
0.000000
  70
    32
  0
VERTEX
  8
0
  5
A987
 10
94.0571
 20
83.2386
 30
0.000000
  70
    32
  0
VERTEX
  8
0
  5
A988
 10
93.8430
 20
83.3213
 30
0.000000
  70
    32
  0
VERTEX
  8
0
  5
A989
 10
93.6252
 20
83.3934
 30
0.000000
  70
    32
  0
VERTEX
  8
0
  5
A98A
 10
93.4042
 20
83.4547
 30
0.000000
  70
    32
  0
VERTEX
  8
0
  5
A98B
 10
93.1804
 20
83.5051
 30
0.000000
  70
    32
  0
VERTEX
  8
0
  5
A98C
 10
92.9544
 20
83.5444
 30
0.000000
  70
    32
  0
VERTEX
  8
0
  5
A98D
 10
92.7267
 20
83.5725
 30
0.000000
  70
    32
  0
VERTEX
  8
0
  5
A98E
 10
92.4980
 20
83.5895
 30
0.000000
  70
    32
  0
VERTEX
  8
0
  5
A98F
 10
92.2687
 20
83.5951
 30
0.000000
  70
    32
  0
VERTEX
  8
0
  5
A990
 10
92.0393
 20
83.5895
 30
0.000000
  70
    32
  0
VERTEX
  8
0
  5
A991
 10
91.8106
 20
83.5725
 30
0.000000
  70
    32
  0
VERTEX
  8
0
  5
A992
 10
91.5829
 20
83.5444
 30
0.000000
  70
    32
  0
VERTEX
  8
0
  5
A993
 10
91.3569
 20
83.5051
 30
0.000000
  70
    32
  0
VERTEX
  8
0
  5
A994
 10
91.1331
 20
83.4547
 30
0.000000
  70
    32
  0
VERTEX
  8
0
  5
A995
 10
90.9121
 20
83.3934
 30
0.000000
  70
    32
  0
VERTEX
  8
0
  5
A996
 10
90.6943
 20
83.3213
 30
0.000000
  70
    32
  0
VERTEX
  8
0
  5
A997
 10
90.4802
 20
83.2386
 30
0.000000
  70
    32
  0
VERTEX
  8
0
  5
A998
 10
90.2705
 20
83.1454
 30
0.000000
  70
    32
  0
VERTEX
  8
0
  5
A999
 10
90.0657
 20
83.0420
 30
0.000000
  70
    32
  0
VERTEX
  8
0
  5
A99A
 10
89.8661
 20
82.9287
 30
0.000000
  70
    32
  0
VERTEX
  8
0
  5
A99B
 10
89.6723
 20
82.8057
 30
0.000000
  70
    32
  0
VERTEX
  8
0
  5
A99C
 10
89.4848
 20
82.6734
 30
0.000000
  70
    32
  0
VERTEX
  8
0
  5
A99D
 10
89.3039
 20
82.5319
 30
0.000000
  70
    32
  0
VERTEX
  8
0
  5
A99E
 10
89.1302
 20
82.3818
 30
0.000000
  70
    32
  0
VERTEX
  8
0
  5
A99F
 10
88.9641
 20
82.2233
 30
0.000000
  70
    32
  0
VERTEX
  8
0
  5
A9A0
 10
88.8059
 20
82.0568
 30
0.000000
  70
    32
  0
VERTEX
  8
0
  5
A9A1
 10
88.6561
 20
81.8827
 30
0.000000
  70
    32
  0
VERTEX
  8
0
  5
A9A2
 10
88.5150
 20
81.7015
 30
0.000000
  70
    32
  0
VERTEX
  8
0
  5
A9A3
 10
88.3829
 20
81.5135
 30
0.000000
  70
    32
  0
VERTEX
  8
0
  5
A9A4
 10
88.2602
 20
81.3193
 30
0.000000
  70
    32
  0
VERTEX
  8
0
  5
A9A5
 10
88.1471
 20
81.1193
 30
0.000000
  70
    32
  0
VERTEX
  8
0
  5
A9A6
 10
88.0440
 20
80.9139
 30
0.000000
  70
    32
  0
VERTEX
  8
0
  5
A9A7
 10
87.9511
 20
80.7037
 30
0.000000
  70
    32
  0
VERTEX
  8
0
  5
A9A8
 10
87.8685
 20
80.4893
 30
0.000000
  70
    32
  0
VERTEX
  8
0
  5
A9A9
 10
87.7966
 20
80.2710
 30
0.000000
  70
    32
  0
VERTEX
  8
0
  5
A9AA
 10
87.7354
 20
80.0494
 30
0.000000
  70
    32
  0
VERTEX
  8
0
  5
A9AB
 10
87.6851
 20
79.8251
 30
0.000000
  70
    32
  0
VERTEX
  8
0
  5
A9AC
 10
87.6459
 20
79.5986
 30
0.000000
  70
    32
  0
VERTEX
  8
0
  5
A9AD
 10
87.6178
 20
79.3704
 30
0.000000
  70
    32
  0
VERTEX
  8
0
  5
A9AE
 10
87.6010
 20
79.1412
 30
0.000000
  70
    32
  0
VERTEX
  8
0
  5
A9AF
 10
87.5953
 20
78.9114
 30
0.000000
  70
    32
  0
VERTEX
  8
0
  5
A9B0
 10
87.6010
 20
78.6815
 30
0.000000
  70
    32
  0
VERTEX
  8
0
  5
A9B1
 10
87.6178
 20
78.4523
 30
0.000000
  70
    32
  0
VERTEX
  8
0
  5
A9B2
 10
87.6459
 20
78.2241
 30
0.000000
  70
    32
  0
VERTEX
  8
0
  5
A9B3
 10
87.6851
 20
77.9976
 30
0.000000
  70
    32
  0
VERTEX
  8
0
  5
A9B4
 10
87.7354
 20
77.7733
 30
0.000000
  70
    32
  0
VERTEX
  8
0
  5
A9B5
 10
87.7966
 20
77.5517
 30
0.000000
  70
    32
  0
VERTEX
  8
0
  5
A9B6
 10
87.8685
 20
77.3334
 30
0.000000
  70
    32
  0
VERTEX
  8
0
  5
A9B7
 10
87.9511
 20
77.1190
 30
0.000000
  70
    32
  0
VERTEX
  8
0
  5
A9B8
 10
88.0440
 20
76.9088
 30
0.000000
  70
    32
  0
VERTEX
  8
0
  5
A9B9
 10
88.1471
 20
76.7034
 30
0.000000
  70
    32
  0
VERTEX
  8
0
  5
A9BA
 10
88.2602
 20
76.5034
 30
0.000000
  70
    32
  0
VERTEX
  8
0
  5
A9BB
 10
88.3829
 20
76.3092
 30
0.000000
  70
    32
  0
VERTEX
  8
0
  5
A9BC
 10
88.5150
 20
76.1212
 30
0.000000
  70
    32
  0
VERTEX
  8
0
  5
A9BD
 10
88.6561
 20
75.9400
 30
0.000000
  70
    32
  0
VERTEX
  8
0
  5
A9BE
 10
88.8059
 20
75.7659
 30
0.000000
  70
    32
  0
VERTEX
  8
0
  5
A9BF
 10
88.9641
 20
75.5994
 30
0.000000
  70
    32
  0
VERTEX
  8
0
  5
A9C0
 10
89.1302
 20
75.4409
 30
0.000000
  70
    32
  0
VERTEX
  8
0
  5
A9C1
 10
89.3039
 20
75.2908
 30
0.000000
  70
    32
  0
VERTEX
  8
0
  5
A9C2
 10
89.4848
 20
75.1493
 30
0.000000
  70
    32
  0
VERTEX
  8
0
  5
A9C3
 10
89.6723
 20
75.0170
 30
0.000000
  70
    32
  0
VERTEX
  8
0
  5
A9C4
 10
89.8661
 20
74.8940
 30
0.000000
  70
    32
  0
VERTEX
  8
0
  5
A9C5
 10
90.0657
 20
74.7807
 30
0.000000
  70
    32
  0
VERTEX
  8
0
  5
A9C6
 10
90.2705
 20
74.6773
 30
0.000000
  70
    32
  0
VERTEX
  8
0
  5
A9C7
 10
90.4802
 20
74.5841
 30
0.000000
  70
    32
  0
VERTEX
  8
0
  5
A9C8
 10
90.6943
 20
74.5014
 30
0.000000
  70
    32
  0
VERTEX
  8
0
  5
A9C9
 10
90.9121
 20
74.4293
 30
0.000000
  70
    32
  0
VERTEX
  8
0
  5
A9CA
 10
91.1331
 20
74.3680
 30
0.000000
  70
    32
  0
VERTEX
  8
0
  5
A9CB
 10
91.3569
 20
74.3176
 30
0.000000
  70
    32
  0
VERTEX
  8
0
  5
A9CC
 10
91.5829
 20
74.2783
 30
0.000000
  70
    32
  0
VERTEX
  8
0
  5
A9CD
 10
91.8106
 20
74.2502
 30
0.000000
  70
    32
  0
VERTEX
  8
0
  5
A9CE
 10
92.0393
 20
74.2332
 30
0.000000
  70
    32
  0
VERTEX
  8
0
  5
A9CF
 10
92.2687
 20
74.2276
 30
0.000000
  70
    32
  0
SEQEND
  8
0
  5
A9D0
  0
POLYLINE
  5
4FFB
  8
0
 10
124.2953642794597
 20
83.595098726678486
 30
0.0
 66
     1
 70
     8
  0
VERTEX
  8
0
  5
A9D1
 10
124.295
 20
83.5951
 30
0.000000
  70
    32
  0
VERTEX
  8
0
  5
A9D2
 10
124.066
 20
83.5895
 30
0.000000
  70
    32
  0
VERTEX
  8
0
  5
A9D3
 10
123.837
 20
83.5725
 30
0.000000
  70
    32
  0
VERTEX
  8
0
  5
A9D4
 10
123.610
 20
83.5444
 30
0.000000
  70
    32
  0
VERTEX
  8
0
  5
A9D5
 10
123.384
 20
83.5051
 30
0.000000
  70
    32
  0
VERTEX
  8
0
  5
A9D6
 10
123.160
 20
83.4547
 30
0.000000
  70
    32
  0
VERTEX
  8
0
  5
A9D7
 10
122.939
 20
83.3934
 30
0.000000
  70
    32
  0
VERTEX
  8
0
  5
A9D8
 10
122.721
 20
83.3213
 30
0.000000
  70
    32
  0
VERTEX
  8
0
  5
A9D9
 10
122.507
 20
83.2386
 30
0.000000
  70
    32
  0
VERTEX
  8
0
  5
A9DA
 10
122.297
 20
83.1454
 30
0.000000
  70
    32
  0
VERTEX
  8
0
  5
A9DB
 10
122.092
 20
83.0420
 30
0.000000
  70
    32
  0
VERTEX
  8
0
  5
A9DC
 10
121.893
 20
82.9287
 30
0.000000
  70
    32
  0
VERTEX
  8
0
  5
A9DD
 10
121.699
 20
82.8057
 30
0.000000
  70
    32
  0
VERTEX
  8
0
  5
A9DE
 10
121.511
 20
82.6734
 30
0.000000
  70
    32
  0
VERTEX
  8
0
  5
A9DF
 10
121.331
 20
82.5319
 30
0.000000
  70
    32
  0
VERTEX
  8
0
  5
A9E0
 10
121.157
 20
82.3818
 30
0.000000
  70
    32
  0
VERTEX
  8
0
  5
A9E1
 10
120.991
 20
82.2233
 30
0.000000
  70
    32
  0
VERTEX
  8
0
  5
A9E2
 10
120.833
 20
82.0568
 30
0.000000
  70
    32
  0
VERTEX
  8
0
  5
A9E3
 10
120.683
 20
81.8827
 30
0.000000
  70
    32
  0
VERTEX
  8
0
  5
A9E4
 10
120.542
 20
81.7015
 30
0.000000
  70
    32
  0
VERTEX
  8
0
  5
A9E5
 10
120.410
 20
81.5135
 30
0.000000
  70
    32
  0
VERTEX
  8
0
  5
A9E6
 10
120.287
 20
81.3193
 30
0.000000
  70
    32
  0
VERTEX
  8
0
  5
A9E7
 10
120.174
 20
81.1193
 30
0.000000
  70
    32
  0
VERTEX
  8
0
  5
A9E8
 10
120.071
 20
80.9139
 30
0.000000
  70
    32
  0
VERTEX
  8
0
  5
A9E9
 10
119.978
 20
80.7037
 30
0.000000
  70
    32
  0
VERTEX
  8
0
  5
A9EA
 10
119.895
 20
80.4893
 30
0.000000
  70
    32
  0
VERTEX
  8
0
  5
A9EB
 10
119.823
 20
80.2710
 30
0.000000
  70
    32
  0
VERTEX
  8
0
  5
A9EC
 10
119.762
 20
80.0494
 30
0.000000
  70
    32
  0
VERTEX
  8
0
  5
A9ED
 10
119.712
 20
79.8251
 30
0.000000
  70
    32
  0
VERTEX
  8
0
  5
A9EE
 10
119.673
 20
79.5986
 30
0.000000
  70
    32
  0
VERTEX
  8
0
  5
A9EF
 10
119.645
 20
79.3704
 30
0.000000
  70
    32
  0
VERTEX
  8
0
  5
A9F0
 10
119.628
 20
79.1412
 30
0.000000
  70
    32
  0
VERTEX
  8
0
  5
A9F1
 10
119.622
 20
78.9114
 30
0.000000
  70
    32
  0
VERTEX
  8
0
  5
A9F2
 10
119.628
 20
78.6815
 30
0.000000
  70
    32
  0
VERTEX
  8
0
  5
A9F3
 10
119.645
 20
78.4523
 30
0.000000
  70
    32
  0
VERTEX
  8
0
  5
A9F4
 10
119.673
 20
78.2241
 30
0.000000
  70
    32
  0
VERTEX
  8
0
  5
A9F5
 10
119.712
 20
77.9976
 30
0.000000
  70
    32
  0
VERTEX
  8
0
  5
A9F6
 10
119.762
 20
77.7733
 30
0.000000
  70
    32
  0
VERTEX
  8
0
  5
A9F7
 10
119.823
 20
77.5517
 30
0.000000
  70
    32
  0
VERTEX
  8
0
  5
A9F8
 10
119.895
 20
77.3334
 30
0.000000
  70
    32
  0
VERTEX
  8
0
  5
A9F9
 10
119.978
 20
77.1190
 30
0.000000
  70
    32
  0
VERTEX
  8
0
  5
A9FA
 10
120.071
 20
76.9088
 30
0.000000
  70
    32
  0
VERTEX
  8
0
  5
A9FB
 10
120.174
 20
76.7034
 30
0.000000
  70
    32
  0
VERTEX
  8
0
  5
A9FC
 10
120.287
 20
76.5034
 30
0.000000
  70
    32
  0
VERTEX
  8
0
  5
A9FD
 10
120.410
 20
76.3092
 30
0.000000
  70
    32
  0
VERTEX
  8
0
  5
A9FE
 10
120.542
 20
76.1212
 30
0.000000
  70
    32
  0
VERTEX
  8
0
  5
A9FF
 10
120.683
 20
75.9400
 30
0.000000
  70
    32
  0
VERTEX
  8
0
  5
AA00
 10
120.833
 20
75.7659
 30
0.000000
  70
    32
  0
VERTEX
  8
0
  5
AA01
 10
120.991
 20
75.5994
 30
0.000000
  70
    32
  0
VERTEX
  8
0
  5
AA02
 10
121.157
 20
75.4409
 30
0.000000
  70
    32
  0
VERTEX
  8
0
  5
AA03
 10
121.331
 20
75.2908
 30
0.000000
  70
    32
  0
VERTEX
  8
0
  5
AA04
 10
121.511
 20
75.1493
 30
0.000000
  70
    32
  0
VERTEX
  8
0
  5
AA05
 10
121.699
 20
75.0170
 30
0.000000
  70
    32
  0
VERTEX
  8
0
  5
AA06
 10
121.893
 20
74.8940
 30
0.000000
  70
    32
  0
VERTEX
  8
0
  5
AA07
 10
122.092
 20
74.7807
 30
0.000000
  70
    32
  0
VERTEX
  8
0
  5
AA08
 10
122.297
 20
74.6773
 30
0.000000
  70
    32
  0
VERTEX
  8
0
  5
AA09
 10
122.507
 20
74.5841
 30
0.000000
  70
    32
  0
VERTEX
  8
0
  5
AA0A
 10
122.721
 20
74.5014
 30
0.000000
  70
    32
  0
VERTEX
  8
0
  5
AA0B
 10
122.939
 20
74.4293
 30
0.000000
  70
    32
  0
VERTEX
  8
0
  5
AA0C
 10
123.160
 20
74.3680
 30
0.000000
  70
    32
  0
VERTEX
  8
0
  5
AA0D
 10
123.384
 20
74.3176
 30
0.000000
  70
    32
  0
VERTEX
  8
0
  5
AA0E
 10
123.610
 20
74.2783
 30
0.000000
  70
    32
  0
VERTEX
  8
0
  5
AA0F
 10
123.837
 20
74.2502
 30
0.000000
  70
    32
  0
VERTEX
  8
0
  5
AA10
 10
124.066
 20
74.2332
 30
0.000000
  70
    32
  0
VERTEX
  8
0
  5
AA11
 10
124.295
 20
74.2276
 30
0.000000
  70
    32
  0
VERTEX
  8
0
  5
AA12
 10
124.525
 20
74.2332
 30
0.000000
  70
    32
  0
VERTEX
  8
0
  5
AA13
 10
124.753
 20
74.2502
 30
0.000000
  70
    32
  0
VERTEX
  8
0
  5
AA14
 10
124.981
 20
74.2783
 30
0.000000
  70
    32
  0
VERTEX
  8
0
  5
AA15
 10
125.207
 20
74.3176
 30
0.000000
  70
    32
  0
VERTEX
  8
0
  5
AA16
 10
125.431
 20
74.3680
 30
0.000000
  70
    32
  0
VERTEX
  8
0
  5
AA17
 10
125.652
 20
74.4293
 30
0.000000
  70
    32
  0
VERTEX
  8
0
  5
AA18
 10
125.870
 20
74.5014
 30
0.000000
  70
    32
  0
VERTEX
  8
0
  5
AA19
 10
126.084
 20
74.5841
 30
0.000000
  70
    32
  0
VERTEX
  8
0
  5
AA1A
 10
126.293
 20
74.6773
 30
0.000000
  70
    32
  0
VERTEX
  8
0
  5
AA1B
 10
126.498
 20
74.7807
 30
0.000000
  70
    32
  0
VERTEX
  8
0
  5
AA1C
 10
126.698
 20
74.8940
 30
0.000000
  70
    32
  0
VERTEX
  8
0
  5
AA1D
 10
126.892
 20
75.0170
 30
0.000000
  70
    32
  0
VERTEX
  8
0
  5
AA1E
 10
127.079
 20
75.1493
 30
0.000000
  70
    32
  0
VERTEX
  8
0
  5
AA1F
 10
127.260
 20
75.2908
 30
0.000000
  70
    32
  0
VERTEX
  8
0
  5
AA20
 10
127.434
 20
75.4409
 30
0.000000
  70
    32
  0
VERTEX
  8
0
  5
AA21
 10
127.600
 20
75.5994
 30
0.000000
  70
    32
  0
VERTEX
  8
0
  5
AA22
 10
127.758
 20
75.7659
 30
0.000000
  70
    32
  0
VERTEX
  8
0
  5
AA23
 10
127.908
 20
75.9400
 30
0.000000
  70
    32
  0
VERTEX
  8
0
  5
AA24
 10
128.049
 20
76.1212
 30
0.000000
  70
    32
  0
VERTEX
  8
0
  5
AA25
 10
128.181
 20
76.3092
 30
0.000000
  70
    32
  0
VERTEX
  8
0
  5
AA26
 10
128.304
 20
76.5034
 30
0.000000
  70
    32
  0
VERTEX
  8
0
  5
AA27
 10
128.417
 20
76.7034
 30
0.000000
  70
    32
  0
VERTEX
  8
0
  5
AA28
 10
128.520
 20
76.9088
 30
0.000000
  70
    32
  0
VERTEX
  8
0
  5
AA29
 10
128.613
 20
77.1190
 30
0.000000
  70
    32
  0
VERTEX
  8
0
  5
AA2A
 10
128.696
 20
77.3334
 30
0.000000
  70
    32
  0
VERTEX
  8
0
  5
AA2B
 10
128.767
 20
77.5517
 30
0.000000
  70
    32
  0
VERTEX
  8
0
  5
AA2C
 10
128.829
 20
77.7733
 30
0.000000
  70
    32
  0
VERTEX
  8
0
  5
AA2D
 10
128.879
 20
77.9976
 30
0.000000
  70
    32
  0
VERTEX
  8
0
  5
AA2E
 10
128.918
 20
78.2241
 30
0.000000
  70
    32
  0
VERTEX
  8
0
  5
AA2F
 10
128.946
 20
78.4523
 30
0.000000
  70
    32
  0
VERTEX
  8
0
  5
AA30
 10
128.963
 20
78.6815
 30
0.000000
  70
    32
  0
VERTEX
  8
0
  5
AA31
 10
128.969
 20
78.9114
 30
0.000000
  70
    32
  0
VERTEX
  8
0
  5
AA32
 10
128.963
 20
79.1412
 30
0.000000
  70
    32
  0
VERTEX
  8
0
  5
AA33
 10
128.946
 20
79.3704
 30
0.000000
  70
    32
  0
VERTEX
  8
0
  5
AA34
 10
128.918
 20
79.5986
 30
0.000000
  70
    32
  0
VERTEX
  8
0
  5
AA35
 10
128.879
 20
79.8251
 30
0.000000
  70
    32
  0
VERTEX
  8
0
  5
AA36
 10
128.829
 20
80.0494
 30
0.000000
  70
    32
  0
VERTEX
  8
0
  5
AA37
 10
128.767
 20
80.2710
 30
0.000000
  70
    32
  0
VERTEX
  8
0
  5
AA38
 10
128.696
 20
80.4893
 30
0.000000
  70
    32
  0
VERTEX
  8
0
  5
AA39
 10
128.613
 20
80.7037
 30
0.000000
  70
    32
  0
VERTEX
  8
0
  5
AA3A
 10
128.520
 20
80.9139
 30
0.000000
  70
    32
  0
VERTEX
  8
0
  5
AA3B
 10
128.417
 20
81.1193
 30
0.000000
  70
    32
  0
VERTEX
  8
0
  5
AA3C
 10
128.304
 20
81.3193
 30
0.000000
  70
    32
  0
VERTEX
  8
0
  5
AA3D
 10
128.181
 20
81.5135
 30
0.000000
  70
    32
  0
VERTEX
  8
0
  5
AA3E
 10
128.049
 20
81.7015
 30
0.000000
  70
    32
  0
VERTEX
  8
0
  5
AA3F
 10
127.908
 20
81.8827
 30
0.000000
  70
    32
  0
VERTEX
  8
0
  5
AA40
 10
127.758
 20
82.0568
 30
0.000000
  70
    32
  0
VERTEX
  8
0
  5
AA41
 10
127.600
 20
82.2233
 30
0.000000
  70
    32
  0
VERTEX
  8
0
  5
AA42
 10
127.434
 20
82.3818
 30
0.000000
  70
    32
  0
VERTEX
  8
0
  5
AA43
 10
127.260
 20
82.5319
 30
0.000000
  70
    32
  0
VERTEX
  8
0
  5
AA44
 10
127.079
 20
82.6734
 30
0.000000
  70
    32
  0
VERTEX
  8
0
  5
AA45
 10
126.892
 20
82.8057
 30
0.000000
  70
    32
  0
VERTEX
  8
0
  5
AA46
 10
126.698
 20
82.9287
 30
0.000000
  70
    32
  0
VERTEX
  8
0
  5
AA47
 10
126.498
 20
83.0420
 30
0.000000
  70
    32
  0
VERTEX
  8
0
  5
AA48
 10
126.293
 20
83.1454
 30
0.000000
  70
    32
  0
VERTEX
  8
0
  5
AA49
 10
126.084
 20
83.2386
 30
0.000000
  70
    32
  0
VERTEX
  8
0
  5
AA4A
 10
125.870
 20
83.3213
 30
0.000000
  70
    32
  0
VERTEX
  8
0
  5
AA4B
 10
125.652
 20
83.3934
 30
0.000000
  70
    32
  0
VERTEX
  8
0
  5
AA4C
 10
125.431
 20
83.4547
 30
0.000000
  70
    32
  0
VERTEX
  8
0
  5
AA4D
 10
125.207
 20
83.5051
 30
0.000000
  70
    32
  0
VERTEX
  8
0
  5
AA4E
 10
124.981
 20
83.5444
 30
0.000000
  70
    32
  0
VERTEX
  8
0
  5
AA4F
 10
124.753
 20
83.5725
 30
0.000000
  70
    32
  0
VERTEX
  8
0
  5
AA50
 10
124.525
 20
83.5895
 30
0.000000
  70
    32
  0
VERTEX
  8
0
  5
AA51
 10
124.295
 20
83.5951
 30
0.000000
  70
    32
  0
SEQEND
  8
0
  5
AA52
  0
LINE
  5
52F9
  8
1
 10
108.28200824704849
 20
108.3150409882401
 30
0.0
 11
108.28200824704849
 21
130.98776825223999
 31
0.0
  0
LINE
  5
52FA
  8
1
 10
136.28200824704851
 20
119.6514046202401
 30
0.0
 11
80.282008247048594
 21
119.6514046202401
 31
0.0
  0
ARC
  5
52FB
  8
0
 10
108.28200824704879
 20
119.6514046202401
 30
0.0
 40
23.500000000000281
 50
174.5473778497101
 51
185.45262198781111
  0
ARC
  5
52FC
  8
0
 10
108.2820082470482
 20
119.6514046202401
 30
0.0
 40
23.500000000000281
 50
354.54737784971019
 51
5.452621987811078
  0
POLYLINE
  5
5303
  8
0
 66
     1
 10
0.0
 20
0.0
 30
0.0
  0
VERTEX
  5
A6C1
  8
0
 10
100.193993179166
 20
117.08121245813579
 30
0.0
  0
VERTEX
  5
A6C2
  8
0
 10
100.2714760001066
 20
117.0853135532336
 30
0.0
  0
VERTEX
  5
A6C3
  8
0
 10
100.4288181069881
 20
117.0870320391527
 30
0.0
  0
VERTEX
  5
A6C4
  8
0
 10
100.58845483336989
 20
117.0797282149196
 30
0.0
  0
VERTEX
  5
A6C5
  8
0
 10
100.6688043889073
 20
117.0725851829053
 30
0.0
  0
VERTEX
  5
A6C6
  8
0
 10
100.7493351071427
 20
117.0630747471705
 30
0.0
  0
VERTEX
  5
A6C7
  8
0
 10
100.9104343297961
 20
117.0368810492886
 30
0.0
  0
VERTEX
  5
A6C8
  8
0
 10
101.070739155583
 20
117.00108972586069
 30
0.0
  0
VERTEX
  5
A6C9
  8
0
 10
101.22924340364411
 20
116.95577789783179
 30
0.0
  0
VERTEX
  5
A6CA
  8
0
 10
101.3850180139253
 20
116.9011351557576
 30
0.0
  0
VERTEX
  5
A6CB
  8
0
 10
101.53724547351349
 20
116.8374328242689
 30
0.0
  0
VERTEX
  5
A6CC
  8
0
 10
101.6117486746822
 20
116.80231212653899
 30
0.0
  0
VERTEX
  5
A6CD
  8
0
 10
101.6850325998831
 20
116.7650963279507
 30
0.0
  0
VERTEX
  5
A6CE
  8
0
 10
101.8275327037779
 20
116.6846765072804
 30
0.0
  0
VERTEX
  5
A6CF
  8
0
 10
101.963976956602
 20
116.59683492102511
 30
0.0
  0
VERTEX
  5
A6D0
  8
0
 10
102.09365520928429
 20
116.5023571729419
 30
0.0
  0
VERTEX
  5
A6D1
  8
0
 10
102.21592649031329
 20
116.40215508552529
 30
0.0
  0
VERTEX
  5
A6D2
  8
0
 10
102.3195842625328
 20
116.3069513109825
 30
0.0
  0
SEQEND
  5
A6D3
  8
0
  0
LINE
  5
5305
  8
0
 10
116.3700233149311
 20
117.08121245813579
 30
0.0
 11
130.2820082470484
 21
116.1514046202401
 31
0.0
  0
POLYLINE
  5
5306
  8
0
 66
     1
 10
0.0
 20
0.0
 30
0.0
  0
VERTEX
  5
A6D4
  8
0
 10
130.2820082470484
 20
116.1514046202401
 30
0.0
  0
VERTEX
  5
A6D5
  8
0
 10
130.3490563996582
 20
116.1530110614621
 30
0.0
  0
VERTEX
  5
A6D6
  8
0
 10
130.47905552870421
 20
116.16534099659501
 30
0.0
  0
VERTEX
  5
A6D7
  8
0
 10
130.60307947289681
 20
116.188718571316
 30
0.0
  0
VERTEX
  5
A6D8
  8
0
 10
130.66281100102259
 20
116.2041892467508
 30
0.0
  0
VERTEX
  5
A6D9
  8
0
 10
130.72100227045351
 20
116.2220121847965
 30
0.0
  0
VERTEX
  5
A6DA
  8
0
 10
130.83261698557681
 20
116.2642255273955
 30
0.0
  0
VERTEX
  5
A6DB
  8
0
 10
130.9376514517437
 20
116.3144195806632
 30
0.0
  0
VERTEX
  5
A6DC
  8
0
 10
131.03587102672321
 20
116.3717051206127
 30
0.0
  0
VERTEX
  5
A6DD
  8
0
 10
131.12771015938949
 20
116.4357038200868
 30
0.0
  0
VERTEX
  5
A6DE
  8
0
 10
131.2134848337468
 20
116.50624847476089
 30
0.0
  0
VERTEX
  5
A6DF
  8
0
 10
131.2540158478231
 20
116.5438326753963
 30
0.0
  0
VERTEX
  5
A6E0
  8
0
 10
131.29293221667049
 20
116.58288372338571
 30
0.0
  0
VERTEX
  5
A6E1
  8
0
 10
131.36578986459361
 20
116.6651668386761
 30
0.0
  0
VERTEX
  5
A6E2
  8
0
 10
131.43179570074139
 20
116.7526626022327
 30
0.0
  0
VERTEX
  5
A6E3
  8
0
 10
131.49068796243691
 20
116.8449392314144
 30
0.0
  0
VERTEX
  5
A6E4
  8
0
 10
131.5422049369644
 20
116.9415650489387
 30
0.0
  0
VERTEX
  5
A6E5
  8
0
 10
131.58608436600849
 20
117.042105615766
 30
0.0
  0
VERTEX
  5
A6E6
  8
0
 10
131.6050776581389
 20
117.0937067576308
 30
0.0
  0
VERTEX
  5
A6E7
  8
0
 10
131.62206244140989
 20
117.14612106990209
 30
0.0
  0
VERTEX
  5
A6E8
  8
0
 10
131.64987234497741
 20
117.2531634265776
 30
0.0
  0
VERTEX
  5
A6E9
  8
0
 10
131.66924230712669
 20
117.36277359798
 30
0.0
  0
VERTEX
  5
A6EA
  8
0
 10
131.67567339908729
 20
117.41837287969349
 30
0.0
  0
SEQEND
  5
A6EB
  8
0
  0
LINE
  5
5307
  8
0
 10
100.193993179166
 20
122.22159678234441
 30
0.0
 11
86.282008247048566
 21
123.1514046202401
 31
0.0
  0
POLYLINE
  5
5308
  8
0
 66
     1
 10
0.0
 20
0.0
 30
0.0
  0
VERTEX
  5
A6EC
  8
0
 10
86.282008247048623
 20
123.1514046202401
 30
0.0
  0
VERTEX
  5
A6ED
  8
0
 10
86.214960094438993
 20
123.14979817901801
 30
0.0
  0
VERTEX
  5
A6EE
  8
0
 10
86.084960965392966
 20
123.13746824388519
 30
0.0
  0
VERTEX
  5
A6EF
  8
0
 10
85.960937021200337
 20
123.1140906691641
 30
0.0
  0
VERTEX
  5
A6F0
  8
0
 10
85.901205493074556
 20
123.0986199937293
 30
0.0
  0
VERTEX
  5
A6F1
  8
0
 10
85.843014223643578
 20
123.0807970556837
 30
0.0
  0
VERTEX
  5
A6F2
  8
0
 10
85.731399508520227
 20
123.03858371308461
 30
0.0
  0
VERTEX
  5
A6F3
  8
0
 10
85.626365042353385
 20
122.988389659817
 30
0.0
  0
VERTEX
  5
A6F4
  8
0
 10
85.528145467373832
 20
122.9311041198675
 30
0.0
  0
VERTEX
  5
A6F5
  8
0
 10
85.436306334707439
 20
122.8671054203933
 30
0.0
  0
VERTEX
  5
A6F6
  8
0
 10
85.350531660350285
 20
122.79656076571921
 30
0.0
  0
VERTEX
  5
A6F7
  8
0
 10
85.310000646273977
 20
122.7589765650839
 30
0.0
  0
VERTEX
  5
A6F8
  8
0
 10
85.271084277426525
 20
122.7199255170944
 30
0.0
  0
VERTEX
  5
A6F9
  8
0
 10
85.198226629503495
 20
122.637642401804
 30
0.0
  0
VERTEX
  5
A6FA
  8
0
 10
85.132220793355685
 20
122.5501466382475
 30
0.0
  0
VERTEX
  5
A6FB
  8
0
 10
85.073328531660167
 20
122.4578700090658
 30
0.0
  0
VERTEX
  5
A6FC
  8
0
 10
85.021811557132679
 20
122.3612441915414
 30
0.0
  0
VERTEX
  5
A6FD
  8
0
 10
84.977932128088611
 20
122.2607036247142
 30
0.0
  0
VERTEX
  5
A6FE
  8
0
 10
84.958938835958236
 20
122.2091024828494
 30
0.0
  0
VERTEX
  5
A6FF
  8
0
 10
84.941954052687208
 20
122.15668817057799
 30
0.0
  0
VERTEX
  5
A700
  8
0
 10
84.914144149119707
 20
122.0496458139025
 30
0.0
  0
VERTEX
  5
A701
  8
0
 10
84.894774186970324
 20
121.94003564250011
 30
0.0
  0
VERTEX
  5
A702
  8
0
 10
84.88834309500983
 20
121.88443636078669
 30
0.0
  0
SEQEND
  5
A703
  8
0
  0
POLYLINE
  5
5309
  8
0
 66
     1
 10
0.0
 20
0.0
 30
0.0
  0
VERTEX
  5
A704
  8
0
 10
131.67567340541959
 20
121.88443629444819
 30
0.0
  0
VERTEX
  5
A705
  8
0
 10
131.66924231618489
 20
121.94003557588481
 30
0.0
  0
VERTEX
  5
A706
  8
0
 10
131.64987235835579
 20
122.0496457525436
 30
0.0
  0
VERTEX
  5
A707
  8
0
 10
131.6220624583558
 20
122.15668811454699
 30
0.0
  0
VERTEX
  5
A708
  8
0
 10
131.6050776765972
 20
122.20910242949179
 30
0.0
  0
VERTEX
  5
A709
  8
0
 10
131.58608438580379
 20
122.2607035740277
 30
0.0
  0
VERTEX
  5
A70A
  8
0
 10
131.54220495892349
 20
122.3612441461644
 30
0.0
  0
VERTEX
  5
A70B
  8
0
 10
131.4906879859052
 20
122.4578699689143
 30
0.0
  0
VERTEX
  5
A70C
  8
0
 10
131.4317957250947
 20
122.5501466031909
 30
0.0
  0
VERTEX
  5
A70D
  8
0
 10
131.3657898892375
 20
122.6376423716669
 30
0.0
  0
VERTEX
  5
A70E
  8
0
 10
131.29293224104029
 20
122.7199254916578
 30
0.0
  0
VERTEX
  5
A70F
  8
0
 10
131.25401587185331
 20
122.7589765419019
 30
0.0
  0
VERTEX
  5
A710
  8
0
 10
131.21348485730729
 20
122.7965607447214
 30
0.0
  0
VERTEX
  5
A711
  8
0
 10
131.12771018163559
 20
122.8671054035309
 30
0.0
  0
VERTEX
  5
A712
  8
0
 10
131.03587104717889
 20
122.9311041067957
 30
0.0
  0
VERTEX
  5
A713
  8
0
 10
130.93765147033119
 20
122.988389649965
 30
0.0
  0
VERTEX
  5
A714
  8
0
 10
130.83261700180449
 20
123.038583706143
 30
0.0
  0
VERTEX
  5
A715
  8
0
 10
130.72100228383431
 20
123.08079705126509
 30
0.0
  0
VERTEX
  5
A716
  8
0
 10
130.66281101280501
 20
123.0986199903989
 30
0.0
  0
VERTEX
  5
A717
  8
0
 10
130.60307948296889
 20
123.114090666791
 30
0.0
  0
VERTEX
  5
A718
  8
0
 10
130.4790555350535
 20
123.13746824298249
 30
0.0
  0
VERTEX
  5
A719
  8
0
 10
130.34905640186949
 20
123.14979817891199
 30
0.0
  0
VERTEX
  5
A71A
  8
0
 10
130.2820082470484
 20
123.1514046202401
 30
0.0
  0
SEQEND
  5
A71B
  8
0
  0
LINE
  5
530A
  8
0
 10
86.282008247048566
 20
116.1514046202401
 30
0.0
 11
100.193993179166
 21
117.08121245813579
 31
0.0
  0
POLYLINE
  5
530B
  8
0
 66
     1
 10
0.0
 20
0.0
 30
0.0
  0
VERTEX
  5
A71C
  8
0
 10
84.888343088677516
 20
117.41837294603199
 30
0.0
  0
VERTEX
  5
A71D
  8
0
 10
84.894774177912211
 20
117.36277366459539
 30
0.0
  0
VERTEX
  5
A71E
  8
0
 10
84.914144135741324
 20
117.2531634879366
 30
0.0
  0
VERTEX
  5
A71F
  8
0
 10
84.941954035741304
 20
117.14612112593321
 30
0.0
  0
VERTEX
  5
A720
  8
0
 10
84.958938817499913
 20
117.09370681098839
 30
0.0
  0
VERTEX
  5
A721
  8
0
 10
84.977932108293274
 20
117.0421056664525
 30
0.0
  0
VERTEX
  5
A722
  8
0
 10
85.021811535173597
 20
116.94156509431581
 30
0.0
  0
VERTEX
  5
A723
  8
0
 10
85.073328508191864
 20
116.84493927156591
 30
0.0
  0
VERTEX
  5
A724
  8
0
 10
85.132220769002458
 20
116.75266263728921
 30
0.0
  0
VERTEX
  5
A725
  8
0
 10
85.198226604859613
 20
116.6651668688132
 30
0.0
  0
VERTEX
  5
A726
  8
0
 10
85.271084253056813
 20
116.5828837488223
 30
0.0
  0
VERTEX
  5
A727
  8
0
 10
85.310000622243834
 20
116.5438326985781
 30
0.0
  0
VERTEX
  5
A728
  8
0
 10
85.350531636789853
 20
116.5062484957587
 30
0.0
  0
VERTEX
  5
A729
  8
0
 10
85.436306312461625
 20
116.4357038369492
 30
0.0
  0
VERTEX
  5
A72A
  8
0
 10
85.528145446918245
 20
116.3717051336844
 30
0.0
  0
VERTEX
  5
A72B
  8
0
 10
85.626365023765985
 20
116.3144195905152
 30
0.0
  0
VERTEX
  5
A72C
  8
0
 10
85.731399492292695
 20
116.2642255343371
 30
0.0
  0
VERTEX
  5
A72D
  8
0
 10
85.843014210262865
 20
116.22201218921511
 30
0.0
  0
VERTEX
  5
A72E
  8
0
 10
85.901205481292223
 20
116.2041892500812
 30
0.0
  0
VERTEX
  5
A72F
  8
0
 10
85.960937011128237
 20
116.1887185736892
 30
0.0
  0
VERTEX
  5
A730
  8
0
 10
86.084960959043599
 20
116.16534099749759
 30
0.0
  0
VERTEX
  5
A731
  8
0
 10
86.214960092227614
 20
116.15301106156819
 30
0.0
  0
VERTEX
  5
A732
  8
0
 10
86.282008247048651
 20
116.1514046202401
 30
0.0
  0
SEQEND
  5
A733
  8
0
  0
LINE
  5
530C
  8
0
 10
130.2820082470484
 20
123.1514046202401
 30
0.0
 11
116.3700233149311
 21
122.22159678234441
 31
0.0
  0
POLYLINE
  5
530D
  8
0
 66
     1
 10
0.0
 20
0.0
 30
0.0
  0
VERTEX
  5
A734
  8
0
 10
116.3700233149311
 20
122.22159678234441
 30
0.0
  0
VERTEX
  5
A735
  8
0
 10
116.2925404939905
 20
122.2174956872466
 30
0.0
  0
VERTEX
  5
A736
  8
0
 10
116.135198387109
 20
122.2157772013274
 30
0.0
  0
VERTEX
  5
A737
  8
0
 10
115.97556166072719
 20
122.2230810255605
 30
0.0
  0
VERTEX
  5
A738
  8
0
 10
115.8952121051897
 20
122.2302240575748
 30
0.0
  0
VERTEX
  5
A739
  8
0
 10
115.8146813869544
 20
122.2397344933097
 30
0.0
  0
VERTEX
  5
A73A
  8
0
 10
115.653582164301
 20
122.26592819119151
 30
0.0
  0
VERTEX
  5
A73B
  8
0
 10
115.4932773385141
 20
122.30171951461941
 30
0.0
  0
VERTEX
  5
A73C
  8
0
 10
115.334773090453
 20
122.34703134264841
 30
0.0
  0
VERTEX
  5
A73D
  8
0
 10
115.1789984801718
 20
122.4016740847226
 30
0.0
  0
VERTEX
  5
A73E
  8
0
 10
115.0267710205836
 20
122.4653764162113
 30
0.0
  0
VERTEX
  5
A73F
  8
0
 10
114.9522678194149
 20
122.50049711394119
 30
0.0
  0
VERTEX
  5
A740
  8
0
 10
114.878983894214
 20
122.5377129125295
 30
0.0
  0
VERTEX
  5
A741
  8
0
 10
114.7364837903192
 20
122.6181327331998
 30
0.0
  0
VERTEX
  5
A742
  8
0
 10
114.60003953749511
 20
122.70597431945509
 30
0.0
  0
VERTEX
  5
A743
  8
0
 10
114.4703612848128
 20
122.8004520675383
 30
0.0
  0
VERTEX
  5
A744
  8
0
 10
114.3480900037838
 20
122.90065415495491
 30
0.0
  0
VERTEX
  5
A745
  8
0
 10
114.2444322315641
 20
122.9958579294979
 30
0.0
  0
SEQEND
  5
A746
  8
0
  0
LINE
  5
53C0
  8
1
 10
60.051080359811287
 20
26.111350227879711
 30
0.0
 11
60.051080359811287
 21
90.611350227879697
 31
0.0
  0
LINE
  5
53C1
  8
0
 10
63.150248068562178
 20
86.111350227879683
 30
0.0
 11
56.951912651060411
 21
86.111350227879683
 31
0.0
  0
LINE
  5
53C2
  8
0
 10
53.301080359811301
 20
84.079131107668104
 30
0.0
 11
53.301080359811301
 21
62.111350227879718
 31
0.0
  0
LINE
  5
53C3
  8
0
 10
66.80108035981128
 20
62.111350227879718
 30
0.0
 11
66.80108035981128
 21
84.079131107668104
 31
0.0
  0
LINE
  5
53C7
  8
0
 10
53.301080359811301
 20
84.079131107668104
 30
0.0
 11
56.259800193098329
 21
84.079131107668104
 31
0.0
  0
LINE
  5
53C8
  8
0
 10
63.842360526524253
 20
67.611350227879711
 30
0.0
 11
56.259800193098329
 21
67.611350227879711
 31
0.0
  0
LINE
  5
53C9
  8
0
 10
63.842360526524253
 20
84.079131107668104
 30
0.0
 11
66.80108035981128
 21
84.079131107668104
 31
0.0
  0
LINE
  5
53CA
  8
0
 10
66.80108035981128
 20
62.111350227879718
 30
0.0
 11
53.301080359811301
 21
62.111350227879718
 31
0.0
  0
POLYLINE
  5
53CB
  8
0
 66
     1
 10
0.0
 20
0.0
 30
0.0
  0
VERTEX
  5
A747
  8
0
 10
63.48510549800401
 20
84.086540506760457
 30
0.0
  0
VERTEX
  5
A748
  8
0
 10
63.540589937139707
 20
84.084305332529524
 30
0.0
  0
VERTEX
  5
A749
  8
0
 10
63.656619399850513
 20
84.081011538793447
 30
0.0
  0
VERTEX
  5
A74A
  8
0
 10
63.778978265937802
 20
84.079341574406186
 30
0.0
  0
VERTEX
  5
A74B
  8
0
 10
63.842360526524253
 20
84.079131107668104
 30
0.0
  0
SEQEND
  5
A74C
  8
0
  0
LINE
  5
53CC
  8
0
 10
63.842360526524253
 20
84.079131107668104
 30
0.0
 11
63.842360526524253
 21
67.611350227879711
 31
0.0
  0
POLYLINE
  5
53CD
  8
0
 66
     1
 10
0.0
 20
0.0
 30
0.0
  0
VERTEX
  5
A74D
  8
0
 10
63.842360526524253
 20
67.611350227879711
 30
0.0
  0
VERTEX
  5
A74E
  8
0
 10
63.779284409353963
 20
67.611728389616076
 30
0.0
  0
VERTEX
  5
A74F
  8
0
 10
63.657070061771009
 20
67.61474356741472
 30
0.0
  0
VERTEX
  5
A750
  8
0
 10
63.540305712558329
 20
67.620744670822035
 30
0.0
  0
VERTEX
  5
A751
  8
0
 10
63.484042418268643
 20
67.62485372818422
 30
0.0
  0
VERTEX
  5
A752
  8
0
 10
63.429231922696943
 20
67.629695030875268
 30
0.0
  0
VERTEX
  5
A753
  8
0
 10
63.324094722990857
 20
67.641551374854203
 30
0.0
  0
VERTEX
  5
A754
  8
0
 10
63.225435350868793
 20
67.656214949407342
 30
0.0
  0
VERTEX
  5
A755
  8
0
 10
63.133606845178491
 20
67.67357099649621
 30
0.0
  0
VERTEX
  5
A756
  8
0
 10
63.048752959472303
 20
67.693522874334164
 30
0.0
  0
VERTEX
  5
A757
  8
0
 10
62.971018378109477
 20
67.715972247422314
 30
0.0
  0
VERTEX
  5
A758
  8
0
 10
62.934866086141007
 20
67.728102452010134
 30
0.0
  0
VERTEX
  5
A759
  8
0
 10
62.900547884536962
 20
67.740819703843783
 30
0.0
  0
VERTEX
  5
A75A
  8
0
 10
62.83759829629868
 20
67.767911825049495
 30
0.0
  0
VERTEX
  5
A75B
  8
0
 10
62.782390292951497
 20
67.797066120331579
 30
0.0
  0
VERTEX
  5
A75C
  8
0
 10
62.734964505234501
 20
67.828161364692392
 30
0.0
  0
VERTEX
  5
A75D
  8
0
 10
62.695362347576157
 20
67.861079421541035
 30
0.0
  0
VERTEX
  5
A75E
  8
0
 10
62.663625176549182
 20
67.895704913149928
 30
0.0
  0
VERTEX
  5
A75F
  8
0
 10
62.650718568228712
 20
67.913622637559556
 30
0.0
  0
VERTEX
  5
A760
  8
0
 10
62.639798530490452
 20
67.931915072729964
 30
0.0
  0
VERTEX
  5
A761
  8
0
 10
62.623939829586021
 20
67.969515120476899
 30
0.0
  0
VERTEX
  5
A762
  8
0
 10
62.616027161738863
 20
68.008373774963275
 30
0.0
  0
VERTEX
  5
A763
  8
0
 10
62.615039706790377
 20
68.02824061546653
 30
0.0
  0
SEQEND
  5
A764
  8
0
  0
POLYLINE
  5
53CE
  8
0
 66
     1
 10
0.0
 20
0.0
 30
0.0
  0
VERTEX
  5
A765
  8
0
 10
62.615039706790377
 20
68.02824061546653
 30
0.0
  0
VERTEX
  5
A766
  8
0
 10
62.61521311279693
 20
68.036652528906473
 30
0.0
  0
VERTEX
  5
A767
  8
0
 10
62.616599386415139
 20
68.053616790958472
 30
0.0
  0
VERTEX
  5
A768
  8
0
 10
62.61936942293022
 20
68.070761842436184
 30
0.0
  0
VERTEX
  5
A769
  8
0
 10
62.6212725219156
 20
68.07939976408629
 30
0.0
  0
SEQEND
  5
A76A
  8
0
  0
POLYLINE
  5
53D0
  8
0
 66
     1
 10
0.0
 20
0.0
 30
0.0
  0
VERTEX
  5
A76B
  8
0
 10
63.387133777164649
 20
72.635866318374951
 30
0.0
  0
VERTEX
  5
A76C
  8
0
 10
63.37607870492117
 20
72.545927902735343
 30
0.0
  0
VERTEX
  5
A76D
  8
0
 10
63.35394274978519
 20
72.382084347975947
 30
0.0
  0
VERTEX
  5
A76E
  8
0
 10
63.332064288544878
 20
72.240150110632541
 30
0.0
  0
VERTEX
  5
A76F
  8
0
 10
63.320929732150987
 20
72.175136389662327
 30
0.0
  0
SEQEND
  5
A770
  8
0
  0
POLYLINE
  5
53D1
  8
0
 66
     1
 10
0.0
 20
0.0
 30
0.0
  0
VERTEX
  5
A771
  8
0
 10
56.951912651060411
 20
86.111350227879683
 30
0.0
  0
VERTEX
  5
A772
  8
0
 10
56.939396068032437
 20
86.108940709537862
 30
0.0
  0
VERTEX
  5
A773
  8
0
 10
56.913632785190913
 20
86.088773490337516
 30
0.0
  0
VERTEX
  5
A774
  8
0
 10
56.887261535266838
 20
86.046741167488847
 30
0.0
  0
VERTEX
  5
A775
  8
0
 10
56.873983161312736
 20
86.017267131889085
 30
0.0
  0
VERTEX
  5
A776
  8
0
 10
56.860714295922882
 20
85.982162883582987
 30
0.0
  0
VERTEX
  5
A777
  8
0
 10
56.834408503419077
 20
85.895509364681516
 30
0.0
  0
VERTEX
  5
A778
  8
0
 10
56.808743840255488
 20
85.788394100420533
 30
0.0
  0
VERTEX
  5
A779
  8
0
 10
56.784108535597753
 20
85.663599350519235
 30
0.0
  0
VERTEX
  5
A77A
  8
0
 10
56.760789830304461
 20
85.524517760443345
 30
0.0
  0
VERTEX
  5
A77B
  8
0
 10
56.737553434409648
 20
85.364312673046484
 30
0.0
  0
VERTEX
  5
A77C
  8
0
 10
56.725867321829242
 20
85.275078785758069
 30
0.0
  0
VERTEX
  5
A77D
  8
0
 10
56.71420983471765
 20
85.179962866761215
 30
0.0
  0
VERTEX
  5
A77E
  8
0
 10
56.691188548490118
 20
84.973091028974977
 30
0.0
  0
VERTEX
  5
A77F
  8
0
 10
56.668878678580967
 20
84.746344551273182
 30
0.0
  0
VERTEX
  5
A780
  8
0
 10
56.647620248924888
 20
84.503316828496452
 30
0.0
  0
VERTEX
  5
A781
  8
0
 10
56.62771431444969
 20
84.248653568014603
 30
0.0
  0
VERTEX
  5
A782
  8
0
 10
56.609409464993107
 20
83.987886778975565
 30
0.0
  0
VERTEX
  5
A783
  8
0
 10
56.600656964634233
 20
83.852997113970446
 30
0.0
  0
VERTEX
  5
A784
  8
0
 10
56.591964491438972
 20
83.711758724724177
 30
0.0
  0
VERTEX
  5
A785
  8
0
 10
56.574962758585798
 20
83.411915355524798
 30
0.0
  0
VERTEX
  5
A786
  8
0
 10
56.558772642062458
 20
83.092176770553905
 30
0.0
  0
VERTEX
  5
A787
  8
0
 10
56.551080359811287
 20
82.926250321807629
 30
0.0
  0
SEQEND
  5
A788
  8
0
  0
POLYLINE
  5
53D2
  8
0
 66
     1
 10
0.0
 20
0.0
 30
0.0
  0
VERTEX
  5
A789
  8
0
 10
56.551080359811287
 20
74.896450133951816
 30
0.0
  0
VERTEX
  5
A78A
  8
0
 10
56.555909292128412
 20
74.791131706105645
 30
0.0
  0
VERTEX
  5
A78B
  8
0
 10
56.565909181437419
 20
74.585000732322143
 30
0.0
  0
VERTEX
  5
A78C
  8
0
 10
56.576303971478822
 20
74.385890953407909
 30
0.0
  0
VERTEX
  5
A78D
  8
0
 10
56.581624127340632
 20
74.289320796233312
 30
0.0
  0
VERTEX
  5
A78E
  8
0
 10
56.587011445716428
 20
74.194911485781731
 30
0.0
  0
VERTEX
  5
A78F
  8
0
 10
56.597939740678271
 20
74.013045944455655
 30
0.0
  0
VERTEX
  5
A790
  8
0
 10
56.608987140074532
 20
73.841162470755648
 30
0.0
  0
VERTEX
  5
A791
  8
0
 10
56.62034759609503
 20
73.675710453572037
 30
0.0
  0
VERTEX
  5
A792
  8
0
 10
56.632379004582717
 20
73.511822081917501
 30
0.0
  0
VERTEX
  5
A793
  8
0
 10
56.645028118285161
 20
73.350983990950454
 30
0.0
  0
VERTEX
  5
A794
  8
0
 10
56.651564568198388
 20
73.272148790745405
 30
0.0
  0
VERTEX
  5
A795
  8
0
 10
56.658230792348832
 20
73.194585503936253
 30
0.0
  0
VERTEX
  5
A796
  8
0
 10
56.671914812628891
 20
73.043870326109015
 30
0.0
  0
VERTEX
  5
A797
  8
0
 10
56.685999870622652
 20
72.899932533469666
 30
0.0
  0
VERTEX
  5
A798
  8
0
 10
56.700401579575242
 20
72.763676542439612
 30
0.0
  0
VERTEX
  5
A799
  8
0
 10
56.715026942457897
 20
72.635866318375193
 30
0.0
  0
VERTEX
  5
A79A
  8
0
 10
56.729774669559902
 20
72.517117282594143
 30
0.0
  0
VERTEX
  5
A79B
  8
0
 10
56.73716125134834
 20
72.461285910974595
 30
0.0
  0
VERTEX
  5
A79C
  8
0
 10
56.744537866075689
 20
72.407873547621463
 30
0.0
  0
VERTEX
  5
A79D
  8
0
 10
56.759203524813159
 20
72.308416603044407
 30
0.0
  0
VERTEX
  5
A79E
  8
0
 10
56.773769815514953
 20
72.218175839807657
 30
0.0
  0
VERTEX
  5
A79F
  8
0
 10
56.781230987471602
 20
72.175136389662271
 30
0.0
  0
SEQEND
  5
A7A0
  8
0
  0
POLYLINE
  5
53D3
  8
0
 66
     1
 10
0.0
 20
0.0
 30
0.0
  0
VERTEX
  5
A7A1
  8
0
 10
56.781230987471602
 20
72.175136389662271
 30
0.0
  0
VERTEX
  5
A7A2
  8
0
 10
56.88954665721166
 20
71.378540215286307
 30
0.0
  0
VERTEX
  5
A7A3
  8
0
 10
57.118519354054513
 20
69.898118407990523
 30
0.0
  0
VERTEX
  5
A7A4
  8
0
 10
57.358729611726922
 20
68.623500921559966
 30
0.0
  0
VERTEX
  5
A7A5
  8
0
 10
57.480888197707003
 20
68.07939976408629
 30
0.0
  0
SEQEND
  5
A7A6
  8
0
  0
LINE
  5
53D4
  8
0
 10
56.551080359811287
 20
82.926250321807629
 30
0.0
 11
56.551080359811287
 21
74.896450133951816
 31
0.0
  0
POLYLINE
  5
53D7
  8
0
 66
     1
 10
0.0
 20
0.0
 30
0.0
  0
VERTEX
  5
A7A7
  8
0
 10
63.320929732150972
 20
72.175136389662271
 30
0.0
  0
VERTEX
  5
A7A8
  8
0
 10
63.328390904107643
 20
72.218175839807657
 30
0.0
  0
VERTEX
  5
A7A9
  8
0
 10
63.342957194809429
 20
72.308416603044407
 30
0.0
  0
VERTEX
  5
A7AA
  8
0
 10
63.357622853546893
 20
72.407873547621463
 30
0.0
  0
VERTEX
  5
A7AB
  8
0
 10
63.364999468274249
 20
72.461285910974595
 30
0.0
  0
VERTEX
  5
A7AC
  8
0
 10
63.372386050062687
 20
72.517117282594143
 30
0.0
  0
VERTEX
  5
A7AD
  8
0
 10
63.387133777164678
 20
72.635866318375193
 30
0.0
  0
VERTEX
  5
A7AE
  8
0
 10
63.401759140047353
 20
72.763676542439541
 30
0.0
  0
VERTEX
  5
A7AF
  8
0
 10
63.416160848999951
 20
72.899932533469666
 30
0.0
  0
VERTEX
  5
A7B0
  8
0
 10
63.430245906993683
 20
73.043870326109015
 30
0.0
  0
VERTEX
  5
A7B1
  8
0
 10
63.44392992727375
 20
73.194585503936253
 30
0.0
  0
VERTEX
  5
A7B2
  8
0
 10
63.450596151424207
 20
73.272148790745405
 30
0.0
  0
VERTEX
  5
A7B3
  8
0
 10
63.457132601337428
 20
73.350983990950454
 30
0.0
  0
VERTEX
  5
A7B4
  8
0
 10
63.469781715039872
 20
73.511822081917501
 30
0.0
  0
VERTEX
  5
A7B5
  8
0
 10
63.481813123527573
 20
73.675710453572037
 30
0.0
  0
VERTEX
  5
A7B6
  8
0
 10
63.493173579548063
 20
73.841162470755648
 30
0.0
  0
VERTEX
  5
A7B7
  8
0
 10
63.504220978944318
 20
74.013045944455655
 30
0.0
  0
VERTEX
  5
A7B8
  8
0
 10
63.515149273906147
 20
74.194911485781731
 30
0.0
  0
VERTEX
  5
A7B9
  8
0
 10
63.520536592281971
 20
74.289320796233312
 30
0.0
  0
VERTEX
  5
A7BA
  8
0
 10
63.525856748143752
 20
74.385890953407909
 30
0.0
  0
VERTEX
  5
A7BB
  8
0
 10
63.536251538185162
 20
74.585000732322143
 30
0.0
  0
VERTEX
  5
A7BC
  8
0
 10
63.546251427494177
 20
74.791131706105645
 30
0.0
  0
VERTEX
  5
A7BD
  8
0
 10
63.55108035981128
 20
74.896450133951816
 30
0.0
  0
SEQEND
  5
A7BE
  8
0
  0
POLYLINE
  5
53D8
  8
0
 66
     1
 10
0.0
 20
0.0
 30
0.0
  0
VERTEX
  5
A7BF
  8
0
 10
63.55108035981128
 20
82.926250321807629
 30
0.0
  0
VERTEX
  5
A7C0
  8
0
 10
63.543388077560138
 20
83.092176770553905
 30
0.0
  0
VERTEX
  5
A7C1
  8
0
 10
63.527197961036777
 20
83.411915355524798
 30
0.0
  0
VERTEX
  5
A7C2
  8
0
 10
63.510196228183609
 20
83.711758724724177
 30
0.0
  0
VERTEX
  5
A7C3
  8
0
 10
63.501503754988349
 20
83.852997113970446
 30
0.0
  0
VERTEX
  5
A7C4
  8
0
 10
63.492751254629468
 20
83.987886778975607
 30
0.0
  0
VERTEX
  5
A7C5
  8
0
 10
63.474446405172898
 20
84.248653568014674
 30
0.0
  0
VERTEX
  5
A7C6
  8
0
 10
63.454540470697708
 20
84.503316828496452
 30
0.0
  0
VERTEX
  5
A7C7
  8
0
 10
63.433282041041608
 20
84.746344551273182
 30
0.0
  0
VERTEX
  5
A7C8
  8
0
 10
63.410972171132471
 20
84.973091028974977
 30
0.0
  0
VERTEX
  5
A7C9
  8
0
 10
63.387950884904917
 20
85.179962866761215
 30
0.0
  0
VERTEX
  5
A7CA
  8
0
 10
63.376293397793347
 20
85.275078785758069
 30
0.0
  0
VERTEX
  5
A7CB
  8
0
 10
63.364607285212927
 20
85.364312673046484
 30
0.0
  0
VERTEX
  5
A7CC
  8
0
 10
63.341370889318107
 20
85.524517760443345
 30
0.0
  0
VERTEX
  5
A7CD
  8
0
 10
63.31805218402485
 20
85.663599350519235
 30
0.0
  0
VERTEX
  5
A7CE
  8
0
 10
63.293416879367101
 20
85.788394100420533
 30
0.0
  0
VERTEX
  5
A7CF
  8
0
 10
63.267752216203512
 20
85.895509364681516
 30
0.0
  0
VERTEX
  5
A7D0
  8
0
 10
63.241446423699699
 20
85.982162883582987
 30
0.0
  0
VERTEX
  5
A7D1
  8
0
 10
63.228177558309852
 20
86.017267131889085
 30
0.0
  0
VERTEX
  5
A7D2
  8
0
 10
63.214899184355737
 20
86.046741167488847
 30
0.0
  0
VERTEX
  5
A7D3
  8
0
 10
63.188527934431661
 20
86.088773490337516
 30
0.0
  0
VERTEX
  5
A7D4
  8
0
 10
63.162764651590138
 20
86.108940709537862
 30
0.0
  0
VERTEX
  5
A7D5
  8
0
 10
63.150248068562178
 20
86.111350227879683
 30
0.0
  0
SEQEND
  5
A7D6
  8
0
  0
POLYLINE
  5
53D9
  8
0
 66
     1
 10
0.0
 20
0.0
 30
0.0
  0
VERTEX
  5
A7D7
  8
0
 10
62.6212725219156
 20
68.07939976408629
 30
0.0
  0
VERTEX
  5
A7D8
  8
0
 10
62.74343110789566
 20
68.623500921559966
 30
0.0
  0
VERTEX
  5
A7D9
  8
0
 10
62.983641365568069
 20
69.898118407990523
 30
0.0
  0
VERTEX
  5
A7DA
  8
0
 10
63.212614062410921
 20
71.378540215286307
 30
0.0
  0
VERTEX
  5
A7DB
  8
0
 10
63.320929732150972
 20
72.175136389662271
 30
0.0
  0
SEQEND
  5
A7DC
  8
0
  0
LINE
  5
53DB
  8
0
 10
63.55108035981128
 20
82.926250321807629
 30
0.0
 11
63.55108035981128
 21
74.896450133951816
 31
0.0
  0
POLYLINE
  5
53DD
  8
0
 66
     1
 10
0.0
 20
0.0
 30
0.0
  0
VERTEX
  5
A7DD
  8
0
 10
56.781230987471602
 20
72.175136389662271
 30
0.0
  0
VERTEX
  5
A7DE
  8
0
 10
56.77009643107769
 20
72.240150110632612
 30
0.0
  0
VERTEX
  5
A7DF
  8
0
 10
56.748217969837349
 20
72.382084347976161
 30
0.0
  0
VERTEX
  5
A7E0
  8
0
 10
56.726082014701348
 20
72.545927902735741
 30
0.0
  0
VERTEX
  5
A7E1
  8
0
 10
56.715026942457868
 20
72.635866318375506
 30
0.0
  0
SEQEND
  5
A7E2
  8
0
  0
LINE
  5
53DF
  8
0
 10
56.259800193098329
 20
84.079131107668104
 30
0.0
 11
56.259800193098329
 21
67.611350227879711
 31
0.0
  0
POLYLINE
  5
53E0
  8
0
 66
     1
 10
0.0
 20
0.0
 30
0.0
  0
VERTEX
  5
A7E3
  8
0
 10
56.259800193098329
 20
84.079131107668104
 30
0.0
  0
VERTEX
  5
A7E4
  8
0
 10
56.321339357235431
 20
84.079329399586186
 30
0.0
  0
VERTEX
  5
A7E5
  8
0
 10
56.442313146210658
 20
84.080944752615906
 30
0.0
  0
VERTEX
  5
A7E6
  8
0
 10
56.559668135311078
 20
84.084236628493954
 30
0.0
  0
VERTEX
  5
A7E7
  8
0
 10
56.616701064857253
 20
84.086524782193067
 30
0.0
  0
SEQEND
  5
A7E8
  8
0
  0
POLYLINE
  5
53E1
  8
0
 66
     1
 10
0.0
 20
0.0
 30
0.0
  0
VERTEX
  5
A7E9
  8
0
 10
57.480888197707003
 20
68.07939976408629
 30
0.0
  0
VERTEX
  5
A7EA
  8
0
 10
57.482790809166922
 20
68.070764269814276
 30
0.0
  0
VERTEX
  5
A7EB
  8
0
 10
57.485560803184541
 20
68.053621139706252
 30
0.0
  0
VERTEX
  5
A7EC
  8
0
 10
57.486947507986933
 20
68.036654933032693
 30
0.0
  0
VERTEX
  5
A7ED
  8
0
 10
57.487121012832212
 20
68.02824061546653
 30
0.0
  0
SEQEND
  5
A7EE
  8
0
  0
POLYLINE
  5
53E2
  8
0
 66
     1
 10
0.0
 20
0.0
 30
0.0
  0
VERTEX
  5
A7EF
  8
0
 10
57.487121012832212
 20
68.02824061546653
 30
0.0
  0
VERTEX
  5
A7F0
  8
0
 10
57.48612947817481
 20
68.008333084167191
 30
0.0
  0
VERTEX
  5
A7F1
  8
0
 10
57.478181276330609
 20
67.969387730417566
 30
0.0
  0
VERTEX
  5
A7F2
  8
0
 10
57.462266891283818
 20
67.931737888712348
 30
0.0
  0
VERTEX
  5
A7F3
  8
0
 10
57.451319765959781
 20
67.913436802379124
 30
0.0
  0
VERTEX
  5
A7F4
  8
0
 10
57.438377887942089
 20
67.895504046706606
 30
0.0
  0
VERTEX
  5
A7F5
  8
0
 10
57.406507149443428
 20
67.860803896278682
 30
0.0
  0
VERTEX
  5
A7F6
  8
0
 10
57.366746316859043
 20
67.827830699017511
 30
0.0
  0
VERTEX
  5
A7F7
  8
0
 10
57.31920814425407
 20
67.796736257210227
 30
0.0
  0
VERTEX
  5
A7F8
  8
0
 10
57.263973444073237
 20
67.767631566798684
 30
0.0
  0
VERTEX
  5
A7F9
  8
0
 10
57.201124060181712
 20
67.740629476363779
 30
0.0
  0
VERTEX
  5
A7FA
  8
0
 10
57.166869468729821
 20
67.727952619003929
 30
0.0
  0
VERTEX
  5
A7FB
  8
0
 10
57.130741829268658
 20
67.715844452117778
 30
0.0
  0
VERTEX
  5
A7FC
  8
0
 10
57.052907362612331
 20
67.693392395886633
 30
0.0
  0
VERTEX
  5
A7FD
  8
0
 10
56.967717016368411
 20
67.673394363545853
 30
0.0
  0
VERTEX
  5
A7FE
  8
0
 10
56.875687957993108
 20
67.656040665913892
 30
0.0
  0
VERTEX
  5
A7FF
  8
0
 10
56.777192269061644
 20
67.641437735045258
 30
0.0
  0
VERTEX
  5
A800
  8
0
 10
56.672449243459511
 20
67.629648899273803
 30
0.0
  0
VERTEX
  5
A801
  8
0
 10
56.617803357114383
 20
67.624828360779816
 30
0.0
  0
VERTEX
  5
A802
  8
0
 10
56.561677607235438
 20
67.620733027087397
 30
0.0
  0
VERTEX
  5
A803
  8
0
 10
56.44509529855091
 20
67.614743742661403
 30
0.0
  0
VERTEX
  5
A804
  8
0
 10
56.32291895070631
 20
67.611728906015173
 30
0.0
  0
VERTEX
  5
A805
  8
0
 10
56.259800193098322
 20
67.611350227879711
 30
0.0
  0
SEQEND
  5
A806
  8
0
  0
LINE
  5
58B3
  8
0
 10
91.982008247048569
 20
86.111350227879683
 30
0.0
 11
92.279347233547213
 21
86.111350227879683
 31
0.0
  0
POLYLINE
  5
58B4
  8
0
 66
     1
 10
0.0
 20
0.0
 30
0.0
  0
VERTEX
  5
A807
  8
0
 10
95.319242881203877
 20
85.448445913739135
 30
0.0
  0
VERTEX
  5
A808
  8
0
 10
95.241795910601866
 20
85.48331735437074
 30
0.0
  0
VERTEX
  5
A809
  8
0
 10
95.08796369687866
 20
85.54942285430559
 30
0.0
  0
VERTEX
  5
A80A
  8
0
 10
94.933949844803934
 20
85.611496646267653
 30
0.0
  0
VERTEX
  5
A80B
  8
0
 10
94.855300771774012
 20
85.641645221070405
 30
0.0
  0
VERTEX
  5
A80C
  8
0
 10
94.775575340165247
 20
85.671155297770184
 30
0.0
  0
VERTEX
  5
A80D
  8
0
 10
94.613129217521788
 20
85.728064080606885
 30
0.0
  0
VERTEX
  5
A80E
  8
0
 10
94.447088149486376
 20
85.781856959197626
 30
0.0
  0
VERTEX
  5
A80F
  8
0
 10
94.277940153104993
 20
85.832210685366988
 30
0.0
  0
VERTEX
  5
A810
  8
0
 10
94.10618454209316
 20
85.878845370574965
 30
0.0
  0
VERTEX
  5
A811
  8
0
 10
93.932336652043546
 20
85.921523841410803
 30
0.0
  0
VERTEX
  5
A812
  8
0
 10
93.844792823069895
 20
85.941317462073926
 30
0.0
  0
VERTEX
  5
A813
  8
0
 10
93.756924741130064
 20
85.960053284375405
 30
0.0
  0
VERTEX
  5
A814
  8
0
 10
93.580477281222301
 20
85.994288111378282
 30
0.0
  0
VERTEX
  5
A815
  8
0
 10
93.403510153363285
 20
86.024130890945912
 30
0.0
  0
VERTEX
  5
A816
  8
0
 10
93.226575213503423
 20
86.049523353554818
 30
0.0
  0
VERTEX
  5
A817
  8
0
 10
93.050235573187308
 20
86.070452483755247
 30
0.0
  0
VERTEX
  5
A818
  8
0
 10
92.875057727570876
 20
86.086951485750106
 30
0.0
  0
VERTEX
  5
A819
  8
0
 10
92.788081851326922
 20
86.093562579241166
 30
0.0
  0
VERTEX
  5
A81A
  8
0
 10
92.701610142943224
 20
86.09909919413775
 30
0.0
  0
VERTEX
  5
A81B
  8
0
 10
92.530468290158524
 20
86.107019027770349
 30
0.0
  0
VERTEX
  5
A81C
  8
0
 10
92.362212068096156
 20
86.110878667348615
 30
0.0
  0
VERTEX
  5
A81D
  8
0
 10
92.279347233547213
 20
86.111350227879683
 30
0.0
  0
SEQEND
  5
A81E
  8
0
  0
CIRCLE
  5
59DA
  8
0
 10
108.28200824704849
 20
119.6514046202401
 30
0.0
 40
5.0
  0
CIRCLE
  5
59DB
  8
0
 10
108.28200824704849
 20
119.6514046202401
 30
0.0
 40
0.5127272724
  0
CIRCLE
  5
59DC
  8
0
 10
104.86382643104859
 20
119.6514046202401
 30
0.0
 40
0.5127272724
  0
CIRCLE
  5
59DD
  8
0
 10
106.5729173390485
 20
119.6514046202401
 30
0.0
 40
0.5127272724
  0
CIRCLE
  5
59DE
  8
0
 10
109.9910991550485
 20
119.6514046202401
 30
0.0
 40
0.5127272724
  0
CIRCLE
  5
59DF
  8
0
 10
111.7001900630485
 20
119.6514046202401
 30
0.0
 40
0.5127272724
  0
POLYLINE
  5
59FE
  8
0
 66
     1
 10
0.0
 20
0.0
 30
0.0
  0
VERTEX
  5
A81F
  8
0
 10
102.3198328424884
 20
122.9963010542408
 30
0.0
  0
VERTEX
  5
A820
  8
0
 10
102.2153046041045
 20
122.90011462277261
 30
0.0
  0
VERTEX
  5
A821
  8
0
 10
102.08720236187651
 20
122.7954766340667
 30
0.0
  0
VERTEX
  5
A822
  8
0
 10
101.9528667730897
 20
122.6983966005883
 30
0.0
  0
VERTEX
  5
A823
  8
0
 10
101.8130628601517
 20
122.6094590076935
 30
0.0
  0
VERTEX
  5
A824
  8
0
 10
101.6685612962463
 20
122.52911155080081
 30
0.0
  0
VERTEX
  5
A825
  8
0
 10
101.5948392651631
 20
122.4922901518746
 30
0.0
  0
VERTEX
  5
A826
  8
0
 10
101.5203007715287
 20
122.4577589299176
 30
0.0
  0
VERTEX
  5
A827
  8
0
 10
101.36928294133629
 20
122.3956821580563
 30
0.0
  0
VERTEX
  5
A828
  8
0
 10
101.2165468390096
 20
122.34302705127649
 30
0.0
  0
VERTEX
  5
A829
  8
0
 10
101.06319304187301
 20
122.29981185435309
 30
0.0
  0
VERTEX
  5
A82A
  8
0
 10
100.91036557433431
 20
122.2659149453217
 30
0.0
  0
VERTEX
  5
A82B
  8
0
 10
100.7558631300127
 20
122.24060926885041
 30
0.0
  0
VERTEX
  5
A82C
  8
0
 10
100.67724246405299
 20
122.23110979960821
 30
0.0
  0
VERTEX
  5
A82D
  8
0
 10
100.5978699319987
 20
122.2237974546638
 30
0.0
  0
VERTEX
  5
A82E
  8
0
 10
100.437359073785
 20
122.2159369879967
 30
0.0
  0
VERTEX
  5
A82F
  8
0
 10
100.2753018544017
 20
122.21734893198131
 30
0.0
  0
VERTEX
  5
A830
  8
0
 10
100.193993179166
 20
122.22159678234441
 30
0.0
  0
SEQEND
  5
A831
  8
0
  0
POLYLINE
  5
59FF
  8
0
 66
     1
 10
0.0
 20
0.0
 30
0.0
  0
VERTEX
  5
A832
  8
0
 10
114.24418365160849
 20
116.3065081862391
 30
0.0
  0
VERTEX
  5
A833
  8
0
 10
114.3487118899926
 20
116.4026946177076
 30
0.0
  0
VERTEX
  5
A834
  8
0
 10
114.4768141322205
 20
116.5073326064135
 30
0.0
  0
VERTEX
  5
A835
  8
0
 10
114.61114972100729
 20
116.6044126398919
 30
0.0
  0
VERTEX
  5
A836
  8
0
 10
114.7509536339454
 20
116.6933502327866
 30
0.0
  0
VERTEX
  5
A837
  8
0
 10
114.89545519785069
 20
116.7736976896793
 30
0.0
  0
VERTEX
  5
A838
  8
0
 10
114.969177228934
 20
116.8105190886056
 30
0.0
  0
VERTEX
  5
A839
  8
0
 10
115.04371572256829
 20
116.8450503105625
 30
0.0
  0
VERTEX
  5
A83A
  8
0
 10
115.19473355276079
 20
116.9071270824239
 30
0.0
  0
VERTEX
  5
A83B
  8
0
 10
115.34746965508749
 20
116.95978218920369
 30
0.0
  0
VERTEX
  5
A83C
  8
0
 10
115.5008234522241
 20
117.00299738612711
 30
0.0
  0
VERTEX
  5
A83D
  8
0
 10
115.6536509197628
 20
117.0368942951584
 30
0.0
  0
VERTEX
  5
A83E
  8
0
 10
115.8081533640844
 20
117.0621999716297
 30
0.0
  0
VERTEX
  5
A83F
  8
0
 10
115.88677403004409
 20
117.071699440872
 30
0.0
  0
VERTEX
  5
A840
  8
0
 10
115.9661465620984
 20
117.07901178581641
 30
0.0
  0
VERTEX
  5
A841
  8
0
 10
116.1266574203121
 20
117.0868722524834
 30
0.0
  0
VERTEX
  5
A842
  8
0
 10
116.2887146396954
 20
117.0854603084988
 30
0.0
  0
VERTEX
  5
A843
  8
0
 10
116.3700233149311
 20
117.08121245813579
 30
0.0
  0
SEQEND
  5
A844
  8
0
  0
ARC
  5
5B81
  8
0
 10
60.051080359811372
 20
78.94743998887634
 30
0.0
 40
7.1639102390033473
 50
45.73780851685671
 51
62.36660903517091
  0
ARC
  5
5B82
  8
0
 10
60.051080359811372
 20
78.94743998887634
 30
0.0
 40
7.1639102390033473
 50
117.6333909648304
 51
134.2621914831432
  0
ARC
  5
5C4A
  8
0
 10
108.28200824704869
 20
78.944329146628888
 30
0.0
 40
7.1670210812507644
 50
45.762040348296139
 51
134.23795965170379
  0
ARC
  5
96E1
  8
0
 10
108.28200824704849
 20
119.6514046202401
 30
0.0
 40
6.8363636320000003
 50
29.289014949815328
 51
150.70672676414429
  0
ARC
  5
96E2
  8
0
 10
108.28200824704849
 20
119.6514046202401
 30
0.0
 40
6.8363636320000003
 50
209.28901494981531
 51
330.70672676414438
  0
LINE
  5
A01E
  8
0
 10
111.28200824704849
 20
60.111350227879711
 30
0.0
 11
105.28200824704849
 21
60.111350227879711
 31
0.0
  0
LINE
  5
A02C
  8
0
 10
63.05108035981128
 20
60.111350227879711
 30
0.0
 11
57.051080359811287
 21
60.111350227879711
 31
0.0
  0
TEXT
  5
A107
  8
0
 62
     3
 10
0.0
 20
0.0
 30
0.0
 40
10.0
  1
EWN48AX30-BS-RE
  7
STANDARD1
  0
LINE
  5
A488
  8
0
 10
105.28200824704849
 20
32.72485022787972
 30
0.0
 11
105.8955082470485
 21
32.111350227879711
 31
0.0
  0
LINE
  5
A489
  8
0
 10
110.66850824704851
 20
32.111350227879711
 30
0.0
 11
111.28200824704849
 21
32.72485022787972
 31
0.0
  0
LINE
  5
A48A
  8
0
 10
105.28200824704849
 20
62.111350227879718
 30
0.0
 11
105.28200824704849
 21
32.72485022787972
 31
0.0
  0
LINE
  5
A48B
  8
0
 10
111.28200824704849
 20
32.72485022787972
 30
0.0
 11
111.28200824704849
 21
62.111350227879718
 31
0.0
  0
LINE
  5
A48D
  8
0
 10
106.28200824704849
 20
32.111350227879711
 30
0.0
 11
106.28200824704849
 21
30.611350227879711
 31
0.0
  0
LINE
  5
A48E
  8
0
 10
110.28200824704849
 20
30.611350227879711
 30
0.0
 11
110.28200824704849
 21
32.111350227879711
 31
0.0
  0
LINE
  5
A4B0
  8
0
 10
110.66850824704851
 20
32.111350227879711
 30
0.0
 11
105.8955082470485
 21
32.111350227879711
 31
0.0
  0
LINE
  5
A4B1
  8
0
 10
111.28200824704849
 20
32.72485022787972
 30
0.0
 11
105.28200824704849
 21
32.72485022787972
 31
0.0
  0
LINE
  5
A4B2
  8
0
 10
110.28200824704849
 20
30.611350227879711
 30
0.0
 11
106.28200824704849
 21
30.611350227879711
 31
0.0
  0
LINE
  5
A4D2
  8
0
 10
57.051080359811301
 20
32.72485022787972
 30
0.0
 11
57.664580359811303
 21
32.111350227879711
 31
0.0
  0
LINE
  5
A4D3
  8
0
 10
62.437580359811278
 20
32.111350227879711
 30
0.0
 11
63.05108035981128
 21
32.72485022787972
 31
0.0
  0
LINE
  5
A4D4
  8
0
 10
57.051080359811301
 20
62.111350227879718
 30
0.0
 11
57.051080359811301
 21
32.72485022787972
 31
0.0
  0
LINE
  5
A4D5
  8
0
 10
63.05108035981128
 20
32.72485022787972
 30
0.0
 11
63.05108035981128
 21
62.111350227879718
 31
0.0
  0
LINE
  5
A4D8
  8
0
 10
58.05108035981128
 20
32.111350227879711
 30
0.0
 11
58.05108035981128
 21
30.611350227879711
 31
0.0
  0
LINE
  5
A4D9
  8
0
 10
62.051080359811301
 20
30.611350227879711
 30
0.0
 11
62.051080359811301
 21
32.111350227879711
 31
0.0
  0
LINE
  5
A4F5
  8
0
 10
62.437580359811278
 20
32.111350227879711
 30
0.0
 11
57.664580359811303
 21
32.111350227879711
 31
0.0
  0
LINE
  5
A4F6
  8
0
 10
63.05108035981128
 20
32.72485022787972
 30
0.0
 11
57.051080359811301
 21
32.72485022787972
 31
0.0
  0
LINE
  5
A4F7
  8
0
 10
62.051080359811301
 20
30.611350227879711
 30
0.0
 11
58.05108035981128
 21
30.611350227879711
 31
0.0
  0
LINE
  5
A5BD
  8
3
 10
110.7405082470485
 20
32.183350227879806
 30
0.0
 11
110.7405082470486
 21
60.111350227879711
 31
0.0
  0
LINE
  5
A5BE
  8
3
 10
105.82350824704839
 20
32.183350227879806
 30
0.0
 11
105.82350824704839
 21
60.111350227879711
 31
0.0
  0
LINE
  5
A5BF
  8
3
 10
62.50958035981138
 20
32.183350227879799
 30
0.0
 11
62.509580359811373
 21
60.111350227879711
 31
0.0
  0
LINE
  5
A5C0
  8
3
 10
57.592580359811208
 20
32.183350227879806
 30
0.0
 11
57.592580359811222
 21
60.111350227879711
 31
0.0
  0
LINE
  5
A5C1
  8
3
 10
57.592580359811222
 20
60.111350227879711
 30
0.0
 11
57.051080359811301
 21
61.049255740178118
 31
0.0
  0
LINE
  5
A5C2
  8
3
 10
62.509580359811359
 20
60.111350227879711
 30
0.0
 11
63.05108035981128
 21
61.049255740178118
 31
0.0
  0
LINE
  5
A5C3
  8
3
 10
105.82350824704839
 20
60.111350227879711
 30
0.0
 11
105.28200824704849
 21
61.049255740178118
 31
0.0
  0
LINE
  5
A5C4
  8
3
 10
110.7405082470485
 20
60.111350227879711
 30
0.0
 11
111.28200824704849
 21
61.049255740178118
 31
0.0
  0
ENDSEC
  0
EOF
