  0
SECTION
  2
HEADER
  9
$ACADVER
  1
AC1009
  9
$INSBASE
 10
0.0
 20
0.0
 30
0.0
  9
$EXTMIN
 10
0.0
 20
-2.960436562073669
 30
0.0
  9
$EXTMAX
 10
136.28200824704851
 20
130.98776825223999
 30
0.0
  9
$LIMMIN
 10
0.0
 20
0.0
  9
$LIMMAX
 10
187.5
 20
135.0
  9
$ORTHOMODE
 70
     0
  9
$REGENMODE
 70
     1
  9
$FILLMODE
 70
     1
  9
$QTEXTMODE
 70
     0
  9
$MIRRTEXT
 70
     0
  9
$DRAGMODE
 70
     2
  9
$LTSCALE
 40
5.0
  9
$OSMODE
 70
    37
  9
$ATTMODE
 70
     1
  9
$TEXTSIZE
 40
0.2
  9
$TRACEWID
 40
0.05
  9
$TEXTSTYLE
  7
STANDARD
  9
$CLAYER
  8
0
  9
$CELTYPE
  6
BYLAYER
  9
$CECOLOR
 62
   256
  9
$DIMSCALE
 40
1.0
  9
$DIMASZ
 40
3.0
  9
$DIMEXO
 40
2.0
  9
$DIMDLI
 40
0.3799999999999999
  9
$DIMRND
 40
0.0
  9
$DIMDLE
 40
0.0
  9
$DIMEXE
 40
2.0
  9
$DIMTP
 40
0.0
  9
$DIMTM
 40
0.0
  9
$DIMTXT
 40
3.2000000000000002
  9
$DIMCEN
 40
0.09
  9
$DIMTSZ
 40
0.0
  9
$DIMTOL
 70
     0
  9
$DIMLIM
 70
     0
  9
$DIMTIH
 70
     0
  9
$DIMTOH
 70
     0
  9
$DIMSE1
 70
     0
  9
$DIMSE2
 70
     0
  9
$DIMTAD
 70
     1
  9
$DIMZIN
 70
     8
  9
$DIMBLK
  1

  9
$DIMASO
 70
     0
  9
$DIMSHO
 70
     0
  9
$DIMPOST
  1

  9
$DIMAPOST
  1

  9
$DIMALT
 70
     0
  9
$DIMALTD
 70
     2
  9
$DIMALTF
 40
25.399999999999999
  9
$DIMLFAC
 40
1.0
  9
$DIMTOFL
 70
     0
  9
$DIMTVP
 40
1.6000000000000001
  9
$DIMTIX
 70
     1
  9
$DIMSOXD
 70
     0
  9
$DIMSAH
 70
     0
  9
$DIMBLK1
  1

  9
$DIMBLK2
  1

  9
$DIMSTYLE
  2
STANDARD
  9
$DIMCLRD
 70
     0
  9
$DIMCLRE
 70
     0
  9
$DIMCLRT
 70
     0
  9
$DIMTFAC
 40
1.0
  9
$DIMGAP
 40
1.0
  9
$LUNITS
 70
     2
  9
$LUPREC
 70
     4
  9
$SKETCHINC
 40
0.1
  9
$FILLETRAD
 40
0.4
  9
$AUNITS
 70
     0
  9
$AUPREC
 70
     0
  9
$MENU
  1
E:\r13\win\SUPPORT\ACAD
  9
$ELEVATION
 40
0.0
  9
$PELEVATION
 40
0.0
  9
$THICKNESS
 40
0.0
  9
$LIMCHECK
 70
     0
  9
$BLIPMODE
 70
     0
  9
$CHAMFERA
 40
0.0
  9
$CHAMFERB
 40
0.0
  9
$SKPOLY
 70
     0
  9
$TDCREATE
 40
2456129.6740617128
  9
$TDUPDATE
 40
2456806.4333107411
  9
$TDINDWG
 40
0.5590260417
  9
$TDUSRTIMER
 40
2456681.383159942
  9
$USRTIMER
 70
     1
  9
$ANGBASE
 50
0.0
  9
$ANGDIR
 70
     0
  9
$PDMODE
 70
     0
  9
$PDSIZE
 40
0.0
  9
$PLINEWID
 40
0.0
  9
$COORDS
 70
     1
  9
$SPLFRAME
 70
     0
  9
$SPLINETYPE
 70
     6
  9
$SPLINESEGS
 70
     8
  9
$ATTDIA
 70
     0
  9
$ATTREQ
 70
     1
  9
$HANDLING
 70
     1
  9
$HANDSEED
  5
AC15
  9
$SURFTAB1
 70
     6
  9
$SURFTAB2
 70
     6
  9
$SURFTYPE
 70
     6
  9
$SURFU
 70
     6
  9
$SURFV
 70
     6
  9
$UCSNAME
  2

  9
$UCSORG
 10
0.0
 20
0.0
 30
0.0
  9
$UCSXDIR
 10
1.0
 20
0.0
 30
0.0
  9
$UCSYDIR
 10
0.0
 20
1.0
 30
0.0
  9
$PUCSNAME
  2

  9
$PUCSORG
 10
0.0
 20
0.0
 30
0.0
  9
$PUCSXDIR
 10
1.0
 20
0.0
 30
0.0
  9
$PUCSYDIR
 10
0.0
 20
1.0
 30
0.0
  9
$USERI1
 70
     0
  9
$USERI2
 70
     1
  9
$USERI3
 70
     0
  9
$USERI4
 70
     0
  9
$USERI5
 70
     0
  9
$USERR1
 40
0.0
  9
$USERR2
 40
0.0
  9
$USERR3
 40
0.0
  9
$USERR4
 40
0.0
  9
$USERR5
 40
0.0
  9
$WORLDVIEW
 70
     1
  9
$SHADEDGE
 70
     3
  9
$SHADEDIF
 70
    70
  9
$TILEMODE
 70
     1
  9
$MAXACTVP
 70
    16
  9
$PLIMCHECK
 70
     0
  9
$PEXTMIN
 10
1.0000000000000000E+020
 20
1.0000000000000000E+020
 30
1.0000000000000000E+020
  9
$PEXTMAX
 10
-1.0000000000000000E+020
 20
-1.0000000000000000E+020
 30
-1.0000000000000000E+020
  9
$PLIMMIN
 10
0.0
 20
0.0
  9
$PLIMMAX
 10
12.0
 20
9.0
  9
$UNITMODE
 70
     0
  9
$VISRETAIN
 70
     0
  9
$PLINEGEN
 70
     0
  9
$PSLTSCALE
 70
     0
  0
ENDSEC
  0
SECTION
  2
TABLES
  0
TABLE
  2
VPORT
 70
     1
  0
VPORT
  2
*ACTIVE
 70
     0
 10
0.0
 20
0.0
 11
1.0
 21
1.0
 12
390.29363784665583
 22
150.0
 13
0.0
 23
0.0
 14
5.0
 24
5.0
 15
5.0
 25
5.0
 16
0.0
 26
0.0
 36
1.0
 17
0.0
 27
0.0
 37
0.0
 40
300.0
 41
2.6019575856443709
 42
50.0
 43
0.0
 44
0.0
 50
0.0
 51
0.0
 71
    16
 72
   500
 73
     1
 74
     0
 75
     0
 76
     0
 77
     0
 78
     2
  0
ENDTAB
  0
TABLE
  2
LTYPE
 70
     3
  0
LTYPE
  2
CONTINUOUS
 70
     0
  3
Solid Line
 72
    65
 73
     0
 40
0.0
  0
LTYPE
  2
CENTER
 70
     0
  3
____ _ ____ _ ____ _ ____ _ ____ _ ____ _ ____
 72
    65
 73
     4
 40
2.0
 49
1.25
 49
-0.25
 49
0.25
 49
-0.25
  0
LTYPE
  2
PHANTOM2
 70
     0
  3
___ _ _ ___ _ _ ___ _ _ ___ _ _
 72
    65
 73
     6
 40
1.25
 49
0.625
 49
-0.125
 49
0.125
 49
-0.125
 49
0.125
 49
-0.125
  0
ENDTAB
  0
TABLE
  2
LAYER
 70
     3
  0
LAYER
  2
0
 70
     0
 62
     7
  6
CONTINUOUS
  0
LAYER
  2
1
 70
     0
 62
     1
  6
CENTER
  0
LAYER
  2
3
 70
     0
 62
     3
  6
CONTINUOUS
  0
ENDTAB
  0
TABLE
  2
STYLE
 70
     2
  0
STYLE
  2
STANDARD
 70
     0
 40
0.0
 41
1.0
 50
0.0
 71
     0
 42
0.2
  3
TXT
  4
BIGFONT
  0
STYLE
  2
STANDARD1
 70
     0
 40
0.0
 41
1.0
 50
0.0
 71
     0
 42
3.0
  3
txt
  4

  0
ENDTAB
  0
TABLE
  2
VIEW
 70
     0
  0
ENDTAB
  0
TABLE
  2
UCS
 70
     0
  0
ENDTAB
  0
TABLE
  2
APPID
 70
     7
  0
APPID
  2
ACAD
 70
     0
  0
APPID
  2
ACAD_MLEADERVER
 70
     0
  0
APPID
  2
ACAD_PSEXT
 70
     0
  0
APPID
  2
ACAD_EXEMPT_FROM_CAD_STANDARDS
 70
     0
  0
APPID
  2
ACAD_DSTYLE_DIMJAG
 70
     0
  0
APPID
  2
ACAD_DSTYLE_DIMTALN
 70
     0
  0
APPID
  2
ACAD_NAV_VCDISPLAY
 70
     0
  0
ENDTAB
  0
TABLE
  2
DIMSTYLE
 70
     1
  0
DIMSTYLE
  2
STANDARD
 70
     0
  3

  4

  5

  6

  7

 40
1.0
 41
0.18
 42
0.0625
 43
0.38
 44
0.18
 45
0.0
 46
0.0
 47
0.0
 48
0.0
140
0.18
141
0.09
142
0.0
143
25.399999999999999
144
1.0
145
0.0
146
1.0
147
0.09
 71
     0
 72
     0
 73
     1
 74
     1
 75
     0
 76
     0
 77
     0
 78
     0
170
     0
171
     2
172
     0
173
     0
174
     0
175
     0
176
     0
177
     0
178
     0
  0
ENDTAB
  0
ENDSEC
  0
SECTION
  2
BLOCKS
  0
BLOCK
  8
0
  2
$MODEL_SPACE
 70
     0
 10
0.0
 20
0.0
 30
0.0
  3
$MODEL_SPACE
  1

  0
ENDBLK
  5
9
  8
0
  0
BLOCK
 67
     1
  8
0
  2
$PAPER_SPACE
 70
     0
 10
0.0
 20
0.0
 30
0.0
  3
$PAPER_SPACE
  1

  0
ENDBLK
  5
E
 67
     1
  8
0
  0
ENDSEC
  0
SECTION
  2
ENTITIES
  0
LINE
  5
4FCE
  8
1
 10
108.28200824704849
 20
36.111350227879711
 30
0.0
 11
108.28200824704849
 21
90.611350227879626
 31
0.0
  0
ARC
  5
4FD2
  8
0
 10
91.982008247048569
 20
78.911350227879694
 30
0.0
 40
7.199999999999986
 50
90.0
 51
249.32290360735919
  0
LINE
  5
4FD3
  8
0
 10
124.58200824704851
 20
86.111350227879683
 30
0.0
 11
124.2846692605499
 21
86.111350227879683
 31
0.0
  0
ARC
  5
4FD4
  8
0
 10
124.58200824704851
 20
78.911350227879694
 30
0.0
 40
7.199999999999986
 50
290.67709639263933
 51
90.0
  0
ARC
  5
4FD5
  8
0
 10
115.5301046150794
 20
123.0030338438236
 30
0.0
 40
57.133049242426239
 50
242.82815740995949
 51
255.81764980476601
  0
ARC
  5
4FD6
  8
0
 10
101.03391187901769
 20
123.0030338438236
 30
0.0
 40
57.133049242426218
 50
284.18235019523399
 51
297.17184259004051
  0
LINE
  5
4FD7
  8
0
 10
101.53200824704849
 20
67.611350227879768
 30
0.0
 11
101.53200824704849
 21
62.111350227879718
 31
0.0
  0
LINE
  5
4FD8
  8
0
 10
115.03200824704859
 20
62.111350227879718
 30
0.0
 11
115.03200824704859
 21
67.611350227879711
 31
0.0
  0
LINE
  5
4FDD
  8
0
 10
102.69732430814121
 20
84.079131107668104
 30
0.0
 11
113.8666921859558
 21
84.079131107668104
 31
0.0
  0
LINE
  5
4FDF
  8
0
 10
115.03200824704859
 20
62.111350227879718
 30
0.0
 11
101.53200824704849
 21
62.111350227879718
 31
0.0
  0
POLYLINE
  5
4FE0
  8
0
 66
     1
 10
0.0
 20
0.0
 30
0.0
  0
VERTEX
  5
A83B
  8
0
 10
100.193993179166
 20
84.352868073439311
 30
0.0
  0
VERTEX
  5
A83C
  8
0
 10
100.2714760001066
 20
84.339710036435747
 30
0.0
  0
VERTEX
  5
A83D
  8
0
 10
100.4288181069881
 20
84.313736483086018
 30
0.0
  0
VERTEX
  5
A83E
  8
0
 10
100.58845483336989
 20
84.288404058009974
 30
0.0
  0
VERTEX
  5
A83F
  8
0
 10
100.6688043889073
 20
84.276043827589476
 30
0.0
  0
VERTEX
  5
A840
  8
0
 10
100.7493351071427
 20
84.263920123893172
 30
0.0
  0
VERTEX
  5
A841
  8
0
 10
100.9104343297961
 20
84.240472146348225
 30
0.0
  0
VERTEX
  5
A842
  8
0
 10
101.070739155583
 20
84.218230663631516
 30
0.0
  0
VERTEX
  5
A843
  8
0
 10
101.22924340364411
 20
84.197349887977566
 30
0.0
  0
VERTEX
  5
A844
  8
0
 10
101.3850180139253
 20
84.177958800905117
 30
0.0
  0
VERTEX
  5
A845
  8
0
 10
101.53724547351349
 20
84.160159030852014
 30
0.0
  0
VERTEX
  5
A846
  8
0
 10
101.6117486746822
 20
84.151886940298127
 30
0.0
  0
VERTEX
  5
A847
  8
0
 10
101.6850325998831
 20
84.144047482262124
 30
0.0
  0
VERTEX
  5
A848
  8
0
 10
101.82753270377781
 20
84.129699618512177
 30
0.0
  0
VERTEX
  5
A849
  8
0
 10
101.9639769566019
 20
84.117166034526306
 30
0.0
  0
VERTEX
  5
A84A
  8
0
 10
102.09365520928429
 20
84.106474165193447
 30
0.0
  0
VERTEX
  5
A84B
  8
0
 10
102.21592649031329
 20
84.097626372849803
 30
0.0
  0
VERTEX
  5
A84C
  8
0
 10
102.3320391035936
 20
84.090497400773643
 30
0.0
  0
VERTEX
  5
A84D
  8
0
 10
102.388513282131
 20
84.087539401076214
 30
0.0
  0
VERTEX
  5
A84E
  8
0
 10
102.44375906060181
 20
84.085006424463643
 30
0.0
  0
VERTEX
  5
A84F
  8
0
 10
102.55005805493769
 20
84.081268354833185
 30
0.0
  0
VERTEX
  5
A850
  8
0
 10
102.649998250024
 20
84.079370471155698
 30
0.0
  0
VERTEX
  5
A851
  8
0
 10
102.69732430814121
 20
84.079131107668104
 30
0.0
  0
SEQEND
  5
A852
  8
0
  0
POLYLINE
  5
4FE4
  8
0
 66
     1
 10
0.0
 20
0.0
 30
0.0
  0
VERTEX
  5
A853
  8
0
 10
113.8666921859558
 20
84.079131107668104
 30
0.0
  0
VERTEX
  5
A854
  8
0
 10
113.9117953900777
 20
84.079348935515895
 30
0.0
  0
VERTEX
  5
A855
  8
0
 10
114.00863521644889
 20
84.081124690059596
 30
0.0
  0
VERTEX
  5
A856
  8
0
 10
114.1140415715135
 20
84.084745213538795
 30
0.0
  0
VERTEX
  5
A857
  8
0
 10
114.1698244106848
 20
84.087262042853055
 30
0.0
  0
VERTEX
  5
A858
  8
0
 10
114.22757721459099
 20
84.090254265150634
 30
0.0
  0
VERTEX
  5
A859
  8
0
 10
114.3487118899926
 20
84.097668060125685
 30
0.0
  0
VERTEX
  5
A85A
  8
0
 10
114.4768141322205
 20
84.10697577995478
 30
0.0
  0
VERTEX
  5
A85B
  8
0
 10
114.61114972100729
 20
84.118139396598735
 30
0.0
  0
VERTEX
  5
A85C
  8
0
 10
114.7509536339454
 20
84.131100098381765
 30
0.0
  0
VERTEX
  5
A85D
  8
0
 10
114.89545519785069
 20
84.145783132976973
 30
0.0
  0
VERTEX
  5
A85E
  8
0
 10
114.969177228934
 20
84.153738120955708
 30
0.0
  0
VERTEX
  5
A85F
  8
0
 10
115.04371572256829
 20
84.162081642185569
 30
0.0
  0
VERTEX
  5
A860
  8
0
 10
115.19473355276079
 20
84.179864789440146
 30
0.0
  0
VERTEX
  5
A861
  8
0
 10
115.34746965508749
 20
84.198980582453942
 30
0.0
  0
VERTEX
  5
A862
  8
0
 10
115.5008234522241
 20
84.219252685648442
 30
0.0
  0
VERTEX
  5
A863
  8
0
 10
115.6536509197628
 20
84.240481921783157
 30
0.0
  0
VERTEX
  5
A864
  8
0
 10
115.8081533640844
 20
84.262949014860951
 30
0.0
  0
VERTEX
  5
A865
  8
0
 10
115.88677403004409
 20
84.274761044256593
 30
0.0
  0
VERTEX
  5
A866
  8
0
 10
115.9661465620984
 20
84.286942161739489
 30
0.0
  0
VERTEX
  5
A867
  8
0
 10
116.1266574203121
 20
84.312355110153348
 30
0.0
  0
VERTEX
  5
A868
  8
0
 10
116.2887146396954
 20
84.339066630210169
 30
0.0
  0
VERTEX
  5
A869
  8
0
 10
116.3700233149311
 20
84.352868073439311
 30
0.0
  0
SEQEND
  5
A86A
  8
0
  0
POLYLINE
  5
4FE7
  8
0
 10
116.37002331493099
 20
84.352868073439254
 30
0.0
 66
     1
 70
     8
  0
VERTEX
  8
0
  5
AA0D
 10
116.370
 20
84.3529
 30
0.000000
  70
    32
  0
VERTEX
  8
0
  5
AA0E
 10
116.409
 20
84.3595
 30
0.000000
  70
    32
  0
VERTEX
  8
0
  5
AA0F
 10
116.447
 20
84.3661
 30
0.000000
  70
    32
  0
VERTEX
  8
0
  5
AA10
 10
116.485
 20
84.3728
 30
0.000000
  70
    32
  0
VERTEX
  8
0
  5
AA11
 10
116.524
 20
84.3795
 30
0.000000
  70
    32
  0
VERTEX
  8
0
  5
AA12
 10
116.562
 20
84.3862
 30
0.000000
  70
    32
  0
VERTEX
  8
0
  5
AA13
 10
116.601
 20
84.3930
 30
0.000000
  70
    32
  0
VERTEX
  8
0
  5
AA14
 10
116.639
 20
84.3998
 30
0.000000
  70
    32
  0
VERTEX
  8
0
  5
AA15
 10
116.678
 20
84.4066
 30
0.000000
  70
    32
  0
VERTEX
  8
0
  5
AA16
 10
116.716
 20
84.4135
 30
0.000000
  70
    32
  0
VERTEX
  8
0
  5
AA17
 10
116.755
 20
84.4204
 30
0.000000
  70
    32
  0
VERTEX
  8
0
  5
AA18
 10
116.793
 20
84.4273
 30
0.000000
  70
    32
  0
VERTEX
  8
0
  5
AA19
 10
116.831
 20
84.4342
 30
0.000000
  70
    32
  0
VERTEX
  8
0
  5
AA1A
 10
116.870
 20
84.4412
 30
0.000000
  70
    32
  0
VERTEX
  8
0
  5
AA1B
 10
116.908
 20
84.4482
 30
0.000000
  70
    32
  0
VERTEX
  8
0
  5
AA1C
 10
116.947
 20
84.4553
 30
0.000000
  70
    32
  0
VERTEX
  8
0
  5
AA1D
 10
116.985
 20
84.4624
 30
0.000000
  70
    32
  0
VERTEX
  8
0
  5
AA1E
 10
117.024
 20
84.4695
 30
0.000000
  70
    32
  0
VERTEX
  8
0
  5
AA1F
 10
117.062
 20
84.4766
 30
0.000000
  70
    32
  0
VERTEX
  8
0
  5
AA20
 10
117.100
 20
84.4838
 30
0.000000
  70
    32
  0
VERTEX
  8
0
  5
AA21
 10
117.139
 20
84.4910
 30
0.000000
  70
    32
  0
VERTEX
  8
0
  5
AA22
 10
117.177
 20
84.4982
 30
0.000000
  70
    32
  0
VERTEX
  8
0
  5
AA23
 10
117.215
 20
84.5055
 30
0.000000
  70
    32
  0
VERTEX
  8
0
  5
AA24
 10
117.254
 20
84.5127
 30
0.000000
  70
    32
  0
VERTEX
  8
0
  5
AA25
 10
117.292
 20
84.5201
 30
0.000000
  70
    32
  0
VERTEX
  8
0
  5
AA26
 10
117.331
 20
84.5274
 30
0.000000
  70
    32
  0
VERTEX
  8
0
  5
AA27
 10
117.369
 20
84.5348
 30
0.000000
  70
    32
  0
VERTEX
  8
0
  5
AA28
 10
117.407
 20
84.5422
 30
0.000000
  70
    32
  0
VERTEX
  8
0
  5
AA29
 10
117.446
 20
84.5497
 30
0.000000
  70
    32
  0
VERTEX
  8
0
  5
AA2A
 10
117.484
 20
84.5571
 30
0.000000
  70
    32
  0
VERTEX
  8
0
  5
AA2B
 10
117.522
 20
84.5646
 30
0.000000
  70
    32
  0
VERTEX
  8
0
  5
AA2C
 10
117.561
 20
84.5722
 30
0.000000
  70
    32
  0
VERTEX
  8
0
  5
AA2D
 10
117.599
 20
84.5797
 30
0.000000
  70
    32
  0
VERTEX
  8
0
  5
AA2E
 10
117.637
 20
84.5873
 30
0.000000
  70
    32
  0
VERTEX
  8
0
  5
AA2F
 10
117.675
 20
84.5950
 30
0.000000
  70
    32
  0
VERTEX
  8
0
  5
AA30
 10
117.714
 20
84.6026
 30
0.000000
  70
    32
  0
VERTEX
  8
0
  5
AA31
 10
117.752
 20
84.6103
 30
0.000000
  70
    32
  0
VERTEX
  8
0
  5
AA32
 10
117.790
 20
84.6180
 30
0.000000
  70
    32
  0
VERTEX
  8
0
  5
AA33
 10
117.829
 20
84.6258
 30
0.000000
  70
    32
  0
VERTEX
  8
0
  5
AA34
 10
117.867
 20
84.6336
 30
0.000000
  70
    32
  0
VERTEX
  8
0
  5
AA35
 10
117.905
 20
84.6414
 30
0.000000
  70
    32
  0
VERTEX
  8
0
  5
AA36
 10
117.943
 20
84.6492
 30
0.000000
  70
    32
  0
VERTEX
  8
0
  5
AA37
 10
117.982
 20
84.6571
 30
0.000000
  70
    32
  0
VERTEX
  8
0
  5
AA38
 10
118.020
 20
84.6650
 30
0.000000
  70
    32
  0
VERTEX
  8
0
  5
AA39
 10
118.058
 20
84.6729
 30
0.000000
  70
    32
  0
VERTEX
  8
0
  5
AA3A
 10
118.096
 20
84.6809
 30
0.000000
  70
    32
  0
VERTEX
  8
0
  5
AA3B
 10
118.135
 20
84.6889
 30
0.000000
  70
    32
  0
VERTEX
  8
0
  5
AA3C
 10
118.173
 20
84.6969
 30
0.000000
  70
    32
  0
VERTEX
  8
0
  5
AA3D
 10
118.211
 20
84.7050
 30
0.000000
  70
    32
  0
VERTEX
  8
0
  5
AA3E
 10
118.249
 20
84.7131
 30
0.000000
  70
    32
  0
VERTEX
  8
0
  5
AA3F
 10
118.287
 20
84.7212
 30
0.000000
  70
    32
  0
VERTEX
  8
0
  5
AA40
 10
118.326
 20
84.7293
 30
0.000000
  70
    32
  0
VERTEX
  8
0
  5
AA41
 10
118.364
 20
84.7375
 30
0.000000
  70
    32
  0
VERTEX
  8
0
  5
AA42
 10
118.402
 20
84.7457
 30
0.000000
  70
    32
  0
VERTEX
  8
0
  5
AA43
 10
118.440
 20
84.7540
 30
0.000000
  70
    32
  0
VERTEX
  8
0
  5
AA44
 10
118.478
 20
84.7622
 30
0.000000
  70
    32
  0
VERTEX
  8
0
  5
AA45
 10
118.516
 20
84.7706
 30
0.000000
  70
    32
  0
VERTEX
  8
0
  5
AA46
 10
118.555
 20
84.7789
 30
0.000000
  70
    32
  0
VERTEX
  8
0
  5
AA47
 10
118.593
 20
84.7872
 30
0.000000
  70
    32
  0
VERTEX
  8
0
  5
AA48
 10
118.631
 20
84.7956
 30
0.000000
  70
    32
  0
VERTEX
  8
0
  5
AA49
 10
118.669
 20
84.8041
 30
0.000000
  70
    32
  0
VERTEX
  8
0
  5
AA4A
 10
118.707
 20
84.8125
 30
0.000000
  70
    32
  0
VERTEX
  8
0
  5
AA4B
 10
118.745
 20
84.8210
 30
0.000000
  70
    32
  0
VERTEX
  8
0
  5
AA4C
 10
118.783
 20
84.8295
 30
0.000000
  70
    32
  0
VERTEX
  8
0
  5
AA4D
 10
118.821
 20
84.8381
 30
0.000000
  70
    32
  0
VERTEX
  8
0
  5
AA4E
 10
118.859
 20
84.8467
 30
0.000000
  70
    32
  0
VERTEX
  8
0
  5
AA4F
 10
118.898
 20
84.8553
 30
0.000000
  70
    32
  0
VERTEX
  8
0
  5
AA50
 10
118.936
 20
84.8639
 30
0.000000
  70
    32
  0
VERTEX
  8
0
  5
AA51
 10
118.974
 20
84.8726
 30
0.000000
  70
    32
  0
VERTEX
  8
0
  5
AA52
 10
119.012
 20
84.8813
 30
0.000000
  70
    32
  0
VERTEX
  8
0
  5
AA53
 10
119.050
 20
84.8900
 30
0.000000
  70
    32
  0
VERTEX
  8
0
  5
AA54
 10
119.088
 20
84.8988
 30
0.000000
  70
    32
  0
VERTEX
  8
0
  5
AA55
 10
119.126
 20
84.9076
 30
0.000000
  70
    32
  0
VERTEX
  8
0
  5
AA56
 10
119.164
 20
84.9164
 30
0.000000
  70
    32
  0
VERTEX
  8
0
  5
AA57
 10
119.202
 20
84.9252
 30
0.000000
  70
    32
  0
VERTEX
  8
0
  5
AA58
 10
119.240
 20
84.9341
 30
0.000000
  70
    32
  0
VERTEX
  8
0
  5
AA59
 10
119.278
 20
84.9430
 30
0.000000
  70
    32
  0
VERTEX
  8
0
  5
AA5A
 10
119.316
 20
84.9520
 30
0.000000
  70
    32
  0
VERTEX
  8
0
  5
AA5B
 10
119.354
 20
84.9609
 30
0.000000
  70
    32
  0
VERTEX
  8
0
  5
AA5C
 10
119.392
 20
84.9700
 30
0.000000
  70
    32
  0
VERTEX
  8
0
  5
AA5D
 10
119.430
 20
84.9790
 30
0.000000
  70
    32
  0
VERTEX
  8
0
  5
AA5E
 10
119.468
 20
84.9881
 30
0.000000
  70
    32
  0
VERTEX
  8
0
  5
AA5F
 10
119.506
 20
84.9972
 30
0.000000
  70
    32
  0
VERTEX
  8
0
  5
AA60
 10
119.544
 20
85.0063
 30
0.000000
  70
    32
  0
VERTEX
  8
0
  5
AA61
 10
119.582
 20
85.0154
 30
0.000000
  70
    32
  0
VERTEX
  8
0
  5
AA62
 10
119.620
 20
85.0246
 30
0.000000
  70
    32
  0
VERTEX
  8
0
  5
AA63
 10
119.658
 20
85.0338
 30
0.000000
  70
    32
  0
VERTEX
  8
0
  5
AA64
 10
119.696
 20
85.0431
 30
0.000000
  70
    32
  0
VERTEX
  8
0
  5
AA65
 10
119.734
 20
85.0524
 30
0.000000
  70
    32
  0
VERTEX
  8
0
  5
AA66
 10
119.772
 20
85.0617
 30
0.000000
  70
    32
  0
VERTEX
  8
0
  5
AA67
 10
119.810
 20
85.0710
 30
0.000000
  70
    32
  0
VERTEX
  8
0
  5
AA68
 10
119.848
 20
85.0804
 30
0.000000
  70
    32
  0
VERTEX
  8
0
  5
AA69
 10
119.885
 20
85.0898
 30
0.000000
  70
    32
  0
VERTEX
  8
0
  5
AA6A
 10
119.923
 20
85.0992
 30
0.000000
  70
    32
  0
VERTEX
  8
0
  5
AA6B
 10
119.961
 20
85.1087
 30
0.000000
  70
    32
  0
VERTEX
  8
0
  5
AA6C
 10
119.999
 20
85.1182
 30
0.000000
  70
    32
  0
VERTEX
  8
0
  5
AA6D
 10
120.037
 20
85.1277
 30
0.000000
  70
    32
  0
VERTEX
  8
0
  5
AA6E
 10
120.075
 20
85.1373
 30
0.000000
  70
    32
  0
VERTEX
  8
0
  5
AA6F
 10
120.113
 20
85.1468
 30
0.000000
  70
    32
  0
VERTEX
  8
0
  5
AA70
 10
120.151
 20
85.1565
 30
0.000000
  70
    32
  0
VERTEX
  8
0
  5
AA71
 10
120.188
 20
85.1661
 30
0.000000
  70
    32
  0
VERTEX
  8
0
  5
AA72
 10
120.226
 20
85.1758
 30
0.000000
  70
    32
  0
VERTEX
  8
0
  5
AA73
 10
120.264
 20
85.1855
 30
0.000000
  70
    32
  0
VERTEX
  8
0
  5
AA74
 10
120.302
 20
85.1952
 30
0.000000
  70
    32
  0
VERTEX
  8
0
  5
AA75
 10
120.340
 20
85.2050
 30
0.000000
  70
    32
  0
VERTEX
  8
0
  5
AA76
 10
120.377
 20
85.2148
 30
0.000000
  70
    32
  0
VERTEX
  8
0
  5
AA77
 10
120.415
 20
85.2246
 30
0.000000
  70
    32
  0
VERTEX
  8
0
  5
AA78
 10
120.453
 20
85.2345
 30
0.000000
  70
    32
  0
VERTEX
  8
0
  5
AA79
 10
120.491
 20
85.2444
 30
0.000000
  70
    32
  0
VERTEX
  8
0
  5
AA7A
 10
120.529
 20
85.2543
 30
0.000000
  70
    32
  0
VERTEX
  8
0
  5
AA7B
 10
120.566
 20
85.2642
 30
0.000000
  70
    32
  0
VERTEX
  8
0
  5
AA7C
 10
120.604
 20
85.2742
 30
0.000000
  70
    32
  0
VERTEX
  8
0
  5
AA7D
 10
120.642
 20
85.2842
 30
0.000000
  70
    32
  0
VERTEX
  8
0
  5
AA7E
 10
120.680
 20
85.2942
 30
0.000000
  70
    32
  0
VERTEX
  8
0
  5
AA7F
 10
120.717
 20
85.3043
 30
0.000000
  70
    32
  0
VERTEX
  8
0
  5
AA80
 10
120.755
 20
85.3144
 30
0.000000
  70
    32
  0
VERTEX
  8
0
  5
AA81
 10
120.793
 20
85.3245
 30
0.000000
  70
    32
  0
VERTEX
  8
0
  5
AA82
 10
120.831
 20
85.3347
 30
0.000000
  70
    32
  0
VERTEX
  8
0
  5
AA83
 10
120.868
 20
85.3449
 30
0.000000
  70
    32
  0
VERTEX
  8
0
  5
AA84
 10
120.906
 20
85.3551
 30
0.000000
  70
    32
  0
VERTEX
  8
0
  5
AA85
 10
120.944
 20
85.3654
 30
0.000000
  70
    32
  0
VERTEX
  8
0
  5
AA86
 10
120.981
 20
85.3756
 30
0.000000
  70
    32
  0
VERTEX
  8
0
  5
AA87
 10
121.019
 20
85.3859
 30
0.000000
  70
    32
  0
VERTEX
  8
0
  5
AA88
 10
121.057
 20
85.3963
 30
0.000000
  70
    32
  0
VERTEX
  8
0
  5
AA89
 10
121.094
 20
85.4067
 30
0.000000
  70
    32
  0
VERTEX
  8
0
  5
AA8A
 10
121.132
 20
85.4171
 30
0.000000
  70
    32
  0
VERTEX
  8
0
  5
AA8B
 10
121.170
 20
85.4275
 30
0.000000
  70
    32
  0
VERTEX
  8
0
  5
AA8C
 10
121.207
 20
85.4380
 30
0.000000
  70
    32
  0
VERTEX
  8
0
  5
AA8D
 10
121.245
 20
85.4484
 30
0.000000
  70
    32
  0
SEQEND
  8
0
  5
AA8E
  0
POLYLINE
  5
4FE8
  8
0
 66
     1
 10
0.0
 20
0.0
 30
0.0
  0
VERTEX
  5
A86B
  8
0
 10
121.2447736128932
 20
85.448445913739135
 30
0.0
  0
VERTEX
  5
A86C
  8
0
 10
121.3222205834952
 20
85.48331735437074
 30
0.0
  0
VERTEX
  5
A86D
  8
0
 10
121.4760527972184
 20
85.54942285430559
 30
0.0
  0
VERTEX
  5
A86E
  8
0
 10
121.6300666492931
 20
85.611496646267653
 30
0.0
  0
VERTEX
  5
A86F
  8
0
 10
121.70871572232311
 20
85.641645221070405
 30
0.0
  0
VERTEX
  5
A870
  8
0
 10
121.7884411539319
 20
85.671155297770184
 30
0.0
  0
VERTEX
  5
A871
  8
0
 10
121.9508872765753
 20
85.728064080606885
 30
0.0
  0
VERTEX
  5
A872
  8
0
 10
122.1169283446107
 20
85.781856959197626
 30
0.0
  0
VERTEX
  5
A873
  8
0
 10
122.2860763409921
 20
85.832210685366988
 30
0.0
  0
VERTEX
  5
A874
  8
0
 10
122.4578319520039
 20
85.878845370574965
 30
0.0
  0
VERTEX
  5
A875
  8
0
 10
122.6316798420536
 20
85.921523841410803
 30
0.0
  0
VERTEX
  5
A876
  8
0
 10
122.71922367102719
 20
85.941317462073926
 30
0.0
  0
VERTEX
  5
A877
  8
0
 10
122.807091752967
 20
85.960053284375405
 30
0.0
  0
VERTEX
  5
A878
  8
0
 10
122.9835392128748
 20
85.994288111378282
 30
0.0
  0
VERTEX
  5
A879
  8
0
 10
123.1605063407338
 20
86.024130890945912
 30
0.0
  0
VERTEX
  5
A87A
  8
0
 10
123.33744128059359
 20
86.049523353554818
 30
0.0
  0
VERTEX
  5
A87B
  8
0
 10
123.5137809209098
 20
86.070452483755247
 30
0.0
  0
VERTEX
  5
A87C
  8
0
 10
123.6889587665262
 20
86.086951485750106
 30
0.0
  0
VERTEX
  5
A87D
  8
0
 10
123.7759346427702
 20
86.093562579241166
 30
0.0
  0
VERTEX
  5
A87E
  8
0
 10
123.86240635115389
 20
86.09909919413775
 30
0.0
  0
VERTEX
  5
A87F
  8
0
 10
124.03354820393859
 20
86.107019027770349
 30
0.0
  0
VERTEX
  5
A880
  8
0
 10
124.201804426001
 20
86.110878667348615
 30
0.0
  0
VERTEX
  5
A881
  8
0
 10
124.2846692605499
 20
86.111350227879683
 30
0.0
  0
SEQEND
  5
A882
  8
0
  0
POLYLINE
  5
4FF3
  8
0
 10
95.319242881203579
 20
85.448445913738709
 30
0.0
 66
     1
 70
     8
  0
VERTEX
  8
0
  5
AA8F
 10
95.3192
 20
85.4484
 30
0.000000
  70
    32
  0
VERTEX
  8
0
  5
AA90
 10
95.3569
 20
85.4380
 30
0.000000
  70
    32
  0
VERTEX
  8
0
  5
AA91
 10
95.3945
 20
85.4275
 30
0.000000
  70
    32
  0
VERTEX
  8
0
  5
AA92
 10
95.4321
 20
85.4171
 30
0.000000
  70
    32
  0
VERTEX
  8
0
  5
AA93
 10
95.4698
 20
85.4067
 30
0.000000
  70
    32
  0
VERTEX
  8
0
  5
AA94
 10
95.5074
 20
85.3963
 30
0.000000
  70
    32
  0
VERTEX
  8
0
  5
AA95
 10
95.5451
 20
85.3859
 30
0.000000
  70
    32
  0
VERTEX
  8
0
  5
AA96
 10
95.5827
 20
85.3756
 30
0.000000
  70
    32
  0
VERTEX
  8
0
  5
AA97
 10
95.6204
 20
85.3654
 30
0.000000
  70
    32
  0
VERTEX
  8
0
  5
AA98
 10
95.6581
 20
85.3551
 30
0.000000
  70
    32
  0
VERTEX
  8
0
  5
AA99
 10
95.6958
 20
85.3449
 30
0.000000
  70
    32
  0
VERTEX
  8
0
  5
AA9A
 10
95.7335
 20
85.3347
 30
0.000000
  70
    32
  0
VERTEX
  8
0
  5
AA9B
 10
95.7712
 20
85.3245
 30
0.000000
  70
    32
  0
VERTEX
  8
0
  5
AA9C
 10
95.8089
 20
85.3144
 30
0.000000
  70
    32
  0
VERTEX
  8
0
  5
AA9D
 10
95.8466
 20
85.3043
 30
0.000000
  70
    32
  0
VERTEX
  8
0
  5
AA9E
 10
95.8844
 20
85.2942
 30
0.000000
  70
    32
  0
VERTEX
  8
0
  5
AA9F
 10
95.9221
 20
85.2842
 30
0.000000
  70
    32
  0
VERTEX
  8
0
  5
AAA0
 10
95.9599
 20
85.2742
 30
0.000000
  70
    32
  0
VERTEX
  8
0
  5
AAA1
 10
95.9976
 20
85.2642
 30
0.000000
  70
    32
  0
VERTEX
  8
0
  5
AAA2
 10
96.0354
 20
85.2543
 30
0.000000
  70
    32
  0
VERTEX
  8
0
  5
AAA3
 10
96.0732
 20
85.2444
 30
0.000000
  70
    32
  0
VERTEX
  8
0
  5
AAA4
 10
96.1109
 20
85.2345
 30
0.000000
  70
    32
  0
VERTEX
  8
0
  5
AAA5
 10
96.1487
 20
85.2246
 30
0.000000
  70
    32
  0
VERTEX
  8
0
  5
AAA6
 10
96.1865
 20
85.2148
 30
0.000000
  70
    32
  0
VERTEX
  8
0
  5
AAA7
 10
96.2243
 20
85.2050
 30
0.000000
  70
    32
  0
VERTEX
  8
0
  5
AAA8
 10
96.2621
 20
85.1952
 30
0.000000
  70
    32
  0
VERTEX
  8
0
  5
AAA9
 10
96.3000
 20
85.1855
 30
0.000000
  70
    32
  0
VERTEX
  8
0
  5
AAAA
 10
96.3378
 20
85.1758
 30
0.000000
  70
    32
  0
VERTEX
  8
0
  5
AAAB
 10
96.3756
 20
85.1661
 30
0.000000
  70
    32
  0
VERTEX
  8
0
  5
AAAC
 10
96.4135
 20
85.1565
 30
0.000000
  70
    32
  0
VERTEX
  8
0
  5
AAAD
 10
96.4513
 20
85.1468
 30
0.000000
  70
    32
  0
VERTEX
  8
0
  5
AAAE
 10
96.4892
 20
85.1373
 30
0.000000
  70
    32
  0
VERTEX
  8
0
  5
AAAF
 10
96.5270
 20
85.1277
 30
0.000000
  70
    32
  0
VERTEX
  8
0
  5
AAB0
 10
96.5649
 20
85.1182
 30
0.000000
  70
    32
  0
VERTEX
  8
0
  5
AAB1
 10
96.6028
 20
85.1087
 30
0.000000
  70
    32
  0
VERTEX
  8
0
  5
AAB2
 10
96.6407
 20
85.0992
 30
0.000000
  70
    32
  0
VERTEX
  8
0
  5
AAB3
 10
96.6786
 20
85.0898
 30
0.000000
  70
    32
  0
VERTEX
  8
0
  5
AAB4
 10
96.7165
 20
85.0804
 30
0.000000
  70
    32
  0
VERTEX
  8
0
  5
AAB5
 10
96.7544
 20
85.0710
 30
0.000000
  70
    32
  0
VERTEX
  8
0
  5
AAB6
 10
96.7923
 20
85.0617
 30
0.000000
  70
    32
  0
VERTEX
  8
0
  5
AAB7
 10
96.8302
 20
85.0524
 30
0.000000
  70
    32
  0
VERTEX
  8
0
  5
AAB8
 10
96.8682
 20
85.0431
 30
0.000000
  70
    32
  0
VERTEX
  8
0
  5
AAB9
 10
96.9061
 20
85.0338
 30
0.000000
  70
    32
  0
VERTEX
  8
0
  5
AABA
 10
96.9440
 20
85.0246
 30
0.000000
  70
    32
  0
VERTEX
  8
0
  5
AABB
 10
96.9820
 20
85.0154
 30
0.000000
  70
    32
  0
VERTEX
  8
0
  5
AABC
 10
97.0200
 20
85.0063
 30
0.000000
  70
    32
  0
VERTEX
  8
0
  5
AABD
 10
97.0579
 20
84.9972
 30
0.000000
  70
    32
  0
VERTEX
  8
0
  5
AABE
 10
97.0959
 20
84.9881
 30
0.000000
  70
    32
  0
VERTEX
  8
0
  5
AABF
 10
97.1339
 20
84.9790
 30
0.000000
  70
    32
  0
VERTEX
  8
0
  5
AAC0
 10
97.1719
 20
84.9700
 30
0.000000
  70
    32
  0
VERTEX
  8
0
  5
AAC1
 10
97.2099
 20
84.9609
 30
0.000000
  70
    32
  0
VERTEX
  8
0
  5
AAC2
 10
97.2479
 20
84.9520
 30
0.000000
  70
    32
  0
VERTEX
  8
0
  5
AAC3
 10
97.2859
 20
84.9430
 30
0.000000
  70
    32
  0
VERTEX
  8
0
  5
AAC4
 10
97.3239
 20
84.9341
 30
0.000000
  70
    32
  0
VERTEX
  8
0
  5
AAC5
 10
97.3620
 20
84.9252
 30
0.000000
  70
    32
  0
VERTEX
  8
0
  5
AAC6
 10
97.4000
 20
84.9164
 30
0.000000
  70
    32
  0
VERTEX
  8
0
  5
AAC7
 10
97.4380
 20
84.9076
 30
0.000000
  70
    32
  0
VERTEX
  8
0
  5
AAC8
 10
97.4761
 20
84.8988
 30
0.000000
  70
    32
  0
VERTEX
  8
0
  5
AAC9
 10
97.5141
 20
84.8900
 30
0.000000
  70
    32
  0
VERTEX
  8
0
  5
AACA
 10
97.5522
 20
84.8813
 30
0.000000
  70
    32
  0
VERTEX
  8
0
  5
AACB
 10
97.5903
 20
84.8726
 30
0.000000
  70
    32
  0
VERTEX
  8
0
  5
AACC
 10
97.6283
 20
84.8639
 30
0.000000
  70
    32
  0
VERTEX
  8
0
  5
AACD
 10
97.6664
 20
84.8553
 30
0.000000
  70
    32
  0
VERTEX
  8
0
  5
AACE
 10
97.7045
 20
84.8467
 30
0.000000
  70
    32
  0
VERTEX
  8
0
  5
AACF
 10
97.7426
 20
84.8381
 30
0.000000
  70
    32
  0
VERTEX
  8
0
  5
AAD0
 10
97.7807
 20
84.8295
 30
0.000000
  70
    32
  0
VERTEX
  8
0
  5
AAD1
 10
97.8188
 20
84.8210
 30
0.000000
  70
    32
  0
VERTEX
  8
0
  5
AAD2
 10
97.8569
 20
84.8125
 30
0.000000
  70
    32
  0
VERTEX
  8
0
  5
AAD3
 10
97.8951
 20
84.8041
 30
0.000000
  70
    32
  0
VERTEX
  8
0
  5
AAD4
 10
97.9332
 20
84.7956
 30
0.000000
  70
    32
  0
VERTEX
  8
0
  5
AAD5
 10
97.9713
 20
84.7872
 30
0.000000
  70
    32
  0
VERTEX
  8
0
  5
AAD6
 10
98.0095
 20
84.7789
 30
0.000000
  70
    32
  0
VERTEX
  8
0
  5
AAD7
 10
98.0476
 20
84.7706
 30
0.000000
  70
    32
  0
VERTEX
  8
0
  5
AAD8
 10
98.0858
 20
84.7622
 30
0.000000
  70
    32
  0
VERTEX
  8
0
  5
AAD9
 10
98.1240
 20
84.7540
 30
0.000000
  70
    32
  0
VERTEX
  8
0
  5
AADA
 10
98.1621
 20
84.7457
 30
0.000000
  70
    32
  0
VERTEX
  8
0
  5
AADB
 10
98.2003
 20
84.7375
 30
0.000000
  70
    32
  0
VERTEX
  8
0
  5
AADC
 10
98.2385
 20
84.7293
 30
0.000000
  70
    32
  0
VERTEX
  8
0
  5
AADD
 10
98.2767
 20
84.7212
 30
0.000000
  70
    32
  0
VERTEX
  8
0
  5
AADE
 10
98.3149
 20
84.7131
 30
0.000000
  70
    32
  0
VERTEX
  8
0
  5
AADF
 10
98.3531
 20
84.7050
 30
0.000000
  70
    32
  0
VERTEX
  8
0
  5
AAE0
 10
98.3913
 20
84.6969
 30
0.000000
  70
    32
  0
VERTEX
  8
0
  5
AAE1
 10
98.4295
 20
84.6889
 30
0.000000
  70
    32
  0
VERTEX
  8
0
  5
AAE2
 10
98.4677
 20
84.6809
 30
0.000000
  70
    32
  0
VERTEX
  8
0
  5
AAE3
 10
98.5060
 20
84.6729
 30
0.000000
  70
    32
  0
VERTEX
  8
0
  5
AAE4
 10
98.5442
 20
84.6650
 30
0.000000
  70
    32
  0
VERTEX
  8
0
  5
AAE5
 10
98.5824
 20
84.6571
 30
0.000000
  70
    32
  0
VERTEX
  8
0
  5
AAE6
 10
98.6207
 20
84.6492
 30
0.000000
  70
    32
  0
VERTEX
  8
0
  5
AAE7
 10
98.6589
 20
84.6414
 30
0.000000
  70
    32
  0
VERTEX
  8
0
  5
AAE8
 10
98.6972
 20
84.6336
 30
0.000000
  70
    32
  0
VERTEX
  8
0
  5
AAE9
 10
98.7355
 20
84.6258
 30
0.000000
  70
    32
  0
VERTEX
  8
0
  5
AAEA
 10
98.7737
 20
84.6180
 30
0.000000
  70
    32
  0
VERTEX
  8
0
  5
AAEB
 10
98.8120
 20
84.6103
 30
0.000000
  70
    32
  0
VERTEX
  8
0
  5
AAEC
 10
98.8503
 20
84.6026
 30
0.000000
  70
    32
  0
VERTEX
  8
0
  5
AAED
 10
98.8886
 20
84.5950
 30
0.000000
  70
    32
  0
VERTEX
  8
0
  5
AAEE
 10
98.9269
 20
84.5873
 30
0.000000
  70
    32
  0
VERTEX
  8
0
  5
AAEF
 10
98.9652
 20
84.5797
 30
0.000000
  70
    32
  0
VERTEX
  8
0
  5
AAF0
 10
99.0035
 20
84.5722
 30
0.000000
  70
    32
  0
VERTEX
  8
0
  5
AAF1
 10
99.0418
 20
84.5646
 30
0.000000
  70
    32
  0
VERTEX
  8
0
  5
AAF2
 10
99.0802
 20
84.5571
 30
0.000000
  70
    32
  0
VERTEX
  8
0
  5
AAF3
 10
99.1185
 20
84.5497
 30
0.000000
  70
    32
  0
VERTEX
  8
0
  5
AAF4
 10
99.1568
 20
84.5422
 30
0.000000
  70
    32
  0
VERTEX
  8
0
  5
AAF5
 10
99.1952
 20
84.5348
 30
0.000000
  70
    32
  0
VERTEX
  8
0
  5
AAF6
 10
99.2335
 20
84.5274
 30
0.000000
  70
    32
  0
VERTEX
  8
0
  5
AAF7
 10
99.2719
 20
84.5201
 30
0.000000
  70
    32
  0
VERTEX
  8
0
  5
AAF8
 10
99.3102
 20
84.5127
 30
0.000000
  70
    32
  0
VERTEX
  8
0
  5
AAF9
 10
99.3486
 20
84.5055
 30
0.000000
  70
    32
  0
VERTEX
  8
0
  5
AAFA
 10
99.3869
 20
84.4982
 30
0.000000
  70
    32
  0
VERTEX
  8
0
  5
AAFB
 10
99.4253
 20
84.4910
 30
0.000000
  70
    32
  0
VERTEX
  8
0
  5
AAFC
 10
99.4637
 20
84.4838
 30
0.000000
  70
    32
  0
VERTEX
  8
0
  5
AAFD
 10
99.5021
 20
84.4766
 30
0.000000
  70
    32
  0
VERTEX
  8
0
  5
AAFE
 10
99.5405
 20
84.4695
 30
0.000000
  70
    32
  0
VERTEX
  8
0
  5
AAFF
 10
99.5789
 20
84.4624
 30
0.000000
  70
    32
  0
VERTEX
  8
0
  5
AB00
 10
99.6173
 20
84.4553
 30
0.000000
  70
    32
  0
VERTEX
  8
0
  5
AB01
 10
99.6557
 20
84.4482
 30
0.000000
  70
    32
  0
VERTEX
  8
0
  5
AB02
 10
99.6941
 20
84.4412
 30
0.000000
  70
    32
  0
VERTEX
  8
0
  5
AB03
 10
99.7325
 20
84.4342
 30
0.000000
  70
    32
  0
VERTEX
  8
0
  5
AB04
 10
99.7709
 20
84.4273
 30
0.000000
  70
    32
  0
VERTEX
  8
0
  5
AB05
 10
99.8094
 20
84.4204
 30
0.000000
  70
    32
  0
VERTEX
  8
0
  5
AB06
 10
99.8478
 20
84.4135
 30
0.000000
  70
    32
  0
VERTEX
  8
0
  5
AB07
 10
99.8863
 20
84.4066
 30
0.000000
  70
    32
  0
VERTEX
  8
0
  5
AB08
 10
99.9247
 20
84.3998
 30
0.000000
  70
    32
  0
VERTEX
  8
0
  5
AB09
 10
99.9632
 20
84.3930
 30
0.000000
  70
    32
  0
VERTEX
  8
0
  5
AB0A
 10
100.002
 20
84.3862
 30
0.000000
  70
    32
  0
VERTEX
  8
0
  5
AB0B
 10
100.040
 20
84.3795
 30
0.000000
  70
    32
  0
VERTEX
  8
0
  5
AB0C
 10
100.079
 20
84.3728
 30
0.000000
  70
    32
  0
VERTEX
  8
0
  5
AB0D
 10
100.117
 20
84.3661
 30
0.000000
  70
    32
  0
VERTEX
  8
0
  5
AB0E
 10
100.156
 20
84.3595
 30
0.000000
  70
    32
  0
VERTEX
  8
0
  5
AB0F
 10
100.194
 20
84.3529
 30
0.000000
  70
    32
  0
SEQEND
  8
0
  5
AB10
  0
LINE
  5
4FF9
  8
0
 10
116.0100063651646
 20
84.293782935220577
 30
0.0
 11
116.0027882792795
 21
84.292651783476799
 31
0.0
  0
POLYLINE
  5
4FFA
  8
0
 10
92.268652214637427
 20
74.227601729080874
 30
0.0
 66
     1
 70
     8
  0
VERTEX
  8
0
  5
AB11
 10
92.2687
 20
74.2276
 30
0.000000
  70
    32
  0
VERTEX
  8
0
  5
AB12
 10
92.4980
 20
74.2332
 30
0.000000
  70
    32
  0
VERTEX
  8
0
  5
AB13
 10
92.7267
 20
74.2502
 30
0.000000
  70
    32
  0
VERTEX
  8
0
  5
AB14
 10
92.9544
 20
74.2783
 30
0.000000
  70
    32
  0
VERTEX
  8
0
  5
AB15
 10
93.1804
 20
74.3176
 30
0.000000
  70
    32
  0
VERTEX
  8
0
  5
AB16
 10
93.4042
 20
74.3680
 30
0.000000
  70
    32
  0
VERTEX
  8
0
  5
AB17
 10
93.6252
 20
74.4293
 30
0.000000
  70
    32
  0
VERTEX
  8
0
  5
AB18
 10
93.8430
 20
74.5014
 30
0.000000
  70
    32
  0
VERTEX
  8
0
  5
AB19
 10
94.0571
 20
74.5841
 30
0.000000
  70
    32
  0
VERTEX
  8
0
  5
AB1A
 10
94.2668
 20
74.6773
 30
0.000000
  70
    32
  0
VERTEX
  8
0
  5
AB1B
 10
94.4716
 20
74.7807
 30
0.000000
  70
    32
  0
VERTEX
  8
0
  5
AB1C
 10
94.6712
 20
74.8940
 30
0.000000
  70
    32
  0
VERTEX
  8
0
  5
AB1D
 10
94.8650
 20
75.0170
 30
0.000000
  70
    32
  0
VERTEX
  8
0
  5
AB1E
 10
95.0525
 20
75.1493
 30
0.000000
  70
    32
  0
VERTEX
  8
0
  5
AB1F
 10
95.2334
 20
75.2908
 30
0.000000
  70
    32
  0
VERTEX
  8
0
  5
AB20
 10
95.4071
 20
75.4409
 30
0.000000
  70
    32
  0
VERTEX
  8
0
  5
AB21
 10
95.5732
 20
75.5994
 30
0.000000
  70
    32
  0
VERTEX
  8
0
  5
AB22
 10
95.7314
 20
75.7659
 30
0.000000
  70
    32
  0
VERTEX
  8
0
  5
AB23
 10
95.8812
 20
75.9400
 30
0.000000
  70
    32
  0
VERTEX
  8
0
  5
AB24
 10
96.0223
 20
76.1212
 30
0.000000
  70
    32
  0
VERTEX
  8
0
  5
AB25
 10
96.1544
 20
76.3092
 30
0.000000
  70
    32
  0
VERTEX
  8
0
  5
AB26
 10
96.2771
 20
76.5034
 30
0.000000
  70
    32
  0
VERTEX
  8
0
  5
AB27
 10
96.3902
 20
76.7034
 30
0.000000
  70
    32
  0
VERTEX
  8
0
  5
AB28
 10
96.4933
 20
76.9088
 30
0.000000
  70
    32
  0
VERTEX
  8
0
  5
AB29
 10
96.5862
 20
77.1190
 30
0.000000
  70
    32
  0
VERTEX
  8
0
  5
AB2A
 10
96.6688
 20
77.3334
 30
0.000000
  70
    32
  0
VERTEX
  8
0
  5
AB2B
 10
96.7407
 20
77.5517
 30
0.000000
  70
    32
  0
VERTEX
  8
0
  5
AB2C
 10
96.8019
 20
77.7733
 30
0.000000
  70
    32
  0
VERTEX
  8
0
  5
AB2D
 10
96.8522
 20
77.9976
 30
0.000000
  70
    32
  0
VERTEX
  8
0
  5
AB2E
 10
96.8914
 20
78.2241
 30
0.000000
  70
    32
  0
VERTEX
  8
0
  5
AB2F
 10
96.9195
 20
78.4523
 30
0.000000
  70
    32
  0
VERTEX
  8
0
  5
AB30
 10
96.9363
 20
78.6815
 30
0.000000
  70
    32
  0
VERTEX
  8
0
  5
AB31
 10
96.9420
 20
78.9114
 30
0.000000
  70
    32
  0
VERTEX
  8
0
  5
AB32
 10
96.9363
 20
79.1412
 30
0.000000
  70
    32
  0
VERTEX
  8
0
  5
AB33
 10
96.9195
 20
79.3704
 30
0.000000
  70
    32
  0
VERTEX
  8
0
  5
AB34
 10
96.8914
 20
79.5986
 30
0.000000
  70
    32
  0
VERTEX
  8
0
  5
AB35
 10
96.8522
 20
79.8251
 30
0.000000
  70
    32
  0
VERTEX
  8
0
  5
AB36
 10
96.8019
 20
80.0494
 30
0.000000
  70
    32
  0
VERTEX
  8
0
  5
AB37
 10
96.7407
 20
80.2710
 30
0.000000
  70
    32
  0
VERTEX
  8
0
  5
AB38
 10
96.6688
 20
80.4893
 30
0.000000
  70
    32
  0
VERTEX
  8
0
  5
AB39
 10
96.5862
 20
80.7037
 30
0.000000
  70
    32
  0
VERTEX
  8
0
  5
AB3A
 10
96.4933
 20
80.9139
 30
0.000000
  70
    32
  0
VERTEX
  8
0
  5
AB3B
 10
96.3902
 20
81.1193
 30
0.000000
  70
    32
  0
VERTEX
  8
0
  5
AB3C
 10
96.2771
 20
81.3193
 30
0.000000
  70
    32
  0
VERTEX
  8
0
  5
AB3D
 10
96.1544
 20
81.5135
 30
0.000000
  70
    32
  0
VERTEX
  8
0
  5
AB3E
 10
96.0223
 20
81.7015
 30
0.000000
  70
    32
  0
VERTEX
  8
0
  5
AB3F
 10
95.8812
 20
81.8827
 30
0.000000
  70
    32
  0
VERTEX
  8
0
  5
AB40
 10
95.7314
 20
82.0568
 30
0.000000
  70
    32
  0
VERTEX
  8
0
  5
AB41
 10
95.5732
 20
82.2233
 30
0.000000
  70
    32
  0
VERTEX
  8
0
  5
AB42
 10
95.4071
 20
82.3818
 30
0.000000
  70
    32
  0
VERTEX
  8
0
  5
AB43
 10
95.2334
 20
82.5319
 30
0.000000
  70
    32
  0
VERTEX
  8
0
  5
AB44
 10
95.0525
 20
82.6734
 30
0.000000
  70
    32
  0
VERTEX
  8
0
  5
AB45
 10
94.8650
 20
82.8057
 30
0.000000
  70
    32
  0
VERTEX
  8
0
  5
AB46
 10
94.6712
 20
82.9287
 30
0.000000
  70
    32
  0
VERTEX
  8
0
  5
AB47
 10
94.4716
 20
83.0420
 30
0.000000
  70
    32
  0
VERTEX
  8
0
  5
AB48
 10
94.2668
 20
83.1454
 30
0.000000
  70
    32
  0
VERTEX
  8
0
  5
AB49
 10
94.0571
 20
83.2386
 30
0.000000
  70
    32
  0
VERTEX
  8
0
  5
AB4A
 10
93.8430
 20
83.3213
 30
0.000000
  70
    32
  0
VERTEX
  8
0
  5
AB4B
 10
93.6252
 20
83.3934
 30
0.000000
  70
    32
  0
VERTEX
  8
0
  5
AB4C
 10
93.4042
 20
83.4547
 30
0.000000
  70
    32
  0
VERTEX
  8
0
  5
AB4D
 10
93.1804
 20
83.5051
 30
0.000000
  70
    32
  0
VERTEX
  8
0
  5
AB4E
 10
92.9544
 20
83.5444
 30
0.000000
  70
    32
  0
VERTEX
  8
0
  5
AB4F
 10
92.7267
 20
83.5725
 30
0.000000
  70
    32
  0
VERTEX
  8
0
  5
AB50
 10
92.4980
 20
83.5895
 30
0.000000
  70
    32
  0
VERTEX
  8
0
  5
AB51
 10
92.2687
 20
83.5951
 30
0.000000
  70
    32
  0
VERTEX
  8
0
  5
AB52
 10
92.0393
 20
83.5895
 30
0.000000
  70
    32
  0
VERTEX
  8
0
  5
AB53
 10
91.8106
 20
83.5725
 30
0.000000
  70
    32
  0
VERTEX
  8
0
  5
AB54
 10
91.5829
 20
83.5444
 30
0.000000
  70
    32
  0
VERTEX
  8
0
  5
AB55
 10
91.3569
 20
83.5051
 30
0.000000
  70
    32
  0
VERTEX
  8
0
  5
AB56
 10
91.1331
 20
83.4547
 30
0.000000
  70
    32
  0
VERTEX
  8
0
  5
AB57
 10
90.9121
 20
83.3934
 30
0.000000
  70
    32
  0
VERTEX
  8
0
  5
AB58
 10
90.6943
 20
83.3213
 30
0.000000
  70
    32
  0
VERTEX
  8
0
  5
AB59
 10
90.4802
 20
83.2386
 30
0.000000
  70
    32
  0
VERTEX
  8
0
  5
AB5A
 10
90.2705
 20
83.1454
 30
0.000000
  70
    32
  0
VERTEX
  8
0
  5
AB5B
 10
90.0657
 20
83.0420
 30
0.000000
  70
    32
  0
VERTEX
  8
0
  5
AB5C
 10
89.8661
 20
82.9287
 30
0.000000
  70
    32
  0
VERTEX
  8
0
  5
AB5D
 10
89.6723
 20
82.8057
 30
0.000000
  70
    32
  0
VERTEX
  8
0
  5
AB5E
 10
89.4848
 20
82.6734
 30
0.000000
  70
    32
  0
VERTEX
  8
0
  5
AB5F
 10
89.3039
 20
82.5319
 30
0.000000
  70
    32
  0
VERTEX
  8
0
  5
AB60
 10
89.1302
 20
82.3818
 30
0.000000
  70
    32
  0
VERTEX
  8
0
  5
AB61
 10
88.9641
 20
82.2233
 30
0.000000
  70
    32
  0
VERTEX
  8
0
  5
AB62
 10
88.8059
 20
82.0568
 30
0.000000
  70
    32
  0
VERTEX
  8
0
  5
AB63
 10
88.6561
 20
81.8827
 30
0.000000
  70
    32
  0
VERTEX
  8
0
  5
AB64
 10
88.5150
 20
81.7015
 30
0.000000
  70
    32
  0
VERTEX
  8
0
  5
AB65
 10
88.3829
 20
81.5135
 30
0.000000
  70
    32
  0
VERTEX
  8
0
  5
AB66
 10
88.2602
 20
81.3193
 30
0.000000
  70
    32
  0
VERTEX
  8
0
  5
AB67
 10
88.1471
 20
81.1193
 30
0.000000
  70
    32
  0
VERTEX
  8
0
  5
AB68
 10
88.0440
 20
80.9139
 30
0.000000
  70
    32
  0
VERTEX
  8
0
  5
AB69
 10
87.9511
 20
80.7037
 30
0.000000
  70
    32
  0
VERTEX
  8
0
  5
AB6A
 10
87.8685
 20
80.4893
 30
0.000000
  70
    32
  0
VERTEX
  8
0
  5
AB6B
 10
87.7966
 20
80.2710
 30
0.000000
  70
    32
  0
VERTEX
  8
0
  5
AB6C
 10
87.7354
 20
80.0494
 30
0.000000
  70
    32
  0
VERTEX
  8
0
  5
AB6D
 10
87.6851
 20
79.8251
 30
0.000000
  70
    32
  0
VERTEX
  8
0
  5
AB6E
 10
87.6459
 20
79.5986
 30
0.000000
  70
    32
  0
VERTEX
  8
0
  5
AB6F
 10
87.6178
 20
79.3704
 30
0.000000
  70
    32
  0
VERTEX
  8
0
  5
AB70
 10
87.6010
 20
79.1412
 30
0.000000
  70
    32
  0
VERTEX
  8
0
  5
AB71
 10
87.5953
 20
78.9114
 30
0.000000
  70
    32
  0
VERTEX
  8
0
  5
AB72
 10
87.6010
 20
78.6815
 30
0.000000
  70
    32
  0
VERTEX
  8
0
  5
AB73
 10
87.6178
 20
78.4523
 30
0.000000
  70
    32
  0
VERTEX
  8
0
  5
AB74
 10
87.6459
 20
78.2241
 30
0.000000
  70
    32
  0
VERTEX
  8
0
  5
AB75
 10
87.6851
 20
77.9976
 30
0.000000
  70
    32
  0
VERTEX
  8
0
  5
AB76
 10
87.7354
 20
77.7733
 30
0.000000
  70
    32
  0
VERTEX
  8
0
  5
AB77
 10
87.7966
 20
77.5517
 30
0.000000
  70
    32
  0
VERTEX
  8
0
  5
AB78
 10
87.8685
 20
77.3334
 30
0.000000
  70
    32
  0
VERTEX
  8
0
  5
AB79
 10
87.9511
 20
77.1190
 30
0.000000
  70
    32
  0
VERTEX
  8
0
  5
AB7A
 10
88.0440
 20
76.9088
 30
0.000000
  70
    32
  0
VERTEX
  8
0
  5
AB7B
 10
88.1471
 20
76.7034
 30
0.000000
  70
    32
  0
VERTEX
  8
0
  5
AB7C
 10
88.2602
 20
76.5034
 30
0.000000
  70
    32
  0
VERTEX
  8
0
  5
AB7D
 10
88.3829
 20
76.3092
 30
0.000000
  70
    32
  0
VERTEX
  8
0
  5
AB7E
 10
88.5150
 20
76.1212
 30
0.000000
  70
    32
  0
VERTEX
  8
0
  5
AB7F
 10
88.6561
 20
75.9400
 30
0.000000
  70
    32
  0
VERTEX
  8
0
  5
AB80
 10
88.8059
 20
75.7659
 30
0.000000
  70
    32
  0
VERTEX
  8
0
  5
AB81
 10
88.9641
 20
75.5994
 30
0.000000
  70
    32
  0
VERTEX
  8
0
  5
AB82
 10
89.1302
 20
75.4409
 30
0.000000
  70
    32
  0
VERTEX
  8
0
  5
AB83
 10
89.3039
 20
75.2908
 30
0.000000
  70
    32
  0
VERTEX
  8
0
  5
AB84
 10
89.4848
 20
75.1493
 30
0.000000
  70
    32
  0
VERTEX
  8
0
  5
AB85
 10
89.6723
 20
75.0170
 30
0.000000
  70
    32
  0
VERTEX
  8
0
  5
AB86
 10
89.8661
 20
74.8940
 30
0.000000
  70
    32
  0
VERTEX
  8
0
  5
AB87
 10
90.0657
 20
74.7807
 30
0.000000
  70
    32
  0
VERTEX
  8
0
  5
AB88
 10
90.2705
 20
74.6773
 30
0.000000
  70
    32
  0
VERTEX
  8
0
  5
AB89
 10
90.4802
 20
74.5841
 30
0.000000
  70
    32
  0
VERTEX
  8
0
  5
AB8A
 10
90.6943
 20
74.5014
 30
0.000000
  70
    32
  0
VERTEX
  8
0
  5
AB8B
 10
90.9121
 20
74.4293
 30
0.000000
  70
    32
  0
VERTEX
  8
0
  5
AB8C
 10
91.1331
 20
74.3680
 30
0.000000
  70
    32
  0
VERTEX
  8
0
  5
AB8D
 10
91.3569
 20
74.3176
 30
0.000000
  70
    32
  0
VERTEX
  8
0
  5
AB8E
 10
91.5829
 20
74.2783
 30
0.000000
  70
    32
  0
VERTEX
  8
0
  5
AB8F
 10
91.8106
 20
74.2502
 30
0.000000
  70
    32
  0
VERTEX
  8
0
  5
AB90
 10
92.0393
 20
74.2332
 30
0.000000
  70
    32
  0
VERTEX
  8
0
  5
AB91
 10
92.2687
 20
74.2276
 30
0.000000
  70
    32
  0
SEQEND
  8
0
  5
AB92
  0
POLYLINE
  5
4FFB
  8
0
 10
124.2953642794597
 20
83.595098726678486
 30
0.0
 66
     1
 70
     8
  0
VERTEX
  8
0
  5
AB93
 10
124.295
 20
83.5951
 30
0.000000
  70
    32
  0
VERTEX
  8
0
  5
AB94
 10
124.066
 20
83.5895
 30
0.000000
  70
    32
  0
VERTEX
  8
0
  5
AB95
 10
123.837
 20
83.5725
 30
0.000000
  70
    32
  0
VERTEX
  8
0
  5
AB96
 10
123.610
 20
83.5444
 30
0.000000
  70
    32
  0
VERTEX
  8
0
  5
AB97
 10
123.384
 20
83.5051
 30
0.000000
  70
    32
  0
VERTEX
  8
0
  5
AB98
 10
123.160
 20
83.4547
 30
0.000000
  70
    32
  0
VERTEX
  8
0
  5
AB99
 10
122.939
 20
83.3934
 30
0.000000
  70
    32
  0
VERTEX
  8
0
  5
AB9A
 10
122.721
 20
83.3213
 30
0.000000
  70
    32
  0
VERTEX
  8
0
  5
AB9B
 10
122.507
 20
83.2386
 30
0.000000
  70
    32
  0
VERTEX
  8
0
  5
AB9C
 10
122.297
 20
83.1454
 30
0.000000
  70
    32
  0
VERTEX
  8
0
  5
AB9D
 10
122.092
 20
83.0420
 30
0.000000
  70
    32
  0
VERTEX
  8
0
  5
AB9E
 10
121.893
 20
82.9287
 30
0.000000
  70
    32
  0
VERTEX
  8
0
  5
AB9F
 10
121.699
 20
82.8057
 30
0.000000
  70
    32
  0
VERTEX
  8
0
  5
ABA0
 10
121.511
 20
82.6734
 30
0.000000
  70
    32
  0
VERTEX
  8
0
  5
ABA1
 10
121.331
 20
82.5319
 30
0.000000
  70
    32
  0
VERTEX
  8
0
  5
ABA2
 10
121.157
 20
82.3818
 30
0.000000
  70
    32
  0
VERTEX
  8
0
  5
ABA3
 10
120.991
 20
82.2233
 30
0.000000
  70
    32
  0
VERTEX
  8
0
  5
ABA4
 10
120.833
 20
82.0568
 30
0.000000
  70
    32
  0
VERTEX
  8
0
  5
ABA5
 10
120.683
 20
81.8827
 30
0.000000
  70
    32
  0
VERTEX
  8
0
  5
ABA6
 10
120.542
 20
81.7015
 30
0.000000
  70
    32
  0
VERTEX
  8
0
  5
ABA7
 10
120.410
 20
81.5135
 30
0.000000
  70
    32
  0
VERTEX
  8
0
  5
ABA8
 10
120.287
 20
81.3193
 30
0.000000
  70
    32
  0
VERTEX
  8
0
  5
ABA9
 10
120.174
 20
81.1193
 30
0.000000
  70
    32
  0
VERTEX
  8
0
  5
ABAA
 10
120.071
 20
80.9139
 30
0.000000
  70
    32
  0
VERTEX
  8
0
  5
ABAB
 10
119.978
 20
80.7037
 30
0.000000
  70
    32
  0
VERTEX
  8
0
  5
ABAC
 10
119.895
 20
80.4893
 30
0.000000
  70
    32
  0
VERTEX
  8
0
  5
ABAD
 10
119.823
 20
80.2710
 30
0.000000
  70
    32
  0
VERTEX
  8
0
  5
ABAE
 10
119.762
 20
80.0494
 30
0.000000
  70
    32
  0
VERTEX
  8
0
  5
ABAF
 10
119.712
 20
79.8251
 30
0.000000
  70
    32
  0
VERTEX
  8
0
  5
ABB0
 10
119.673
 20
79.5986
 30
0.000000
  70
    32
  0
VERTEX
  8
0
  5
ABB1
 10
119.645
 20
79.3704
 30
0.000000
  70
    32
  0
VERTEX
  8
0
  5
ABB2
 10
119.628
 20
79.1412
 30
0.000000
  70
    32
  0
VERTEX
  8
0
  5
ABB3
 10
119.622
 20
78.9114
 30
0.000000
  70
    32
  0
VERTEX
  8
0
  5
ABB4
 10
119.628
 20
78.6815
 30
0.000000
  70
    32
  0
VERTEX
  8
0
  5
ABB5
 10
119.645
 20
78.4523
 30
0.000000
  70
    32
  0
VERTEX
  8
0
  5
ABB6
 10
119.673
 20
78.2241
 30
0.000000
  70
    32
  0
VERTEX
  8
0
  5
ABB7
 10
119.712
 20
77.9976
 30
0.000000
  70
    32
  0
VERTEX
  8
0
  5
ABB8
 10
119.762
 20
77.7733
 30
0.000000
  70
    32
  0
VERTEX
  8
0
  5
ABB9
 10
119.823
 20
77.5517
 30
0.000000
  70
    32
  0
VERTEX
  8
0
  5
ABBA
 10
119.895
 20
77.3334
 30
0.000000
  70
    32
  0
VERTEX
  8
0
  5
ABBB
 10
119.978
 20
77.1190
 30
0.000000
  70
    32
  0
VERTEX
  8
0
  5
ABBC
 10
120.071
 20
76.9088
 30
0.000000
  70
    32
  0
VERTEX
  8
0
  5
ABBD
 10
120.174
 20
76.7034
 30
0.000000
  70
    32
  0
VERTEX
  8
0
  5
ABBE
 10
120.287
 20
76.5034
 30
0.000000
  70
    32
  0
VERTEX
  8
0
  5
ABBF
 10
120.410
 20
76.3092
 30
0.000000
  70
    32
  0
VERTEX
  8
0
  5
ABC0
 10
120.542
 20
76.1212
 30
0.000000
  70
    32
  0
VERTEX
  8
0
  5
ABC1
 10
120.683
 20
75.9400
 30
0.000000
  70
    32
  0
VERTEX
  8
0
  5
ABC2
 10
120.833
 20
75.7659
 30
0.000000
  70
    32
  0
VERTEX
  8
0
  5
ABC3
 10
120.991
 20
75.5994
 30
0.000000
  70
    32
  0
VERTEX
  8
0
  5
ABC4
 10
121.157
 20
75.4409
 30
0.000000
  70
    32
  0
VERTEX
  8
0
  5
ABC5
 10
121.331
 20
75.2908
 30
0.000000
  70
    32
  0
VERTEX
  8
0
  5
ABC6
 10
121.511
 20
75.1493
 30
0.000000
  70
    32
  0
VERTEX
  8
0
  5
ABC7
 10
121.699
 20
75.0170
 30
0.000000
  70
    32
  0
VERTEX
  8
0
  5
ABC8
 10
121.893
 20
74.8940
 30
0.000000
  70
    32
  0
VERTEX
  8
0
  5
ABC9
 10
122.092
 20
74.7807
 30
0.000000
  70
    32
  0
VERTEX
  8
0
  5
ABCA
 10
122.297
 20
74.6773
 30
0.000000
  70
    32
  0
VERTEX
  8
0
  5
ABCB
 10
122.507
 20
74.5841
 30
0.000000
  70
    32
  0
VERTEX
  8
0
  5
ABCC
 10
122.721
 20
74.5014
 30
0.000000
  70
    32
  0
VERTEX
  8
0
  5
ABCD
 10
122.939
 20
74.4293
 30
0.000000
  70
    32
  0
VERTEX
  8
0
  5
ABCE
 10
123.160
 20
74.3680
 30
0.000000
  70
    32
  0
VERTEX
  8
0
  5
ABCF
 10
123.384
 20
74.3176
 30
0.000000
  70
    32
  0
VERTEX
  8
0
  5
ABD0
 10
123.610
 20
74.2783
 30
0.000000
  70
    32
  0
VERTEX
  8
0
  5
ABD1
 10
123.837
 20
74.2502
 30
0.000000
  70
    32
  0
VERTEX
  8
0
  5
ABD2
 10
124.066
 20
74.2332
 30
0.000000
  70
    32
  0
VERTEX
  8
0
  5
ABD3
 10
124.295
 20
74.2276
 30
0.000000
  70
    32
  0
VERTEX
  8
0
  5
ABD4
 10
124.525
 20
74.2332
 30
0.000000
  70
    32
  0
VERTEX
  8
0
  5
ABD5
 10
124.753
 20
74.2502
 30
0.000000
  70
    32
  0
VERTEX
  8
0
  5
ABD6
 10
124.981
 20
74.2783
 30
0.000000
  70
    32
  0
VERTEX
  8
0
  5
ABD7
 10
125.207
 20
74.3176
 30
0.000000
  70
    32
  0
VERTEX
  8
0
  5
ABD8
 10
125.431
 20
74.3680
 30
0.000000
  70
    32
  0
VERTEX
  8
0
  5
ABD9
 10
125.652
 20
74.4293
 30
0.000000
  70
    32
  0
VERTEX
  8
0
  5
ABDA
 10
125.870
 20
74.5014
 30
0.000000
  70
    32
  0
VERTEX
  8
0
  5
ABDB
 10
126.084
 20
74.5841
 30
0.000000
  70
    32
  0
VERTEX
  8
0
  5
ABDC
 10
126.293
 20
74.6773
 30
0.000000
  70
    32
  0
VERTEX
  8
0
  5
ABDD
 10
126.498
 20
74.7807
 30
0.000000
  70
    32
  0
VERTEX
  8
0
  5
ABDE
 10
126.698
 20
74.8940
 30
0.000000
  70
    32
  0
VERTEX
  8
0
  5
ABDF
 10
126.892
 20
75.0170
 30
0.000000
  70
    32
  0
VERTEX
  8
0
  5
ABE0
 10
127.079
 20
75.1493
 30
0.000000
  70
    32
  0
VERTEX
  8
0
  5
ABE1
 10
127.260
 20
75.2908
 30
0.000000
  70
    32
  0
VERTEX
  8
0
  5
ABE2
 10
127.434
 20
75.4409
 30
0.000000
  70
    32
  0
VERTEX
  8
0
  5
ABE3
 10
127.600
 20
75.5994
 30
0.000000
  70
    32
  0
VERTEX
  8
0
  5
ABE4
 10
127.758
 20
75.7659
 30
0.000000
  70
    32
  0
VERTEX
  8
0
  5
ABE5
 10
127.908
 20
75.9400
 30
0.000000
  70
    32
  0
VERTEX
  8
0
  5
ABE6
 10
128.049
 20
76.1212
 30
0.000000
  70
    32
  0
VERTEX
  8
0
  5
ABE7
 10
128.181
 20
76.3092
 30
0.000000
  70
    32
  0
VERTEX
  8
0
  5
ABE8
 10
128.304
 20
76.5034
 30
0.000000
  70
    32
  0
VERTEX
  8
0
  5
ABE9
 10
128.417
 20
76.7034
 30
0.000000
  70
    32
  0
VERTEX
  8
0
  5
ABEA
 10
128.520
 20
76.9088
 30
0.000000
  70
    32
  0
VERTEX
  8
0
  5
ABEB
 10
128.613
 20
77.1190
 30
0.000000
  70
    32
  0
VERTEX
  8
0
  5
ABEC
 10
128.696
 20
77.3334
 30
0.000000
  70
    32
  0
VERTEX
  8
0
  5
ABED
 10
128.767
 20
77.5517
 30
0.000000
  70
    32
  0
VERTEX
  8
0
  5
ABEE
 10
128.829
 20
77.7733
 30
0.000000
  70
    32
  0
VERTEX
  8
0
  5
ABEF
 10
128.879
 20
77.9976
 30
0.000000
  70
    32
  0
VERTEX
  8
0
  5
ABF0
 10
128.918
 20
78.2241
 30
0.000000
  70
    32
  0
VERTEX
  8
0
  5
ABF1
 10
128.946
 20
78.4523
 30
0.000000
  70
    32
  0
VERTEX
  8
0
  5
ABF2
 10
128.963
 20
78.6815
 30
0.000000
  70
    32
  0
VERTEX
  8
0
  5
ABF3
 10
128.969
 20
78.9114
 30
0.000000
  70
    32
  0
VERTEX
  8
0
  5
ABF4
 10
128.963
 20
79.1412
 30
0.000000
  70
    32
  0
VERTEX
  8
0
  5
ABF5
 10
128.946
 20
79.3704
 30
0.000000
  70
    32
  0
VERTEX
  8
0
  5
ABF6
 10
128.918
 20
79.5986
 30
0.000000
  70
    32
  0
VERTEX
  8
0
  5
ABF7
 10
128.879
 20
79.8251
 30
0.000000
  70
    32
  0
VERTEX
  8
0
  5
ABF8
 10
128.829
 20
80.0494
 30
0.000000
  70
    32
  0
VERTEX
  8
0
  5
ABF9
 10
128.767
 20
80.2710
 30
0.000000
  70
    32
  0
VERTEX
  8
0
  5
ABFA
 10
128.696
 20
80.4893
 30
0.000000
  70
    32
  0
VERTEX
  8
0
  5
ABFB
 10
128.613
 20
80.7037
 30
0.000000
  70
    32
  0
VERTEX
  8
0
  5
ABFC
 10
128.520
 20
80.9139
 30
0.000000
  70
    32
  0
VERTEX
  8
0
  5
ABFD
 10
128.417
 20
81.1193
 30
0.000000
  70
    32
  0
VERTEX
  8
0
  5
ABFE
 10
128.304
 20
81.3193
 30
0.000000
  70
    32
  0
VERTEX
  8
0
  5
ABFF
 10
128.181
 20
81.5135
 30
0.000000
  70
    32
  0
VERTEX
  8
0
  5
AC00
 10
128.049
 20
81.7015
 30
0.000000
  70
    32
  0
VERTEX
  8
0
  5
AC01
 10
127.908
 20
81.8827
 30
0.000000
  70
    32
  0
VERTEX
  8
0
  5
AC02
 10
127.758
 20
82.0568
 30
0.000000
  70
    32
  0
VERTEX
  8
0
  5
AC03
 10
127.600
 20
82.2233
 30
0.000000
  70
    32
  0
VERTEX
  8
0
  5
AC04
 10
127.434
 20
82.3818
 30
0.000000
  70
    32
  0
VERTEX
  8
0
  5
AC05
 10
127.260
 20
82.5319
 30
0.000000
  70
    32
  0
VERTEX
  8
0
  5
AC06
 10
127.079
 20
82.6734
 30
0.000000
  70
    32
  0
VERTEX
  8
0
  5
AC07
 10
126.892
 20
82.8057
 30
0.000000
  70
    32
  0
VERTEX
  8
0
  5
AC08
 10
126.698
 20
82.9287
 30
0.000000
  70
    32
  0
VERTEX
  8
0
  5
AC09
 10
126.498
 20
83.0420
 30
0.000000
  70
    32
  0
VERTEX
  8
0
  5
AC0A
 10
126.293
 20
83.1454
 30
0.000000
  70
    32
  0
VERTEX
  8
0
  5
AC0B
 10
126.084
 20
83.2386
 30
0.000000
  70
    32
  0
VERTEX
  8
0
  5
AC0C
 10
125.870
 20
83.3213
 30
0.000000
  70
    32
  0
VERTEX
  8
0
  5
AC0D
 10
125.652
 20
83.3934
 30
0.000000
  70
    32
  0
VERTEX
  8
0
  5
AC0E
 10
125.431
 20
83.4547
 30
0.000000
  70
    32
  0
VERTEX
  8
0
  5
AC0F
 10
125.207
 20
83.5051
 30
0.000000
  70
    32
  0
VERTEX
  8
0
  5
AC10
 10
124.981
 20
83.5444
 30
0.000000
  70
    32
  0
VERTEX
  8
0
  5
AC11
 10
124.753
 20
83.5725
 30
0.000000
  70
    32
  0
VERTEX
  8
0
  5
AC12
 10
124.525
 20
83.5895
 30
0.000000
  70
    32
  0
VERTEX
  8
0
  5
AC13
 10
124.295
 20
83.5951
 30
0.000000
  70
    32
  0
SEQEND
  8
0
  5
AC14
  0
LINE
  5
52F9
  8
1
 10
108.28200824704849
 20
108.3150409882401
 30
0.0
 11
108.28200824704849
 21
130.98776825223999
 31
0.0
  0
LINE
  5
52FA
  8
1
 10
136.28200824704851
 20
119.6514046202401
 30
0.0
 11
80.282008247048594
 21
119.6514046202401
 31
0.0
  0
ARC
  5
52FB
  8
0
 10
108.28200824704879
 20
119.6514046202401
 30
0.0
 40
23.500000000000281
 50
174.5473778497101
 51
185.45262198781111
  0
ARC
  5
52FC
  8
0
 10
108.2820082470482
 20
119.6514046202401
 30
0.0
 40
23.500000000000281
 50
354.54737784971019
 51
5.452621987811078
  0
POLYLINE
  5
5303
  8
0
 66
     1
 10
0.0
 20
0.0
 30
0.0
  0
VERTEX
  5
A883
  8
0
 10
100.193993179166
 20
117.08121245813579
 30
0.0
  0
VERTEX
  5
A884
  8
0
 10
100.2714760001066
 20
117.0853135532336
 30
0.0
  0
VERTEX
  5
A885
  8
0
 10
100.4288181069881
 20
117.0870320391527
 30
0.0
  0
VERTEX
  5
A886
  8
0
 10
100.58845483336989
 20
117.0797282149196
 30
0.0
  0
VERTEX
  5
A887
  8
0
 10
100.6688043889073
 20
117.0725851829053
 30
0.0
  0
VERTEX
  5
A888
  8
0
 10
100.7493351071427
 20
117.0630747471705
 30
0.0
  0
VERTEX
  5
A889
  8
0
 10
100.9104343297961
 20
117.0368810492886
 30
0.0
  0
VERTEX
  5
A88A
  8
0
 10
101.070739155583
 20
117.00108972586069
 30
0.0
  0
VERTEX
  5
A88B
  8
0
 10
101.22924340364411
 20
116.95577789783179
 30
0.0
  0
VERTEX
  5
A88C
  8
0
 10
101.3850180139253
 20
116.9011351557576
 30
0.0
  0
VERTEX
  5
A88D
  8
0
 10
101.53724547351349
 20
116.8374328242689
 30
0.0
  0
VERTEX
  5
A88E
  8
0
 10
101.6117486746822
 20
116.80231212653899
 30
0.0
  0
VERTEX
  5
A88F
  8
0
 10
101.6850325998831
 20
116.7650963279507
 30
0.0
  0
VERTEX
  5
A890
  8
0
 10
101.8275327037779
 20
116.6846765072804
 30
0.0
  0
VERTEX
  5
A891
  8
0
 10
101.963976956602
 20
116.59683492102511
 30
0.0
  0
VERTEX
  5
A892
  8
0
 10
102.09365520928429
 20
116.5023571729419
 30
0.0
  0
VERTEX
  5
A893
  8
0
 10
102.21592649031329
 20
116.40215508552529
 30
0.0
  0
VERTEX
  5
A894
  8
0
 10
102.3195842625328
 20
116.3069513109825
 30
0.0
  0
SEQEND
  5
A895
  8
0
  0
LINE
  5
5305
  8
0
 10
116.3700233149311
 20
117.08121245813579
 30
0.0
 11
130.2820082470484
 21
116.1514046202401
 31
0.0
  0
POLYLINE
  5
5306
  8
0
 66
     1
 10
0.0
 20
0.0
 30
0.0
  0
VERTEX
  5
A896
  8
0
 10
130.2820082470484
 20
116.1514046202401
 30
0.0
  0
VERTEX
  5
A897
  8
0
 10
130.3490563996582
 20
116.1530110614621
 30
0.0
  0
VERTEX
  5
A898
  8
0
 10
130.47905552870421
 20
116.16534099659501
 30
0.0
  0
VERTEX
  5
A899
  8
0
 10
130.60307947289681
 20
116.188718571316
 30
0.0
  0
VERTEX
  5
A89A
  8
0
 10
130.66281100102259
 20
116.2041892467508
 30
0.0
  0
VERTEX
  5
A89B
  8
0
 10
130.72100227045351
 20
116.2220121847965
 30
0.0
  0
VERTEX
  5
A89C
  8
0
 10
130.83261698557681
 20
116.2642255273955
 30
0.0
  0
VERTEX
  5
A89D
  8
0
 10
130.9376514517437
 20
116.3144195806632
 30
0.0
  0
VERTEX
  5
A89E
  8
0
 10
131.03587102672321
 20
116.3717051206127
 30
0.0
  0
VERTEX
  5
A89F
  8
0
 10
131.12771015938949
 20
116.4357038200868
 30
0.0
  0
VERTEX
  5
A8A0
  8
0
 10
131.2134848337468
 20
116.50624847476089
 30
0.0
  0
VERTEX
  5
A8A1
  8
0
 10
131.2540158478231
 20
116.5438326753963
 30
0.0
  0
VERTEX
  5
A8A2
  8
0
 10
131.29293221667049
 20
116.58288372338571
 30
0.0
  0
VERTEX
  5
A8A3
  8
0
 10
131.36578986459361
 20
116.6651668386761
 30
0.0
  0
VERTEX
  5
A8A4
  8
0
 10
131.43179570074139
 20
116.7526626022327
 30
0.0
  0
VERTEX
  5
A8A5
  8
0
 10
131.49068796243691
 20
116.8449392314144
 30
0.0
  0
VERTEX
  5
A8A6
  8
0
 10
131.5422049369644
 20
116.9415650489387
 30
0.0
  0
VERTEX
  5
A8A7
  8
0
 10
131.58608436600849
 20
117.042105615766
 30
0.0
  0
VERTEX
  5
A8A8
  8
0
 10
131.6050776581389
 20
117.0937067576308
 30
0.0
  0
VERTEX
  5
A8A9
  8
0
 10
131.62206244140989
 20
117.14612106990209
 30
0.0
  0
VERTEX
  5
A8AA
  8
0
 10
131.64987234497741
 20
117.2531634265776
 30
0.0
  0
VERTEX
  5
A8AB
  8
0
 10
131.66924230712669
 20
117.36277359798
 30
0.0
  0
VERTEX
  5
A8AC
  8
0
 10
131.67567339908729
 20
117.41837287969349
 30
0.0
  0
SEQEND
  5
A8AD
  8
0
  0
LINE
  5
5307
  8
0
 10
100.193993179166
 20
122.22159678234441
 30
0.0
 11
86.282008247048566
 21
123.1514046202401
 31
0.0
  0
POLYLINE
  5
5308
  8
0
 66
     1
 10
0.0
 20
0.0
 30
0.0
  0
VERTEX
  5
A8AE
  8
0
 10
86.282008247048623
 20
123.1514046202401
 30
0.0
  0
VERTEX
  5
A8AF
  8
0
 10
86.214960094438993
 20
123.14979817901801
 30
0.0
  0
VERTEX
  5
A8B0
  8
0
 10
86.084960965392966
 20
123.13746824388519
 30
0.0
  0
VERTEX
  5
A8B1
  8
0
 10
85.960937021200337
 20
123.1140906691641
 30
0.0
  0
VERTEX
  5
A8B2
  8
0
 10
85.901205493074556
 20
123.0986199937293
 30
0.0
  0
VERTEX
  5
A8B3
  8
0
 10
85.843014223643578
 20
123.0807970556837
 30
0.0
  0
VERTEX
  5
A8B4
  8
0
 10
85.731399508520227
 20
123.03858371308461
 30
0.0
  0
VERTEX
  5
A8B5
  8
0
 10
85.626365042353385
 20
122.988389659817
 30
0.0
  0
VERTEX
  5
A8B6
  8
0
 10
85.528145467373832
 20
122.9311041198675
 30
0.0
  0
VERTEX
  5
A8B7
  8
0
 10
85.436306334707439
 20
122.8671054203933
 30
0.0
  0
VERTEX
  5
A8B8
  8
0
 10
85.350531660350285
 20
122.79656076571921
 30
0.0
  0
VERTEX
  5
A8B9
  8
0
 10
85.310000646273977
 20
122.7589765650839
 30
0.0
  0
VERTEX
  5
A8BA
  8
0
 10
85.271084277426525
 20
122.7199255170944
 30
0.0
  0
VERTEX
  5
A8BB
  8
0
 10
85.198226629503495
 20
122.637642401804
 30
0.0
  0
VERTEX
  5
A8BC
  8
0
 10
85.132220793355685
 20
122.5501466382475
 30
0.0
  0
VERTEX
  5
A8BD
  8
0
 10
85.073328531660167
 20
122.4578700090658
 30
0.0
  0
VERTEX
  5
A8BE
  8
0
 10
85.021811557132679
 20
122.3612441915414
 30
0.0
  0
VERTEX
  5
A8BF
  8
0
 10
84.977932128088611
 20
122.2607036247142
 30
0.0
  0
VERTEX
  5
A8C0
  8
0
 10
84.958938835958236
 20
122.2091024828494
 30
0.0
  0
VERTEX
  5
A8C1
  8
0
 10
84.941954052687208
 20
122.15668817057799
 30
0.0
  0
VERTEX
  5
A8C2
  8
0
 10
84.914144149119707
 20
122.0496458139025
 30
0.0
  0
VERTEX
  5
A8C3
  8
0
 10
84.894774186970324
 20
121.94003564250011
 30
0.0
  0
VERTEX
  5
A8C4
  8
0
 10
84.88834309500983
 20
121.88443636078669
 30
0.0
  0
SEQEND
  5
A8C5
  8
0
  0
POLYLINE
  5
5309
  8
0
 66
     1
 10
0.0
 20
0.0
 30
0.0
  0
VERTEX
  5
A8C6
  8
0
 10
131.67567340541959
 20
121.88443629444819
 30
0.0
  0
VERTEX
  5
A8C7
  8
0
 10
131.66924231618489
 20
121.94003557588481
 30
0.0
  0
VERTEX
  5
A8C8
  8
0
 10
131.64987235835579
 20
122.0496457525436
 30
0.0
  0
VERTEX
  5
A8C9
  8
0
 10
131.6220624583558
 20
122.15668811454699
 30
0.0
  0
VERTEX
  5
A8CA
  8
0
 10
131.6050776765972
 20
122.20910242949179
 30
0.0
  0
VERTEX
  5
A8CB
  8
0
 10
131.58608438580379
 20
122.2607035740277
 30
0.0
  0
VERTEX
  5
A8CC
  8
0
 10
131.54220495892349
 20
122.3612441461644
 30
0.0
  0
VERTEX
  5
A8CD
  8
0
 10
131.4906879859052
 20
122.4578699689143
 30
0.0
  0
VERTEX
  5
A8CE
  8
0
 10
131.4317957250947
 20
122.5501466031909
 30
0.0
  0
VERTEX
  5
A8CF
  8
0
 10
131.3657898892375
 20
122.6376423716669
 30
0.0
  0
VERTEX
  5
A8D0
  8
0
 10
131.29293224104029
 20
122.7199254916578
 30
0.0
  0
VERTEX
  5
A8D1
  8
0
 10
131.25401587185331
 20
122.7589765419019
 30
0.0
  0
VERTEX
  5
A8D2
  8
0
 10
131.21348485730729
 20
122.7965607447214
 30
0.0
  0
VERTEX
  5
A8D3
  8
0
 10
131.12771018163559
 20
122.8671054035309
 30
0.0
  0
VERTEX
  5
A8D4
  8
0
 10
131.03587104717889
 20
122.9311041067957
 30
0.0
  0
VERTEX
  5
A8D5
  8
0
 10
130.93765147033119
 20
122.988389649965
 30
0.0
  0
VERTEX
  5
A8D6
  8
0
 10
130.83261700180449
 20
123.038583706143
 30
0.0
  0
VERTEX
  5
A8D7
  8
0
 10
130.72100228383431
 20
123.08079705126509
 30
0.0
  0
VERTEX
  5
A8D8
  8
0
 10
130.66281101280501
 20
123.0986199903989
 30
0.0
  0
VERTEX
  5
A8D9
  8
0
 10
130.60307948296889
 20
123.114090666791
 30
0.0
  0
VERTEX
  5
A8DA
  8
0
 10
130.4790555350535
 20
123.13746824298249
 30
0.0
  0
VERTEX
  5
A8DB
  8
0
 10
130.34905640186949
 20
123.14979817891199
 30
0.0
  0
VERTEX
  5
A8DC
  8
0
 10
130.2820082470484
 20
123.1514046202401
 30
0.0
  0
SEQEND
  5
A8DD
  8
0
  0
LINE
  5
530A
  8
0
 10
86.282008247048566
 20
116.1514046202401
 30
0.0
 11
100.193993179166
 21
117.08121245813579
 31
0.0
  0
POLYLINE
  5
530B
  8
0
 66
     1
 10
0.0
 20
0.0
 30
0.0
  0
VERTEX
  5
A8DE
  8
0
 10
84.888343088677516
 20
117.41837294603199
 30
0.0
  0
VERTEX
  5
A8DF
  8
0
 10
84.894774177912211
 20
117.36277366459539
 30
0.0
  0
VERTEX
  5
A8E0
  8
0
 10
84.914144135741324
 20
117.2531634879366
 30
0.0
  0
VERTEX
  5
A8E1
  8
0
 10
84.941954035741304
 20
117.14612112593321
 30
0.0
  0
VERTEX
  5
A8E2
  8
0
 10
84.958938817499913
 20
117.09370681098839
 30
0.0
  0
VERTEX
  5
A8E3
  8
0
 10
84.977932108293274
 20
117.0421056664525
 30
0.0
  0
VERTEX
  5
A8E4
  8
0
 10
85.021811535173597
 20
116.94156509431581
 30
0.0
  0
VERTEX
  5
A8E5
  8
0
 10
85.073328508191864
 20
116.84493927156591
 30
0.0
  0
VERTEX
  5
A8E6
  8
0
 10
85.132220769002458
 20
116.75266263728921
 30
0.0
  0
VERTEX
  5
A8E7
  8
0
 10
85.198226604859613
 20
116.6651668688132
 30
0.0
  0
VERTEX
  5
A8E8
  8
0
 10
85.271084253056813
 20
116.5828837488223
 30
0.0
  0
VERTEX
  5
A8E9
  8
0
 10
85.310000622243834
 20
116.5438326985781
 30
0.0
  0
VERTEX
  5
A8EA
  8
0
 10
85.350531636789853
 20
116.5062484957587
 30
0.0
  0
VERTEX
  5
A8EB
  8
0
 10
85.436306312461625
 20
116.4357038369492
 30
0.0
  0
VERTEX
  5
A8EC
  8
0
 10
85.528145446918245
 20
116.3717051336844
 30
0.0
  0
VERTEX
  5
A8ED
  8
0
 10
85.626365023765985
 20
116.3144195905152
 30
0.0
  0
VERTEX
  5
A8EE
  8
0
 10
85.731399492292695
 20
116.2642255343371
 30
0.0
  0
VERTEX
  5
A8EF
  8
0
 10
85.843014210262865
 20
116.22201218921511
 30
0.0
  0
VERTEX
  5
A8F0
  8
0
 10
85.901205481292223
 20
116.2041892500812
 30
0.0
  0
VERTEX
  5
A8F1
  8
0
 10
85.960937011128237
 20
116.1887185736892
 30
0.0
  0
VERTEX
  5
A8F2
  8
0
 10
86.084960959043599
 20
116.16534099749759
 30
0.0
  0
VERTEX
  5
A8F3
  8
0
 10
86.214960092227614
 20
116.15301106156819
 30
0.0
  0
VERTEX
  5
A8F4
  8
0
 10
86.282008247048651
 20
116.1514046202401
 30
0.0
  0
SEQEND
  5
A8F5
  8
0
  0
LINE
  5
530C
  8
0
 10
130.2820082470484
 20
123.1514046202401
 30
0.0
 11
116.3700233149311
 21
122.22159678234441
 31
0.0
  0
POLYLINE
  5
530D
  8
0
 66
     1
 10
0.0
 20
0.0
 30
0.0
  0
VERTEX
  5
A8F6
  8
0
 10
116.3700233149311
 20
122.22159678234441
 30
0.0
  0
VERTEX
  5
A8F7
  8
0
 10
116.2925404939905
 20
122.2174956872466
 30
0.0
  0
VERTEX
  5
A8F8
  8
0
 10
116.135198387109
 20
122.2157772013274
 30
0.0
  0
VERTEX
  5
A8F9
  8
0
 10
115.97556166072719
 20
122.2230810255605
 30
0.0
  0
VERTEX
  5
A8FA
  8
0
 10
115.8952121051897
 20
122.2302240575748
 30
0.0
  0
VERTEX
  5
A8FB
  8
0
 10
115.8146813869544
 20
122.2397344933097
 30
0.0
  0
VERTEX
  5
A8FC
  8
0
 10
115.653582164301
 20
122.26592819119151
 30
0.0
  0
VERTEX
  5
A8FD
  8
0
 10
115.4932773385141
 20
122.30171951461941
 30
0.0
  0
VERTEX
  5
A8FE
  8
0
 10
115.334773090453
 20
122.34703134264841
 30
0.0
  0
VERTEX
  5
A8FF
  8
0
 10
115.1789984801718
 20
122.4016740847226
 30
0.0
  0
VERTEX
  5
A900
  8
0
 10
115.0267710205836
 20
122.4653764162113
 30
0.0
  0
VERTEX
  5
A901
  8
0
 10
114.9522678194149
 20
122.50049711394119
 30
0.0
  0
VERTEX
  5
A902
  8
0
 10
114.878983894214
 20
122.5377129125295
 30
0.0
  0
VERTEX
  5
A903
  8
0
 10
114.7364837903192
 20
122.6181327331998
 30
0.0
  0
VERTEX
  5
A904
  8
0
 10
114.60003953749511
 20
122.70597431945509
 30
0.0
  0
VERTEX
  5
A905
  8
0
 10
114.4703612848128
 20
122.8004520675383
 30
0.0
  0
VERTEX
  5
A906
  8
0
 10
114.3480900037838
 20
122.90065415495491
 30
0.0
  0
VERTEX
  5
A907
  8
0
 10
114.2444322315641
 20
122.9958579294979
 30
0.0
  0
SEQEND
  5
A908
  8
0
  0
LINE
  5
53C0
  8
1
 10
60.051080359811287
 20
36.111350227879711
 30
0.0
 11
60.051080359811287
 21
90.611350227879697
 31
0.0
  0
LINE
  5
53C1
  8
0
 10
63.150248068562178
 20
86.111350227879683
 30
0.0
 11
56.951912651060411
 21
86.111350227879683
 31
0.0
  0
LINE
  5
53C2
  8
0
 10
53.301080359811301
 20
84.079131107668104
 30
0.0
 11
53.301080359811301
 21
62.111350227879718
 31
0.0
  0
LINE
  5
53C3
  8
0
 10
66.80108035981128
 20
62.111350227879718
 30
0.0
 11
66.80108035981128
 21
84.079131107668104
 31
0.0
  0
LINE
  5
53C7
  8
0
 10
53.301080359811301
 20
84.079131107668104
 30
0.0
 11
56.259800193098329
 21
84.079131107668104
 31
0.0
  0
LINE
  5
53C8
  8
0
 10
63.842360526524253
 20
67.611350227879711
 30
0.0
 11
56.259800193098329
 21
67.611350227879711
 31
0.0
  0
LINE
  5
53C9
  8
0
 10
63.842360526524253
 20
84.079131107668104
 30
0.0
 11
66.80108035981128
 21
84.079131107668104
 31
0.0
  0
LINE
  5
53CA
  8
0
 10
66.80108035981128
 20
62.111350227879718
 30
0.0
 11
53.301080359811301
 21
62.111350227879718
 31
0.0
  0
POLYLINE
  5
53CB
  8
0
 66
     1
 10
0.0
 20
0.0
 30
0.0
  0
VERTEX
  5
A909
  8
0
 10
63.48582817698346
 20
84.086511393851382
 30
0.0
  0
VERTEX
  5
A90A
  8
0
 10
63.540589937139707
 20
84.084305332529524
 30
0.0
  0
VERTEX
  5
A90B
  8
0
 10
63.656619399850513
 20
84.081011538793447
 30
0.0
  0
VERTEX
  5
A90C
  8
0
 10
63.778978265937802
 20
84.079341574406186
 30
0.0
  0
VERTEX
  5
A90D
  8
0
 10
63.842360526524253
 20
84.079131107668104
 30
0.0
  0
SEQEND
  5
A90E
  8
0
  0
LINE
  5
53CC
  8
0
 10
63.842360526524253
 20
84.079131107668104
 30
0.0
 11
63.842360526524253
 21
67.611350227879711
 31
0.0
  0
POLYLINE
  5
53CD
  8
0
 66
     1
 10
0.0
 20
0.0
 30
0.0
  0
VERTEX
  5
A90F
  8
0
 10
63.842360526524253
 20
67.611350227879711
 30
0.0
  0
VERTEX
  5
A910
  8
0
 10
63.779284409353963
 20
67.611728389616076
 30
0.0
  0
VERTEX
  5
A911
  8
0
 10
63.657070061771009
 20
67.61474356741472
 30
0.0
  0
VERTEX
  5
A912
  8
0
 10
63.540305712558329
 20
67.620744670822035
 30
0.0
  0
VERTEX
  5
A913
  8
0
 10
63.484042418268643
 20
67.62485372818422
 30
0.0
  0
VERTEX
  5
A914
  8
0
 10
63.429231922696943
 20
67.629695030875268
 30
0.0
  0
VERTEX
  5
A915
  8
0
 10
63.324094722990857
 20
67.641551374854203
 30
0.0
  0
VERTEX
  5
A916
  8
0
 10
63.225435350868793
 20
67.656214949407342
 30
0.0
  0
VERTEX
  5
A917
  8
0
 10
63.133606845178491
 20
67.67357099649621
 30
0.0
  0
VERTEX
  5
A918
  8
0
 10
63.048752959472303
 20
67.693522874334164
 30
0.0
  0
VERTEX
  5
A919
  8
0
 10
62.971018378109477
 20
67.715972247422314
 30
0.0
  0
VERTEX
  5
A91A
  8
0
 10
62.934866086141007
 20
67.728102452010134
 30
0.0
  0
VERTEX
  5
A91B
  8
0
 10
62.900547884536962
 20
67.740819703843783
 30
0.0
  0
VERTEX
  5
A91C
  8
0
 10
62.83759829629868
 20
67.767911825049495
 30
0.0
  0
VERTEX
  5
A91D
  8
0
 10
62.782390292951497
 20
67.797066120331579
 30
0.0
  0
VERTEX
  5
A91E
  8
0
 10
62.734964505234501
 20
67.828161364692392
 30
0.0
  0
VERTEX
  5
A91F
  8
0
 10
62.695362347576157
 20
67.861079421541035
 30
0.0
  0
VERTEX
  5
A920
  8
0
 10
62.663625176549182
 20
67.895704913149928
 30
0.0
  0
VERTEX
  5
A921
  8
0
 10
62.650718568228712
 20
67.913622637559556
 30
0.0
  0
VERTEX
  5
A922
  8
0
 10
62.639798530490452
 20
67.931915072729964
 30
0.0
  0
VERTEX
  5
A923
  8
0
 10
62.623939829586021
 20
67.969515120476899
 30
0.0
  0
VERTEX
  5
A924
  8
0
 10
62.616027161738863
 20
68.008373774963275
 30
0.0
  0
VERTEX
  5
A925
  8
0
 10
62.615039706790377
 20
68.02824061546653
 30
0.0
  0
SEQEND
  5
A926
  8
0
  0
POLYLINE
  5
53CE
  8
0
 66
     1
 10
0.0
 20
0.0
 30
0.0
  0
VERTEX
  5
A927
  8
0
 10
62.615039706790377
 20
68.02824061546653
 30
0.0
  0
VERTEX
  5
A928
  8
0
 10
62.61521311279693
 20
68.036652528906473
 30
0.0
  0
VERTEX
  5
A929
  8
0
 10
62.616599386415139
 20
68.053616790958472
 30
0.0
  0
VERTEX
  5
A92A
  8
0
 10
62.61936942293022
 20
68.070761842436184
 30
0.0
  0
VERTEX
  5
A92B
  8
0
 10
62.6212725219156
 20
68.07939976408629
 30
0.0
  0
SEQEND
  5
A92C
  8
0
  0
POLYLINE
  5
53D0
  8
0
 66
     1
 10
0.0
 20
0.0
 30
0.0
  0
VERTEX
  5
A92D
  8
0
 10
63.387133777164649
 20
72.635866318374951
 30
0.0
  0
VERTEX
  5
A92E
  8
0
 10
63.37607870492117
 20
72.545927902735343
 30
0.0
  0
VERTEX
  5
A92F
  8
0
 10
63.35394274978519
 20
72.382084347975947
 30
0.0
  0
VERTEX
  5
A930
  8
0
 10
63.332064288544878
 20
72.240150110632541
 30
0.0
  0
VERTEX
  5
A931
  8
0
 10
63.320929732150987
 20
72.175136389662327
 30
0.0
  0
SEQEND
  5
A932
  8
0
  0
POLYLINE
  5
53D1
  8
0
 66
     1
 10
0.0
 20
0.0
 30
0.0
  0
VERTEX
  5
A933
  8
0
 10
56.951912651060411
 20
86.111350227879683
 30
0.0
  0
VERTEX
  5
A934
  8
0
 10
56.939396068032437
 20
86.108940709537862
 30
0.0
  0
VERTEX
  5
A935
  8
0
 10
56.913632785190913
 20
86.088773490337516
 30
0.0
  0
VERTEX
  5
A936
  8
0
 10
56.887261535266838
 20
86.046741167488847
 30
0.0
  0
VERTEX
  5
A937
  8
0
 10
56.873983161312736
 20
86.017267131889085
 30
0.0
  0
VERTEX
  5
A938
  8
0
 10
56.860714295922882
 20
85.982162883582987
 30
0.0
  0
VERTEX
  5
A939
  8
0
 10
56.834408503419077
 20
85.895509364681516
 30
0.0
  0
VERTEX
  5
A93A
  8
0
 10
56.808743840255488
 20
85.788394100420533
 30
0.0
  0
VERTEX
  5
A93B
  8
0
 10
56.784108535597753
 20
85.663599350519235
 30
0.0
  0
VERTEX
  5
A93C
  8
0
 10
56.760789830304461
 20
85.524517760443345
 30
0.0
  0
VERTEX
  5
A93D
  8
0
 10
56.737553434409648
 20
85.364312673046484
 30
0.0
  0
VERTEX
  5
A93E
  8
0
 10
56.725867321829242
 20
85.275078785758069
 30
0.0
  0
VERTEX
  5
A93F
  8
0
 10
56.71420983471765
 20
85.179962866761215
 30
0.0
  0
VERTEX
  5
A940
  8
0
 10
56.691188548490118
 20
84.973091028974977
 30
0.0
  0
VERTEX
  5
A941
  8
0
 10
56.668878678580967
 20
84.746344551273182
 30
0.0
  0
VERTEX
  5
A942
  8
0
 10
56.647620248924888
 20
84.503316828496452
 30
0.0
  0
VERTEX
  5
A943
  8
0
 10
56.62771431444969
 20
84.248653568014603
 30
0.0
  0
VERTEX
  5
A944
  8
0
 10
56.609409464993107
 20
83.987886778975565
 30
0.0
  0
VERTEX
  5
A945
  8
0
 10
56.600656964634233
 20
83.852997113970446
 30
0.0
  0
VERTEX
  5
A946
  8
0
 10
56.591964491438972
 20
83.711758724724177
 30
0.0
  0
VERTEX
  5
A947
  8
0
 10
56.574962758585798
 20
83.411915355524798
 30
0.0
  0
VERTEX
  5
A948
  8
0
 10
56.558772642062458
 20
83.092176770553905
 30
0.0
  0
VERTEX
  5
A949
  8
0
 10
56.551080359811287
 20
82.926250321807629
 30
0.0
  0
SEQEND
  5
A94A
  8
0
  0
POLYLINE
  5
53D2
  8
0
 66
     1
 10
0.0
 20
0.0
 30
0.0
  0
VERTEX
  5
A94B
  8
0
 10
56.551080359811287
 20
74.896450133951816
 30
0.0
  0
VERTEX
  5
A94C
  8
0
 10
56.555909292128412
 20
74.791131706105645
 30
0.0
  0
VERTEX
  5
A94D
  8
0
 10
56.565909181437419
 20
74.585000732322143
 30
0.0
  0
VERTEX
  5
A94E
  8
0
 10
56.576303971478822
 20
74.385890953407909
 30
0.0
  0
VERTEX
  5
A94F
  8
0
 10
56.581624127340632
 20
74.289320796233312
 30
0.0
  0
VERTEX
  5
A950
  8
0
 10
56.587011445716428
 20
74.194911485781731
 30
0.0
  0
VERTEX
  5
A951
  8
0
 10
56.597939740678271
 20
74.013045944455655
 30
0.0
  0
VERTEX
  5
A952
  8
0
 10
56.608987140074532
 20
73.841162470755648
 30
0.0
  0
VERTEX
  5
A953
  8
0
 10
56.62034759609503
 20
73.675710453572037
 30
0.0
  0
VERTEX
  5
A954
  8
0
 10
56.632379004582717
 20
73.511822081917501
 30
0.0
  0
VERTEX
  5
A955
  8
0
 10
56.645028118285161
 20
73.350983990950454
 30
0.0
  0
VERTEX
  5
A956
  8
0
 10
56.651564568198388
 20
73.272148790745405
 30
0.0
  0
VERTEX
  5
A957
  8
0
 10
56.658230792348832
 20
73.194585503936253
 30
0.0
  0
VERTEX
  5
A958
  8
0
 10
56.671914812628891
 20
73.043870326109015
 30
0.0
  0
VERTEX
  5
A959
  8
0
 10
56.685999870622652
 20
72.899932533469666
 30
0.0
  0
VERTEX
  5
A95A
  8
0
 10
56.700401579575242
 20
72.763676542439612
 30
0.0
  0
VERTEX
  5
A95B
  8
0
 10
56.715026942457897
 20
72.635866318375193
 30
0.0
  0
VERTEX
  5
A95C
  8
0
 10
56.729774669559902
 20
72.517117282594143
 30
0.0
  0
VERTEX
  5
A95D
  8
0
 10
56.73716125134834
 20
72.461285910974595
 30
0.0
  0
VERTEX
  5
A95E
  8
0
 10
56.744537866075689
 20
72.407873547621463
 30
0.0
  0
VERTEX
  5
A95F
  8
0
 10
56.759203524813159
 20
72.308416603044407
 30
0.0
  0
VERTEX
  5
A960
  8
0
 10
56.773769815514953
 20
72.218175839807657
 30
0.0
  0
VERTEX
  5
A961
  8
0
 10
56.781230987471602
 20
72.175136389662271
 30
0.0
  0
SEQEND
  5
A962
  8
0
  0
POLYLINE
  5
53D3
  8
0
 66
     1
 10
0.0
 20
0.0
 30
0.0
  0
VERTEX
  5
A963
  8
0
 10
56.781230987471602
 20
72.175136389662271
 30
0.0
  0
VERTEX
  5
A964
  8
0
 10
56.88954665721166
 20
71.378540215286307
 30
0.0
  0
VERTEX
  5
A965
  8
0
 10
57.118519354054513
 20
69.898118407990523
 30
0.0
  0
VERTEX
  5
A966
  8
0
 10
57.358729611726922
 20
68.623500921559966
 30
0.0
  0
VERTEX
  5
A967
  8
0
 10
57.480888197707003
 20
68.07939976408629
 30
0.0
  0
SEQEND
  5
A968
  8
0
  0
LINE
  5
53D4
  8
0
 10
56.551080359811287
 20
82.926250321807629
 30
0.0
 11
56.551080359811287
 21
74.896450133951816
 31
0.0
  0
POLYLINE
  5
53D7
  8
0
 66
     1
 10
0.0
 20
0.0
 30
0.0
  0
VERTEX
  5
A969
  8
0
 10
63.320929732150972
 20
72.175136389662271
 30
0.0
  0
VERTEX
  5
A96A
  8
0
 10
63.328390904107643
 20
72.218175839807657
 30
0.0
  0
VERTEX
  5
A96B
  8
0
 10
63.342957194809429
 20
72.308416603044407
 30
0.0
  0
VERTEX
  5
A96C
  8
0
 10
63.357622853546893
 20
72.407873547621463
 30
0.0
  0
VERTEX
  5
A96D
  8
0
 10
63.364999468274249
 20
72.461285910974595
 30
0.0
  0
VERTEX
  5
A96E
  8
0
 10
63.372386050062687
 20
72.517117282594143
 30
0.0
  0
VERTEX
  5
A96F
  8
0
 10
63.387133777164678
 20
72.635866318375193
 30
0.0
  0
VERTEX
  5
A970
  8
0
 10
63.401759140047353
 20
72.763676542439541
 30
0.0
  0
VERTEX
  5
A971
  8
0
 10
63.416160848999951
 20
72.899932533469666
 30
0.0
  0
VERTEX
  5
A972
  8
0
 10
63.430245906993683
 20
73.043870326109015
 30
0.0
  0
VERTEX
  5
A973
  8
0
 10
63.44392992727375
 20
73.194585503936253
 30
0.0
  0
VERTEX
  5
A974
  8
0
 10
63.450596151424207
 20
73.272148790745405
 30
0.0
  0
VERTEX
  5
A975
  8
0
 10
63.457132601337428
 20
73.350983990950454
 30
0.0
  0
VERTEX
  5
A976
  8
0
 10
63.469781715039872
 20
73.511822081917501
 30
0.0
  0
VERTEX
  5
A977
  8
0
 10
63.481813123527573
 20
73.675710453572037
 30
0.0
  0
VERTEX
  5
A978
  8
0
 10
63.493173579548063
 20
73.841162470755648
 30
0.0
  0
VERTEX
  5
A979
  8
0
 10
63.504220978944318
 20
74.013045944455655
 30
0.0
  0
VERTEX
  5
A97A
  8
0
 10
63.515149273906147
 20
74.194911485781731
 30
0.0
  0
VERTEX
  5
A97B
  8
0
 10
63.520536592281971
 20
74.289320796233312
 30
0.0
  0
VERTEX
  5
A97C
  8
0
 10
63.525856748143752
 20
74.385890953407909
 30
0.0
  0
VERTEX
  5
A97D
  8
0
 10
63.536251538185162
 20
74.585000732322143
 30
0.0
  0
VERTEX
  5
A97E
  8
0
 10
63.546251427494177
 20
74.791131706105645
 30
0.0
  0
VERTEX
  5
A97F
  8
0
 10
63.55108035981128
 20
74.896450133951816
 30
0.0
  0
SEQEND
  5
A980
  8
0
  0
POLYLINE
  5
53D8
  8
0
 66
     1
 10
0.0
 20
0.0
 30
0.0
  0
VERTEX
  5
A981
  8
0
 10
63.55108035981128
 20
82.926250321807629
 30
0.0
  0
VERTEX
  5
A982
  8
0
 10
63.543388077560138
 20
83.092176770553905
 30
0.0
  0
VERTEX
  5
A983
  8
0
 10
63.527197961036777
 20
83.411915355524798
 30
0.0
  0
VERTEX
  5
A984
  8
0
 10
63.510196228183609
 20
83.711758724724177
 30
0.0
  0
VERTEX
  5
A985
  8
0
 10
63.501503754988349
 20
83.852997113970446
 30
0.0
  0
VERTEX
  5
A986
  8
0
 10
63.492751254629468
 20
83.987886778975607
 30
0.0
  0
VERTEX
  5
A987
  8
0
 10
63.474446405172898
 20
84.248653568014674
 30
0.0
  0
VERTEX
  5
A988
  8
0
 10
63.454540470697708
 20
84.503316828496452
 30
0.0
  0
VERTEX
  5
A989
  8
0
 10
63.433282041041608
 20
84.746344551273182
 30
0.0
  0
VERTEX
  5
A98A
  8
0
 10
63.410972171132471
 20
84.973091028974977
 30
0.0
  0
VERTEX
  5
A98B
  8
0
 10
63.387950884904917
 20
85.179962866761215
 30
0.0
  0
VERTEX
  5
A98C
  8
0
 10
63.376293397793347
 20
85.275078785758069
 30
0.0
  0
VERTEX
  5
A98D
  8
0
 10
63.364607285212927
 20
85.364312673046484
 30
0.0
  0
VERTEX
  5
A98E
  8
0
 10
63.341370889318107
 20
85.524517760443345
 30
0.0
  0
VERTEX
  5
A98F
  8
0
 10
63.31805218402485
 20
85.663599350519235
 30
0.0
  0
VERTEX
  5
A990
  8
0
 10
63.293416879367101
 20
85.788394100420533
 30
0.0
  0
VERTEX
  5
A991
  8
0
 10
63.267752216203512
 20
85.895509364681516
 30
0.0
  0
VERTEX
  5
A992
  8
0
 10
63.241446423699699
 20
85.982162883582987
 30
0.0
  0
VERTEX
  5
A993
  8
0
 10
63.228177558309852
 20
86.017267131889085
 30
0.0
  0
VERTEX
  5
A994
  8
0
 10
63.214899184355737
 20
86.046741167488847
 30
0.0
  0
VERTEX
  5
A995
  8
0
 10
63.188527934431661
 20
86.088773490337516
 30
0.0
  0
VERTEX
  5
A996
  8
0
 10
63.162764651590138
 20
86.108940709537862
 30
0.0
  0
VERTEX
  5
A997
  8
0
 10
63.150248068562178
 20
86.111350227879683
 30
0.0
  0
SEQEND
  5
A998
  8
0
  0
POLYLINE
  5
53D9
  8
0
 66
     1
 10
0.0
 20
0.0
 30
0.0
  0
VERTEX
  5
A999
  8
0
 10
62.6212725219156
 20
68.07939976408629
 30
0.0
  0
VERTEX
  5
A99A
  8
0
 10
62.74343110789566
 20
68.623500921559966
 30
0.0
  0
VERTEX
  5
A99B
  8
0
 10
62.983641365568069
 20
69.898118407990523
 30
0.0
  0
VERTEX
  5
A99C
  8
0
 10
63.212614062410921
 20
71.378540215286307
 30
0.0
  0
VERTEX
  5
A99D
  8
0
 10
63.320929732150972
 20
72.175136389662271
 30
0.0
  0
SEQEND
  5
A99E
  8
0
  0
LINE
  5
53DB
  8
0
 10
63.55108035981128
 20
82.926250321807629
 30
0.0
 11
63.55108035981128
 21
74.896450133951816
 31
0.0
  0
POLYLINE
  5
53DD
  8
0
 66
     1
 10
0.0
 20
0.0
 30
0.0
  0
VERTEX
  5
A99F
  8
0
 10
56.781230987471602
 20
72.175136389662271
 30
0.0
  0
VERTEX
  5
A9A0
  8
0
 10
56.77009643107769
 20
72.240150110632612
 30
0.0
  0
VERTEX
  5
A9A1
  8
0
 10
56.748217969837349
 20
72.382084347976161
 30
0.0
  0
VERTEX
  5
A9A2
  8
0
 10
56.726082014701348
 20
72.545927902735741
 30
0.0
  0
VERTEX
  5
A9A3
  8
0
 10
56.715026942457868
 20
72.635866318375506
 30
0.0
  0
SEQEND
  5
A9A4
  8
0
  0
LINE
  5
53DF
  8
0
 10
56.259800193098329
 20
84.079131107668104
 30
0.0
 11
56.259800193098329
 21
67.611350227879711
 31
0.0
  0
POLYLINE
  5
53E0
  8
0
 66
     1
 10
0.0
 20
0.0
 30
0.0
  0
VERTEX
  5
A9A5
  8
0
 10
56.259800193098329
 20
84.079131107668104
 30
0.0
  0
VERTEX
  5
A9A6
  8
0
 10
56.321339357235431
 20
84.079329399586186
 30
0.0
  0
VERTEX
  5
A9A7
  8
0
 10
56.442313146210658
 20
84.080944752615906
 30
0.0
  0
VERTEX
  5
A9A8
  8
0
 10
56.559668135311078
 20
84.084236628493954
 30
0.0
  0
VERTEX
  5
A9A9
  8
0
 10
56.616332444317599
 20
84.086509993185061
 30
0.0
  0
SEQEND
  5
A9AA
  8
0
  0
POLYLINE
  5
53E1
  8
0
 66
     1
 10
0.0
 20
0.0
 30
0.0
  0
VERTEX
  5
A9AB
  8
0
 10
57.480888197707003
 20
68.07939976408629
 30
0.0
  0
VERTEX
  5
A9AC
  8
0
 10
57.482790809166922
 20
68.070764269814276
 30
0.0
  0
VERTEX
  5
A9AD
  8
0
 10
57.485560803184541
 20
68.053621139706252
 30
0.0
  0
VERTEX
  5
A9AE
  8
0
 10
57.486947507986933
 20
68.036654933032693
 30
0.0
  0
VERTEX
  5
A9AF
  8
0
 10
57.487121012832212
 20
68.02824061546653
 30
0.0
  0
SEQEND
  5
A9B0
  8
0
  0
POLYLINE
  5
53E2
  8
0
 66
     1
 10
0.0
 20
0.0
 30
0.0
  0
VERTEX
  5
A9B1
  8
0
 10
57.487121012832212
 20
68.02824061546653
 30
0.0
  0
VERTEX
  5
A9B2
  8
0
 10
57.48612947817481
 20
68.008333084167191
 30
0.0
  0
VERTEX
  5
A9B3
  8
0
 10
57.478181276330609
 20
67.969387730417566
 30
0.0
  0
VERTEX
  5
A9B4
  8
0
 10
57.462266891283818
 20
67.931737888712348
 30
0.0
  0
VERTEX
  5
A9B5
  8
0
 10
57.451319765959781
 20
67.913436802379124
 30
0.0
  0
VERTEX
  5
A9B6
  8
0
 10
57.438377887942089
 20
67.895504046706606
 30
0.0
  0
VERTEX
  5
A9B7
  8
0
 10
57.406507149443428
 20
67.860803896278682
 30
0.0
  0
VERTEX
  5
A9B8
  8
0
 10
57.366746316859043
 20
67.827830699017511
 30
0.0
  0
VERTEX
  5
A9B9
  8
0
 10
57.31920814425407
 20
67.796736257210227
 30
0.0
  0
VERTEX
  5
A9BA
  8
0
 10
57.263973444073237
 20
67.767631566798684
 30
0.0
  0
VERTEX
  5
A9BB
  8
0
 10
57.201124060181712
 20
67.740629476363779
 30
0.0
  0
VERTEX
  5
A9BC
  8
0
 10
57.166869468729821
 20
67.727952619003929
 30
0.0
  0
VERTEX
  5
A9BD
  8
0
 10
57.130741829268658
 20
67.715844452117778
 30
0.0
  0
VERTEX
  5
A9BE
  8
0
 10
57.052907362612331
 20
67.693392395886633
 30
0.0
  0
VERTEX
  5
A9BF
  8
0
 10
56.967717016368411
 20
67.673394363545853
 30
0.0
  0
VERTEX
  5
A9C0
  8
0
 10
56.875687957993108
 20
67.656040665913892
 30
0.0
  0
VERTEX
  5
A9C1
  8
0
 10
56.777192269061644
 20
67.641437735045258
 30
0.0
  0
VERTEX
  5
A9C2
  8
0
 10
56.672449243459511
 20
67.629648899273803
 30
0.0
  0
VERTEX
  5
A9C3
  8
0
 10
56.617803357114383
 20
67.624828360779816
 30
0.0
  0
VERTEX
  5
A9C4
  8
0
 10
56.561677607235438
 20
67.620733027087397
 30
0.0
  0
VERTEX
  5
A9C5
  8
0
 10
56.44509529855091
 20
67.614743742661403
 30
0.0
  0
VERTEX
  5
A9C6
  8
0
 10
56.32291895070631
 20
67.611728906015173
 30
0.0
  0
VERTEX
  5
A9C7
  8
0
 10
56.259800193098322
 20
67.611350227879711
 30
0.0
  0
SEQEND
  5
A9C8
  8
0
  0
LINE
  5
58B3
  8
0
 10
91.982008247048569
 20
86.111350227879683
 30
0.0
 11
92.279347233547213
 21
86.111350227879683
 31
0.0
  0
POLYLINE
  5
58B4
  8
0
 66
     1
 10
0.0
 20
0.0
 30
0.0
  0
VERTEX
  5
A9C9
  8
0
 10
95.319242881203877
 20
85.448445913739135
 30
0.0
  0
VERTEX
  5
A9CA
  8
0
 10
95.241795910601866
 20
85.48331735437074
 30
0.0
  0
VERTEX
  5
A9CB
  8
0
 10
95.08796369687866
 20
85.54942285430559
 30
0.0
  0
VERTEX
  5
A9CC
  8
0
 10
94.933949844803934
 20
85.611496646267653
 30
0.0
  0
VERTEX
  5
A9CD
  8
0
 10
94.855300771774012
 20
85.641645221070405
 30
0.0
  0
VERTEX
  5
A9CE
  8
0
 10
94.775575340165247
 20
85.671155297770184
 30
0.0
  0
VERTEX
  5
A9CF
  8
0
 10
94.613129217521788
 20
85.728064080606885
 30
0.0
  0
VERTEX
  5
A9D0
  8
0
 10
94.447088149486376
 20
85.781856959197626
 30
0.0
  0
VERTEX
  5
A9D1
  8
0
 10
94.277940153104993
 20
85.832210685366988
 30
0.0
  0
VERTEX
  5
A9D2
  8
0
 10
94.10618454209316
 20
85.878845370574965
 30
0.0
  0
VERTEX
  5
A9D3
  8
0
 10
93.932336652043546
 20
85.921523841410803
 30
0.0
  0
VERTEX
  5
A9D4
  8
0
 10
93.844792823069895
 20
85.941317462073926
 30
0.0
  0
VERTEX
  5
A9D5
  8
0
 10
93.756924741130064
 20
85.960053284375405
 30
0.0
  0
VERTEX
  5
A9D6
  8
0
 10
93.580477281222301
 20
85.994288111378282
 30
0.0
  0
VERTEX
  5
A9D7
  8
0
 10
93.403510153363285
 20
86.024130890945912
 30
0.0
  0
VERTEX
  5
A9D8
  8
0
 10
93.226575213503423
 20
86.049523353554818
 30
0.0
  0
VERTEX
  5
A9D9
  8
0
 10
93.050235573187308
 20
86.070452483755247
 30
0.0
  0
VERTEX
  5
A9DA
  8
0
 10
92.875057727570876
 20
86.086951485750106
 30
0.0
  0
VERTEX
  5
A9DB
  8
0
 10
92.788081851326922
 20
86.093562579241166
 30
0.0
  0
VERTEX
  5
A9DC
  8
0
 10
92.701610142943224
 20
86.09909919413775
 30
0.0
  0
VERTEX
  5
A9DD
  8
0
 10
92.530468290158524
 20
86.107019027770349
 30
0.0
  0
VERTEX
  5
A9DE
  8
0
 10
92.362212068096156
 20
86.110878667348615
 30
0.0
  0
VERTEX
  5
A9DF
  8
0
 10
92.279347233547213
 20
86.111350227879683
 30
0.0
  0
SEQEND
  5
A9E0
  8
0
  0
CIRCLE
  5
59DA
  8
0
 10
108.28200824704849
 20
119.6514046202401
 30
0.0
 40
5.0
  0
CIRCLE
  5
59DB
  8
0
 10
108.28200824704849
 20
119.6514046202401
 30
0.0
 40
0.5127272724
  0
CIRCLE
  5
59DC
  8
0
 10
104.86382643104859
 20
119.6514046202401
 30
0.0
 40
0.5127272724
  0
CIRCLE
  5
59DD
  8
0
 10
106.5729173390485
 20
119.6514046202401
 30
0.0
 40
0.5127272724
  0
CIRCLE
  5
59DE
  8
0
 10
109.9910991550485
 20
119.6514046202401
 30
0.0
 40
0.5127272724
  0
CIRCLE
  5
59DF
  8
0
 10
111.7001900630485
 20
119.6514046202401
 30
0.0
 40
0.5127272724
  0
POLYLINE
  5
59FE
  8
0
 66
     1
 10
0.0
 20
0.0
 30
0.0
  0
VERTEX
  5
A9E1
  8
0
 10
102.3198328424884
 20
122.9963010542408
 30
0.0
  0
VERTEX
  5
A9E2
  8
0
 10
102.2153046041045
 20
122.90011462277261
 30
0.0
  0
VERTEX
  5
A9E3
  8
0
 10
102.08720236187651
 20
122.7954766340667
 30
0.0
  0
VERTEX
  5
A9E4
  8
0
 10
101.9528667730897
 20
122.6983966005883
 30
0.0
  0
VERTEX
  5
A9E5
  8
0
 10
101.8130628601517
 20
122.6094590076935
 30
0.0
  0
VERTEX
  5
A9E6
  8
0
 10
101.6685612962463
 20
122.52911155080081
 30
0.0
  0
VERTEX
  5
A9E7
  8
0
 10
101.5948392651631
 20
122.4922901518746
 30
0.0
  0
VERTEX
  5
A9E8
  8
0
 10
101.5203007715287
 20
122.4577589299176
 30
0.0
  0
VERTEX
  5
A9E9
  8
0
 10
101.36928294133629
 20
122.3956821580563
 30
0.0
  0
VERTEX
  5
A9EA
  8
0
 10
101.2165468390096
 20
122.34302705127649
 30
0.0
  0
VERTEX
  5
A9EB
  8
0
 10
101.06319304187301
 20
122.29981185435309
 30
0.0
  0
VERTEX
  5
A9EC
  8
0
 10
100.91036557433431
 20
122.2659149453217
 30
0.0
  0
VERTEX
  5
A9ED
  8
0
 10
100.7558631300127
 20
122.24060926885041
 30
0.0
  0
VERTEX
  5
A9EE
  8
0
 10
100.67724246405299
 20
122.23110979960821
 30
0.0
  0
VERTEX
  5
A9EF
  8
0
 10
100.5978699319987
 20
122.2237974546638
 30
0.0
  0
VERTEX
  5
A9F0
  8
0
 10
100.437359073785
 20
122.2159369879967
 30
0.0
  0
VERTEX
  5
A9F1
  8
0
 10
100.2753018544017
 20
122.21734893198131
 30
0.0
  0
VERTEX
  5
A9F2
  8
0
 10
100.193993179166
 20
122.22159678234441
 30
0.0
  0
SEQEND
  5
A9F3
  8
0
  0
POLYLINE
  5
59FF
  8
0
 66
     1
 10
0.0
 20
0.0
 30
0.0
  0
VERTEX
  5
A9F4
  8
0
 10
114.24418365160849
 20
116.3065081862391
 30
0.0
  0
VERTEX
  5
A9F5
  8
0
 10
114.3487118899926
 20
116.4026946177076
 30
0.0
  0
VERTEX
  5
A9F6
  8
0
 10
114.4768141322205
 20
116.5073326064135
 30
0.0
  0
VERTEX
  5
A9F7
  8
0
 10
114.61114972100729
 20
116.6044126398919
 30
0.0
  0
VERTEX
  5
A9F8
  8
0
 10
114.7509536339454
 20
116.6933502327866
 30
0.0
  0
VERTEX
  5
A9F9
  8
0
 10
114.89545519785069
 20
116.7736976896793
 30
0.0
  0
VERTEX
  5
A9FA
  8
0
 10
114.969177228934
 20
116.8105190886056
 30
0.0
  0
VERTEX
  5
A9FB
  8
0
 10
115.04371572256829
 20
116.8450503105625
 30
0.0
  0
VERTEX
  5
A9FC
  8
0
 10
115.19473355276079
 20
116.9071270824239
 30
0.0
  0
VERTEX
  5
A9FD
  8
0
 10
115.34746965508749
 20
116.95978218920369
 30
0.0
  0
VERTEX
  5
A9FE
  8
0
 10
115.5008234522241
 20
117.00299738612711
 30
0.0
  0
VERTEX
  5
A9FF
  8
0
 10
115.6536509197628
 20
117.0368942951584
 30
0.0
  0
VERTEX
  5
AA00
  8
0
 10
115.8081533640844
 20
117.0621999716297
 30
0.0
  0
VERTEX
  5
AA01
  8
0
 10
115.88677403004409
 20
117.071699440872
 30
0.0
  0
VERTEX
  5
AA02
  8
0
 10
115.9661465620984
 20
117.07901178581641
 30
0.0
  0
VERTEX
  5
AA03
  8
0
 10
116.1266574203121
 20
117.0868722524834
 30
0.0
  0
VERTEX
  5
AA04
  8
0
 10
116.2887146396954
 20
117.0854603084988
 30
0.0
  0
VERTEX
  5
AA05
  8
0
 10
116.3700233149311
 20
117.08121245813579
 30
0.0
  0
SEQEND
  5
AA06
  8
0
  0
ARC
  5
5B81
  8
0
 10
60.051080359811372
 20
78.94743998887634
 30
0.0
 40
7.1639102390033473
 50
45.751928939631973
 51
62.36660903517091
  0
ARC
  5
5B82
  8
0
 10
60.051080359811372
 20
78.94743998887634
 30
0.0
 40
7.1639102390033473
 50
117.6333909648304
 51
134.24807106036801
  0
ARC
  5
5C4A
  8
0
 10
108.28200824704869
 20
78.944329146628888
 30
0.0
 40
7.1670210812507644
 50
45.762040348296139
 51
134.23795965170379
  0
ARC
  5
96E1
  8
0
 10
108.28200824704849
 20
119.6514046202401
 30
0.0
 40
6.8363636320000003
 50
29.289014949815328
 51
150.70672676414429
  0
ARC
  5
96E2
  8
0
 10
108.28200824704849
 20
119.6514046202401
 30
0.0
 40
6.8363636320000003
 50
209.28901494981531
 51
330.70672676414438
  0
LINE
  5
A025
  8
3
 10
105.82350824704839
 20
60.111350227879718
 30
0.0
 11
105.28200824704849
 21
61.049255740178118
 31
0.0
  0
LINE
  5
A032
  8
0
 10
57.051080359811301
 20
60.111350227879711
 30
0.0
 11
63.05108035981128
 21
60.111350227879711
 31
0.0
  0
TEXT
  5
A08D
  8
0
 62
     3
 10
0.0
 20
0.0
 30
0.0
 40
10.0
  1
EWN48AX20-BS-OG
  7
STANDARD1
  0
LINE
  5
A328
  8
0
 10
57.051080359811301
 20
42.724850227879713
 30
0.0
 11
57.664580359811303
 21
42.111350227879711
 31
0.0
  0
LINE
  5
A329
  8
0
 10
62.437580359811278
 20
42.111350227879711
 30
0.0
 11
63.05108035981128
 21
42.724850227879713
 31
0.0
  0
LINE
  5
A32A
  8
0
 10
57.051080359811301
 20
62.111350227879718
 30
0.0
 11
57.051080359811301
 21
42.724850227879713
 31
0.0
  0
LINE
  5
A32B
  8
0
 10
63.05108035981128
 20
42.724850227879713
 30
0.0
 11
63.05108035981128
 21
62.111350227879718
 31
0.0
  0
LINE
  5
A32E
  8
0
 10
58.05108035981128
 20
42.111350227879711
 30
0.0
 11
58.05108035981128
 21
40.611350227879711
 31
0.0
  0
LINE
  5
A32F
  8
0
 10
62.051080359811301
 20
40.611350227879711
 30
0.0
 11
62.051080359811301
 21
42.111350227879711
 31
0.0
  0
LINE
  5
A34B
  8
0
 10
62.437580359811278
 20
42.111350227879711
 30
0.0
 11
57.664580359811303
 21
42.111350227879711
 31
0.0
  0
LINE
  5
A34C
  8
0
 10
63.05108035981128
 20
42.724850227879713
 30
0.0
 11
57.051080359811301
 21
42.724850227879713
 31
0.0
  0
LINE
  5
A34D
  8
0
 10
62.051080359811301
 20
40.611350227879711
 30
0.0
 11
58.05108035981128
 21
40.611350227879711
 31
0.0
  0
LINE
  5
A3D1
  8
0
 10
105.28200824704849
 20
42.724850227879713
 30
0.0
 11
105.8955082470485
 21
42.111350227879711
 31
0.0
  0
LINE
  5
A3D2
  8
0
 10
110.66850824704861
 20
42.111350227879711
 30
0.0
 11
111.28200824704849
 21
42.724850227879713
 31
0.0
  0
LINE
  5
A3D3
  8
0
 10
105.28200824704849
 20
62.111350227879718
 30
0.0
 11
105.28200824704849
 21
42.724850227879713
 31
0.0
  0
LINE
  5
A3D4
  8
0
 10
111.28200824704849
 20
42.724850227879713
 30
0.0
 11
111.28200824704849
 21
62.111350227879718
 31
0.0
  0
LINE
  5
A3D6
  8
0
 10
106.28200824704849
 20
42.111350227879711
 30
0.0
 11
106.28200824704849
 21
40.611350227879711
 31
0.0
  0
LINE
  5
A3D7
  8
0
 10
110.28200824704849
 20
40.611350227879711
 30
0.0
 11
110.28200824704849
 21
42.111350227879711
 31
0.0
  0
LINE
  5
A3FB
  8
0
 10
110.66850824704861
 20
42.111350227879711
 30
0.0
 11
105.8955082470485
 21
42.111350227879711
 31
0.0
  0
LINE
  5
A3FC
  8
0
 10
111.28200824704849
 20
42.724850227879713
 30
0.0
 11
105.28200824704849
 21
42.724850227879713
 31
0.0
  0
LINE
  5
A3FD
  8
0
 10
110.28200824704849
 20
40.611350227879711
 30
0.0
 11
106.28200824704849
 21
40.611350227879711
 31
0.0
  0
LINE
  5
A410
  8
0
 10
111.28200824704849
 20
60.111350227879711
 30
0.0
 11
105.28200824704849
 21
60.111350227879711
 31
0.0
  0
LINE
  5
A76E
  8
3
 10
110.7405082470486
 20
42.183350227879743
 30
0.0
 11
110.7405082470485
 21
60.111350227879718
 31
0.0
  0
LINE
  5
A76F
  8
3
 10
105.82350824704839
 20
42.183350227879799
 30
0.0
 11
105.82350824704839
 21
60.111350227879711
 31
0.0
  0
LINE
  5
A77D
  8
3
 10
110.74050824704869
 20
60.111350227879718
 30
0.0
 11
111.28200824704859
 21
61.049255740178118
 31
0.0
  0
LINE
  5
A77E
  8
3
 10
57.59258035981113
 20
60.111350227879718
 30
0.0
 11
57.051080359811237
 21
61.049255740178118
 31
0.0
  0
LINE
  5
A77F
  8
3
 10
62.509580359811437
 20
60.111350227879718
 30
0.0
 11
63.05108035981133
 21
61.049255740178118
 31
0.0
  0
LINE
  5
A780
  8
3
 10
62.50958035981138
 20
42.183350227879743
 30
0.0
 11
62.509580359811359
 21
60.111350227879718
 31
0.0
  0
LINE
  5
A781
  8
3
 10
57.592580359811201
 20
42.183350227879799
 30
0.0
 11
57.592580359811187
 21
60.111350227879711
 31
0.0
  0
ENDSEC
  0
EOF
