  0
SECTION
  2
HEADER
  9
$ACADVER
  1
AC1009
  9
$INSBASE
 10
0.0
 20
0.0
 30
0.0
  9
$EXTMIN
 10
0.0
 20
-2.960436562073669
 30
0.0
  9
$EXTMAX
 10
132.76944065484309
 20
131.20004442655869
 30
0.0
  9
$LIMMIN
 10
0.0
 20
0.0
  9
$LIMMAX
 10
187.5
 20
135.0
  9
$ORTHOMODE
 70
     1
  9
$REGENMODE
 70
     1
  9
$FILLMODE
 70
     1
  9
$QTEXTMODE
 70
     0
  9
$MIRRTEXT
 70
     0
  9
$DRAGMODE
 70
     2
  9
$LTSCALE
 40
5.0
  9
$OSMODE
 70
    37
  9
$ATTMODE
 70
     1
  9
$TEXTSIZE
 40
0.2
  9
$TRACEWID
 40
0.05
  9
$TEXTSTYLE
  7
STANDARD
  9
$CLAYER
  8
0
  9
$CELTYPE
  6
BYLAYER
  9
$CECOLOR
 62
     6
  9
$DIMSCALE
 40
1.0
  9
$DIMASZ
 40
3.0
  9
$DIMEXO
 40
2.0
  9
$DIMDLI
 40
0.3799999999999999
  9
$DIMRND
 40
0.0
  9
$DIMDLE
 40
0.0
  9
$DIMEXE
 40
2.0
  9
$DIMTP
 40
0.0
  9
$DIMTM
 40
0.0
  9
$DIMTXT
 40
3.2000000000000002
  9
$DIMCEN
 40
0.09
  9
$DIMTSZ
 40
0.0
  9
$DIMTOL
 70
     0
  9
$DIMLIM
 70
     0
  9
$DIMTIH
 70
     0
  9
$DIMTOH
 70
     0
  9
$DIMSE1
 70
     0
  9
$DIMSE2
 70
     0
  9
$DIMTAD
 70
     1
  9
$DIMZIN
 70
     8
  9
$DIMBLK
  1

  9
$DIMASO
 70
     0
  9
$DIMSHO
 70
     0
  9
$DIMPOST
  1

  9
$DIMAPOST
  1

  9
$DIMALT
 70
     0
  9
$DIMALTD
 70
     2
  9
$DIMALTF
 40
25.399999999999999
  9
$DIMLFAC
 40
1.0
  9
$DIMTOFL
 70
     0
  9
$DIMTVP
 40
1.6000000000000001
  9
$DIMTIX
 70
     1
  9
$DIMSOXD
 70
     0
  9
$DIMSAH
 70
     0
  9
$DIMBLK1
  1

  9
$DIMBLK2
  1

  9
$DIMSTYLE
  2
STANDARD
  9
$DIMCLRD
 70
     0
  9
$DIMCLRE
 70
     0
  9
$DIMCLRT
 70
     0
  9
$DIMTFAC
 40
1.0
  9
$DIMGAP
 40
1.0
  9
$LUNITS
 70
     2
  9
$LUPREC
 70
     4
  9
$SKETCHINC
 40
0.1
  9
$FILLETRAD
 40
0.4
  9
$AUNITS
 70
     0
  9
$AUPREC
 70
     0
  9
$MENU
  1
E:\r13\win\SUPPORT\ACAD
  9
$ELEVATION
 40
0.0
  9
$PELEVATION
 40
0.0
  9
$THICKNESS
 40
0.0
  9
$LIMCHECK
 70
     0
  9
$BLIPMODE
 70
     0
  9
$CHAMFERA
 40
0.0
  9
$CHAMFERB
 40
0.0
  9
$SKPOLY
 70
     0
  9
$TDCREATE
 40
2456129.6740617128
  9
$TDUPDATE
 40
2459429.5741318748
  9
$TDINDWG
 40
0.5158237153
  9
$TDUSRTIMER
 40
0.5158235417
  9
$USRTIMER
 70
     1
  9
$ANGBASE
 50
0.0
  9
$ANGDIR
 70
     0
  9
$PDMODE
 70
     0
  9
$PDSIZE
 40
0.0
  9
$PLINEWID
 40
0.0
  9
$COORDS
 70
     1
  9
$SPLFRAME
 70
     0
  9
$SPLINETYPE
 70
     6
  9
$SPLINESEGS
 70
     8
  9
$ATTDIA
 70
     0
  9
$ATTREQ
 70
     1
  9
$HANDLING
 70
     1
  9
$HANDSEED
  5
A9EF
  9
$SURFTAB1
 70
     6
  9
$SURFTAB2
 70
     6
  9
$SURFTYPE
 70
     6
  9
$SURFU
 70
     6
  9
$SURFV
 70
     6
  9
$UCSNAME
  2

  9
$UCSORG
 10
0.0
 20
0.0
 30
0.0
  9
$UCSXDIR
 10
1.0
 20
0.0
 30
0.0
  9
$UCSYDIR
 10
0.0
 20
1.0
 30
0.0
  9
$PUCSNAME
  2

  9
$PUCSORG
 10
0.0
 20
0.0
 30
0.0
  9
$PUCSXDIR
 10
1.0
 20
0.0
 30
0.0
  9
$PUCSYDIR
 10
0.0
 20
1.0
 30
0.0
  9
$USERI1
 70
     0
  9
$USERI2
 70
     1
  9
$USERI3
 70
     0
  9
$USERI4
 70
     0
  9
$USERI5
 70
     0
  9
$USERR1
 40
0.0
  9
$USERR2
 40
0.0
  9
$USERR3
 40
0.0
  9
$USERR4
 40
0.0
  9
$USERR5
 40
0.0
  9
$WORLDVIEW
 70
     1
  9
$SHADEDGE
 70
     3
  9
$SHADEDIF
 70
    70
  9
$TILEMODE
 70
     1
  9
$MAXACTVP
 70
    16
  9
$PLIMCHECK
 70
     0
  9
$PEXTMIN
 10
1.0000000000000000E+020
 20
1.0000000000000000E+020
 30
1.0000000000000000E+020
  9
$PEXTMAX
 10
-1.0000000000000000E+020
 20
-1.0000000000000000E+020
 30
-1.0000000000000000E+020
  9
$PLIMMIN
 10
0.0
 20
0.0
  9
$PLIMMAX
 10
12.0
 20
9.0
  9
$UNITMODE
 70
     0
  9
$VISRETAIN
 70
     0
  9
$PLINEGEN
 70
     0
  9
$PSLTSCALE
 70
     0
  0
ENDSEC
  0
SECTION
  2
TABLES
  0
TABLE
  2
VPORT
 70
     1
  0
VPORT
  2
*ACTIVE
 70
     0
 10
0.0
 20
0.0
 11
1.0
 21
1.0
 12
132.44459557337231
 22
64.117569528108262
 13
0.0
 23
0.0
 14
5.0
 24
5.0
 15
5.0
 25
5.0
 16
0.0
 26
0.0
 36
1.0
 17
0.0
 27
0.0
 37
0.0
 40
135.3386243403198
 41
2.3805970149253728
 42
50.0
 43
0.0
 44
0.0
 50
0.0
 51
0.0
 71
     0
 72
   500
 73
     1
 74
     0
 75
     0
 76
     0
 77
     0
 78
     2
  0
ENDTAB
  0
TABLE
  2
LTYPE
 70
     3
  0
LTYPE
  2
CONTINUOUS
 70
     0
  3
Solid Line
 72
    65
 73
     0
 40
0.0
  0
LTYPE
  2
CENTER
 70
     0
  3
____ _ ____ _ ____ _ ____ _ ____ _ ____ _ ____
 72
    65
 73
     4
 40
2.0
 49
1.25
 49
-0.25
 49
0.25
 49
-0.25
  0
LTYPE
  2
PHANTOM2
 70
     0
  3
___ _ _ ___ _ _ ___ _ _ ___ _ _
 72
    65
 73
     6
 40
1.25
 49
0.625
 49
-0.125
 49
0.125
 49
-0.125
 49
0.125
 49
-0.125
  0
ENDTAB
  0
TABLE
  2
LAYER
 70
     4
  0
LAYER
  2
0
 70
     0
 62
     7
  6
CONTINUOUS
  0
LAYER
  2
1
 70
     0
 62
     1
  6
CENTER
  0
LAYER
  2
DEFPOINTS
 70
     0
 62
     7
  6
CONTINUOUS
  0
LAYER
  2
3
 70
     0
 62
     3
  6
CONTINUOUS
  0
ENDTAB
  0
TABLE
  2
STYLE
 70
     2
  0
STYLE
  2
STANDARD
 70
     0
 40
0.0
 41
1.0
 50
0.0
 71
     0
 42
0.2
  3
TXT
  4
BIGFONT
  0
STYLE
  2
STANDARD1
 70
     0
 40
0.0
 41
1.0
 50
0.0
 71
     0
 42
3.0
  3
txt
  4

  0
ENDTAB
  0
TABLE
  2
VIEW
 70
     0
  0
ENDTAB
  0
TABLE
  2
UCS
 70
     0
  0
ENDTAB
  0
TABLE
  2
APPID
 70
     7
  0
APPID
  2
ACAD
 70
     0
  0
APPID
  2
ACAD_MLEADERVER
 70
     0
  0
APPID
  2
ACAD_PSEXT
 70
     0
  0
APPID
  2
ACAD_EXEMPT_FROM_CAD_STANDARDS
 70
     0
  0
APPID
  2
ACAD_DSTYLE_DIMJAG
 70
     0
  0
APPID
  2
ACAD_DSTYLE_DIMTALN
 70
     0
  0
APPID
  2
ACAD_NAV_VCDISPLAY
 70
     0
  0
ENDTAB
  0
TABLE
  2
DIMSTYLE
 70
     1
  0
DIMSTYLE
  2
STANDARD
 70
     0
  3

  4

  5

  6

  7

 40
1.0
 41
0.18
 42
0.0625
 43
0.38
 44
0.18
 45
0.0
 46
0.0
 47
0.0
 48
0.0
140
0.18
141
0.09
142
0.0
143
25.399999999999999
144
1.0
145
0.0
146
1.0
147
0.09
 71
     0
 72
     0
 73
     1
 74
     1
 75
     0
 76
     0
 77
     0
 78
     0
170
     0
171
     2
172
     0
173
     0
174
     0
175
     0
176
     0
177
     0
178
     0
  0
ENDTAB
  0
ENDSEC
  0
SECTION
  2
BLOCKS
  0
BLOCK
  8
0
  2
$MODEL_SPACE
 70
     0
 10
0.0
 20
0.0
 30
0.0
  3
$MODEL_SPACE
  1

  0
ENDBLK
  5
9
  8
0
  0
BLOCK
 67
     1
  8
0
  2
$PAPER_SPACE
 70
     0
 10
0.0
 20
0.0
 30
0.0
  3
$PAPER_SPACE
  1

  0
ENDBLK
  5
E
 67
     1
  8
0
  0
ENDSEC
  0
SECTION
  2
ENTITIES
  0
TEXT
  5
9E1A
  8
0
 62
     3
 10
0.0
 20
0.0
 30
0.0
 40
10.0
  1
EWN40AX16SUS-LB
  7
STANDARD1
  0
ARC
  5
9F56
  8
0
 10
96.502543400617427
 20
84.494900702837285
 30
0.0
 40
6.2500000000000107
 50
35.997820554061747
 51
83.131382730463358
  0
ARC
  5
9F57
  8
0
 10
96.997456599382886
 20
84.494900702837285
 30
0.0
 40
6.25
 50
96.868617269536628
 51
144.0021794459382
  0
LINE
  5
9F58
  8
0
 10
97.250000000000242
 20
90.700044426558705
 30
0.0
 11
96.250000000000142
 21
90.700044426558705
 31
0.0
  0
LINE
  5
9F5A
  8
0
 10
91.750000000000128
 20
87.580611712695514
 30
0.0
 11
91.750000000000128
 21
87.503924265143226
 31
0.0
  0
LINE
  5
9F5B
  8
0
 10
101.7500000000001
 20
87.503924265143226
 30
0.0
 11
101.7500000000001
 21
87.580611712695514
 31
0.0
  0
ARC
  5
9F5C
  8
0
 10
92.750000000000114
 20
87.580611712695514
 30
0.0
 40
0.9999999999999836
 50
144.0021794459382
 51
180.0
  0
ARC
  5
9F5D
  8
0
 10
100.7500000000002
 20
87.580611712695514
 30
0.0
 40
0.9999999999999822
 50
0.0
 51
35.997820554061747
  0
LINE
  5
9F73
  8
1
 10
96.750000000000128
 20
50.0
 30
0.0
 11
96.750000000000128
 21
93.700044426558719
 31
0.0
  0
POLYLINE
  5
9F74
  8
0
 10
83.02303422097647
 20
79.102564946018987
 30
0.0
 66
     1
 70
     8
  0
VERTEX
  8
0
  5
A5DF
 10
83.0230
 20
79.1026
 30
0.000000
  70
    32
  0
VERTEX
  8
0
  5
A5E0
 10
83.2138
 20
79.1073
 30
0.000000
  70
    32
  0
VERTEX
  8
0
  5
A5E1
 10
83.4040
 20
79.1213
 30
0.000000
  70
    32
  0
VERTEX
  8
0
  5
A5E2
 10
83.5934
 20
79.1447
 30
0.000000
  70
    32
  0
VERTEX
  8
0
  5
A5E3
 10
83.7814
 20
79.1775
 30
0.000000
  70
    32
  0
VERTEX
  8
0
  5
A5E4
 10
83.9675
 20
79.2194
 30
0.000000
  70
    32
  0
VERTEX
  8
0
  5
A5E5
 10
84.1514
 20
79.2704
 30
0.000000
  70
    32
  0
VERTEX
  8
0
  5
A5E6
 10
84.3325
 20
79.3304
 30
0.000000
  70
    32
  0
VERTEX
  8
0
  5
A5E7
 10
84.5105
 20
79.3992
 30
0.000000
  70
    32
  0
VERTEX
  8
0
  5
A5E8
 10
84.6850
 20
79.4768
 30
0.000000
  70
    32
  0
VERTEX
  8
0
  5
A5E9
 10
84.8554
 20
79.5628
 30
0.000000
  70
    32
  0
VERTEX
  8
0
  5
A5EA
 10
85.0214
 20
79.6571
 30
0.000000
  70
    32
  0
VERTEX
  8
0
  5
A5EB
 10
85.1826
 20
79.7594
 30
0.000000
  70
    32
  0
VERTEX
  8
0
  5
A5EC
 10
85.3385
 20
79.8696
 30
0.000000
  70
    32
  0
VERTEX
  8
0
  5
A5ED
 10
85.4889
 20
79.9872
 30
0.000000
  70
    32
  0
VERTEX
  8
0
  5
A5EE
 10
85.6334
 20
80.1122
 30
0.000000
  70
    32
  0
VERTEX
  8
0
  5
A5EF
 10
85.7716
 20
80.2441
 30
0.000000
  70
    32
  0
VERTEX
  8
0
  5
A5F0
 10
85.9031
 20
80.3826
 30
0.000000
  70
    32
  0
VERTEX
  8
0
  5
A5F1
 10
86.0278
 20
80.5275
 30
0.000000
  70
    32
  0
VERTEX
  8
0
  5
A5F2
 10
86.1451
 20
80.6783
 30
0.000000
  70
    32
  0
VERTEX
  8
0
  5
A5F3
 10
86.2550
 20
80.8347
 30
0.000000
  70
    32
  0
VERTEX
  8
0
  5
A5F4
 10
86.3571
 20
80.9963
 30
0.000000
  70
    32
  0
VERTEX
  8
0
  5
A5F5
 10
86.4511
 20
81.1628
 30
0.000000
  70
    32
  0
VERTEX
  8
0
  5
A5F6
 10
86.5369
 20
81.3336
 30
0.000000
  70
    32
  0
VERTEX
  8
0
  5
A5F7
 10
86.6142
 20
81.5085
 30
0.000000
  70
    32
  0
VERTEX
  8
0
  5
A5F8
 10
86.6829
 20
81.6870
 30
0.000000
  70
    32
  0
VERTEX
  8
0
  5
A5F9
 10
86.7427
 20
81.8686
 30
0.000000
  70
    32
  0
VERTEX
  8
0
  5
A5FA
 10
86.7936
 20
82.0530
 30
0.000000
  70
    32
  0
VERTEX
  8
0
  5
A5FB
 10
86.8354
 20
82.2396
 30
0.000000
  70
    32
  0
VERTEX
  8
0
  5
A5FC
 10
86.8680
 20
82.4281
 30
0.000000
  70
    32
  0
VERTEX
  8
0
  5
A5FD
 10
86.8914
 20
82.6180
 30
0.000000
  70
    32
  0
VERTEX
  8
0
  5
A5FE
 10
86.9054
 20
82.8088
 30
0.000000
  70
    32
  0
VERTEX
  8
0
  5
A5FF
 10
86.9101
 20
83.0000
 30
0.000000
  70
    32
  0
VERTEX
  8
0
  5
A600
 10
86.9054
 20
83.1912
 30
0.000000
  70
    32
  0
VERTEX
  8
0
  5
A601
 10
86.8914
 20
83.3820
 30
0.000000
  70
    32
  0
VERTEX
  8
0
  5
A602
 10
86.8680
 20
83.5719
 30
0.000000
  70
    32
  0
VERTEX
  8
0
  5
A603
 10
86.8354
 20
83.7604
 30
0.000000
  70
    32
  0
VERTEX
  8
0
  5
A604
 10
86.7936
 20
83.9470
 30
0.000000
  70
    32
  0
VERTEX
  8
0
  5
A605
 10
86.7427
 20
84.1314
 30
0.000000
  70
    32
  0
VERTEX
  8
0
  5
A606
 10
86.6829
 20
84.3130
 30
0.000000
  70
    32
  0
VERTEX
  8
0
  5
A607
 10
86.6142
 20
84.4915
 30
0.000000
  70
    32
  0
VERTEX
  8
0
  5
A608
 10
86.5369
 20
84.6664
 30
0.000000
  70
    32
  0
VERTEX
  8
0
  5
A609
 10
86.4511
 20
84.8372
 30
0.000000
  70
    32
  0
VERTEX
  8
0
  5
A60A
 10
86.3571
 20
85.0037
 30
0.000000
  70
    32
  0
VERTEX
  8
0
  5
A60B
 10
86.2550
 20
85.1653
 30
0.000000
  70
    32
  0
VERTEX
  8
0
  5
A60C
 10
86.1451
 20
85.3217
 30
0.000000
  70
    32
  0
VERTEX
  8
0
  5
A60D
 10
86.0278
 20
85.4725
 30
0.000000
  70
    32
  0
VERTEX
  8
0
  5
A60E
 10
85.9031
 20
85.6174
 30
0.000000
  70
    32
  0
VERTEX
  8
0
  5
A60F
 10
85.7716
 20
85.7559
 30
0.000000
  70
    32
  0
VERTEX
  8
0
  5
A610
 10
85.6334
 20
85.8878
 30
0.000000
  70
    32
  0
VERTEX
  8
0
  5
A611
 10
85.4889
 20
86.0128
 30
0.000000
  70
    32
  0
VERTEX
  8
0
  5
A612
 10
85.3385
 20
86.1304
 30
0.000000
  70
    32
  0
VERTEX
  8
0
  5
A613
 10
85.1826
 20
86.2406
 30
0.000000
  70
    32
  0
VERTEX
  8
0
  5
A614
 10
85.0214
 20
86.3429
 30
0.000000
  70
    32
  0
VERTEX
  8
0
  5
A615
 10
84.8554
 20
86.4372
 30
0.000000
  70
    32
  0
VERTEX
  8
0
  5
A616
 10
84.6850
 20
86.5232
 30
0.000000
  70
    32
  0
VERTEX
  8
0
  5
A617
 10
84.5105
 20
86.6008
 30
0.000000
  70
    32
  0
VERTEX
  8
0
  5
A618
 10
84.3325
 20
86.6696
 30
0.000000
  70
    32
  0
VERTEX
  8
0
  5
A619
 10
84.1514
 20
86.7296
 30
0.000000
  70
    32
  0
VERTEX
  8
0
  5
A61A
 10
83.9675
 20
86.7806
 30
0.000000
  70
    32
  0
VERTEX
  8
0
  5
A61B
 10
83.7814
 20
86.8225
 30
0.000000
  70
    32
  0
VERTEX
  8
0
  5
A61C
 10
83.5934
 20
86.8553
 30
0.000000
  70
    32
  0
VERTEX
  8
0
  5
A61D
 10
83.4040
 20
86.8787
 30
0.000000
  70
    32
  0
VERTEX
  8
0
  5
A61E
 10
83.2138
 20
86.8927
 30
0.000000
  70
    32
  0
VERTEX
  8
0
  5
A61F
 10
83.0230
 20
86.8974
 30
0.000000
  70
    32
  0
VERTEX
  8
0
  5
A620
 10
82.8323
 20
86.8927
 30
0.000000
  70
    32
  0
VERTEX
  8
0
  5
A621
 10
82.6420
 20
86.8787
 30
0.000000
  70
    32
  0
VERTEX
  8
0
  5
A622
 10
82.4527
 20
86.8553
 30
0.000000
  70
    32
  0
VERTEX
  8
0
  5
A623
 10
82.2647
 20
86.8225
 30
0.000000
  70
    32
  0
VERTEX
  8
0
  5
A624
 10
82.0786
 20
86.7806
 30
0.000000
  70
    32
  0
VERTEX
  8
0
  5
A625
 10
81.8947
 20
86.7296
 30
0.000000
  70
    32
  0
VERTEX
  8
0
  5
A626
 10
81.7135
 20
86.6696
 30
0.000000
  70
    32
  0
VERTEX
  8
0
  5
A627
 10
81.5355
 20
86.6008
 30
0.000000
  70
    32
  0
VERTEX
  8
0
  5
A628
 10
81.3611
 20
86.5232
 30
0.000000
  70
    32
  0
VERTEX
  8
0
  5
A629
 10
81.1907
 20
86.4372
 30
0.000000
  70
    32
  0
VERTEX
  8
0
  5
A62A
 10
81.0247
 20
86.3429
 30
0.000000
  70
    32
  0
VERTEX
  8
0
  5
A62B
 10
80.8635
 20
86.2406
 30
0.000000
  70
    32
  0
VERTEX
  8
0
  5
A62C
 10
80.7075
 20
86.1304
 30
0.000000
  70
    32
  0
VERTEX
  8
0
  5
A62D
 10
80.5571
 20
86.0128
 30
0.000000
  70
    32
  0
VERTEX
  8
0
  5
A62E
 10
80.4127
 20
85.8878
 30
0.000000
  70
    32
  0
VERTEX
  8
0
  5
A62F
 10
80.2745
 20
85.7559
 30
0.000000
  70
    32
  0
VERTEX
  8
0
  5
A630
 10
80.1429
 20
85.6174
 30
0.000000
  70
    32
  0
VERTEX
  8
0
  5
A631
 10
80.0183
 20
85.4725
 30
0.000000
  70
    32
  0
VERTEX
  8
0
  5
A632
 10
79.9009
 20
85.3217
 30
0.000000
  70
    32
  0
VERTEX
  8
0
  5
A633
 10
79.7911
 20
85.1653
 30
0.000000
  70
    32
  0
VERTEX
  8
0
  5
A634
 10
79.6890
 20
85.0037
 30
0.000000
  70
    32
  0
VERTEX
  8
0
  5
A635
 10
79.5950
 20
84.8372
 30
0.000000
  70
    32
  0
VERTEX
  8
0
  5
A636
 10
79.5092
 20
84.6664
 30
0.000000
  70
    32
  0
VERTEX
  8
0
  5
A637
 10
79.4319
 20
84.4915
 30
0.000000
  70
    32
  0
VERTEX
  8
0
  5
A638
 10
79.3632
 20
84.3130
 30
0.000000
  70
    32
  0
VERTEX
  8
0
  5
A639
 10
79.3034
 20
84.1314
 30
0.000000
  70
    32
  0
VERTEX
  8
0
  5
A63A
 10
79.2525
 20
83.9470
 30
0.000000
  70
    32
  0
VERTEX
  8
0
  5
A63B
 10
79.2107
 20
83.7604
 30
0.000000
  70
    32
  0
VERTEX
  8
0
  5
A63C
 10
79.1781
 20
83.5719
 30
0.000000
  70
    32
  0
VERTEX
  8
0
  5
A63D
 10
79.1547
 20
83.3820
 30
0.000000
  70
    32
  0
VERTEX
  8
0
  5
A63E
 10
79.1407
 20
83.1912
 30
0.000000
  70
    32
  0
VERTEX
  8
0
  5
A63F
 10
79.1360
 20
83.0000
 30
0.000000
  70
    32
  0
VERTEX
  8
0
  5
A640
 10
79.1407
 20
82.8088
 30
0.000000
  70
    32
  0
VERTEX
  8
0
  5
A641
 10
79.1547
 20
82.6180
 30
0.000000
  70
    32
  0
VERTEX
  8
0
  5
A642
 10
79.1781
 20
82.4281
 30
0.000000
  70
    32
  0
VERTEX
  8
0
  5
A643
 10
79.2107
 20
82.2396
 30
0.000000
  70
    32
  0
VERTEX
  8
0
  5
A644
 10
79.2525
 20
82.0530
 30
0.000000
  70
    32
  0
VERTEX
  8
0
  5
A645
 10
79.3034
 20
81.8686
 30
0.000000
  70
    32
  0
VERTEX
  8
0
  5
A646
 10
79.3632
 20
81.6870
 30
0.000000
  70
    32
  0
VERTEX
  8
0
  5
A647
 10
79.4319
 20
81.5085
 30
0.000000
  70
    32
  0
VERTEX
  8
0
  5
A648
 10
79.5092
 20
81.3336
 30
0.000000
  70
    32
  0
VERTEX
  8
0
  5
A649
 10
79.5950
 20
81.1628
 30
0.000000
  70
    32
  0
VERTEX
  8
0
  5
A64A
 10
79.6890
 20
80.9963
 30
0.000000
  70
    32
  0
VERTEX
  8
0
  5
A64B
 10
79.7911
 20
80.8347
 30
0.000000
  70
    32
  0
VERTEX
  8
0
  5
A64C
 10
79.9009
 20
80.6783
 30
0.000000
  70
    32
  0
VERTEX
  8
0
  5
A64D
 10
80.0183
 20
80.5275
 30
0.000000
  70
    32
  0
VERTEX
  8
0
  5
A64E
 10
80.1429
 20
80.3826
 30
0.000000
  70
    32
  0
VERTEX
  8
0
  5
A64F
 10
80.2745
 20
80.2441
 30
0.000000
  70
    32
  0
VERTEX
  8
0
  5
A650
 10
80.4127
 20
80.1122
 30
0.000000
  70
    32
  0
VERTEX
  8
0
  5
A651
 10
80.5571
 20
79.9872
 30
0.000000
  70
    32
  0
VERTEX
  8
0
  5
A652
 10
80.7075
 20
79.8696
 30
0.000000
  70
    32
  0
VERTEX
  8
0
  5
A653
 10
80.8635
 20
79.7594
 30
0.000000
  70
    32
  0
VERTEX
  8
0
  5
A654
 10
81.0247
 20
79.6571
 30
0.000000
  70
    32
  0
VERTEX
  8
0
  5
A655
 10
81.1907
 20
79.5628
 30
0.000000
  70
    32
  0
VERTEX
  8
0
  5
A656
 10
81.3611
 20
79.4768
 30
0.000000
  70
    32
  0
VERTEX
  8
0
  5
A657
 10
81.5355
 20
79.3992
 30
0.000000
  70
    32
  0
VERTEX
  8
0
  5
A658
 10
81.7135
 20
79.3304
 30
0.000000
  70
    32
  0
VERTEX
  8
0
  5
A659
 10
81.8947
 20
79.2704
 30
0.000000
  70
    32
  0
VERTEX
  8
0
  5
A65A
 10
82.0786
 20
79.2194
 30
0.000000
  70
    32
  0
VERTEX
  8
0
  5
A65B
 10
82.2647
 20
79.1775
 30
0.000000
  70
    32
  0
VERTEX
  8
0
  5
A65C
 10
82.4527
 20
79.1447
 30
0.000000
  70
    32
  0
VERTEX
  8
0
  5
A65D
 10
82.6420
 20
79.1213
 30
0.000000
  70
    32
  0
VERTEX
  8
0
  5
A65E
 10
82.8323
 20
79.1073
 30
0.000000
  70
    32
  0
VERTEX
  8
0
  5
A65F
 10
83.0230
 20
79.1026
 30
0.000000
  70
    32
  0
SEQEND
  8
0
  5
A660
  0
POLYLINE
  5
9F75
  8
0
 10
110.4769657790238
 20
79.102564946018987
 30
0.0
 66
     1
 70
     8
  0
VERTEX
  8
0
  5
A661
 10
110.477
 20
79.1026
 30
0.000000
  70
    32
  0
VERTEX
  8
0
  5
A662
 10
110.668
 20
79.1073
 30
0.000000
  70
    32
  0
VERTEX
  8
0
  5
A663
 10
110.858
 20
79.1213
 30
0.000000
  70
    32
  0
VERTEX
  8
0
  5
A664
 10
111.047
 20
79.1447
 30
0.000000
  70
    32
  0
VERTEX
  8
0
  5
A665
 10
111.235
 20
79.1775
 30
0.000000
  70
    32
  0
VERTEX
  8
0
  5
A666
 10
111.421
 20
79.2194
 30
0.000000
  70
    32
  0
VERTEX
  8
0
  5
A667
 10
111.605
 20
79.2704
 30
0.000000
  70
    32
  0
VERTEX
  8
0
  5
A668
 10
111.786
 20
79.3304
 30
0.000000
  70
    32
  0
VERTEX
  8
0
  5
A669
 10
111.964
 20
79.3992
 30
0.000000
  70
    32
  0
VERTEX
  8
0
  5
A66A
 10
112.139
 20
79.4768
 30
0.000000
  70
    32
  0
VERTEX
  8
0
  5
A66B
 10
112.309
 20
79.5628
 30
0.000000
  70
    32
  0
VERTEX
  8
0
  5
A66C
 10
112.475
 20
79.6571
 30
0.000000
  70
    32
  0
VERTEX
  8
0
  5
A66D
 10
112.636
 20
79.7594
 30
0.000000
  70
    32
  0
VERTEX
  8
0
  5
A66E
 10
112.792
 20
79.8696
 30
0.000000
  70
    32
  0
VERTEX
  8
0
  5
A66F
 10
112.943
 20
79.9872
 30
0.000000
  70
    32
  0
VERTEX
  8
0
  5
A670
 10
113.087
 20
80.1122
 30
0.000000
  70
    32
  0
VERTEX
  8
0
  5
A671
 10
113.226
 20
80.2441
 30
0.000000
  70
    32
  0
VERTEX
  8
0
  5
A672
 10
113.357
 20
80.3826
 30
0.000000
  70
    32
  0
VERTEX
  8
0
  5
A673
 10
113.482
 20
80.5275
 30
0.000000
  70
    32
  0
VERTEX
  8
0
  5
A674
 10
113.599
 20
80.6783
 30
0.000000
  70
    32
  0
VERTEX
  8
0
  5
A675
 10
113.709
 20
80.8347
 30
0.000000
  70
    32
  0
VERTEX
  8
0
  5
A676
 10
113.811
 20
80.9963
 30
0.000000
  70
    32
  0
VERTEX
  8
0
  5
A677
 10
113.905
 20
81.1628
 30
0.000000
  70
    32
  0
VERTEX
  8
0
  5
A678
 10
113.991
 20
81.3336
 30
0.000000
  70
    32
  0
VERTEX
  8
0
  5
A679
 10
114.068
 20
81.5085
 30
0.000000
  70
    32
  0
VERTEX
  8
0
  5
A67A
 10
114.137
 20
81.6870
 30
0.000000
  70
    32
  0
VERTEX
  8
0
  5
A67B
 10
114.197
 20
81.8686
 30
0.000000
  70
    32
  0
VERTEX
  8
0
  5
A67C
 10
114.248
 20
82.0530
 30
0.000000
  70
    32
  0
VERTEX
  8
0
  5
A67D
 10
114.289
 20
82.2396
 30
0.000000
  70
    32
  0
VERTEX
  8
0
  5
A67E
 10
114.322
 20
82.4281
 30
0.000000
  70
    32
  0
VERTEX
  8
0
  5
A67F
 10
114.345
 20
82.6180
 30
0.000000
  70
    32
  0
VERTEX
  8
0
  5
A680
 10
114.359
 20
82.8088
 30
0.000000
  70
    32
  0
VERTEX
  8
0
  5
A681
 10
114.364
 20
83.0000
 30
0.000000
  70
    32
  0
VERTEX
  8
0
  5
A682
 10
114.359
 20
83.1912
 30
0.000000
  70
    32
  0
VERTEX
  8
0
  5
A683
 10
114.345
 20
83.3820
 30
0.000000
  70
    32
  0
VERTEX
  8
0
  5
A684
 10
114.322
 20
83.5719
 30
0.000000
  70
    32
  0
VERTEX
  8
0
  5
A685
 10
114.289
 20
83.7604
 30
0.000000
  70
    32
  0
VERTEX
  8
0
  5
A686
 10
114.248
 20
83.9470
 30
0.000000
  70
    32
  0
VERTEX
  8
0
  5
A687
 10
114.197
 20
84.1314
 30
0.000000
  70
    32
  0
VERTEX
  8
0
  5
A688
 10
114.137
 20
84.3130
 30
0.000000
  70
    32
  0
VERTEX
  8
0
  5
A689
 10
114.068
 20
84.4915
 30
0.000000
  70
    32
  0
VERTEX
  8
0
  5
A68A
 10
113.991
 20
84.6664
 30
0.000000
  70
    32
  0
VERTEX
  8
0
  5
A68B
 10
113.905
 20
84.8372
 30
0.000000
  70
    32
  0
VERTEX
  8
0
  5
A68C
 10
113.811
 20
85.0037
 30
0.000000
  70
    32
  0
VERTEX
  8
0
  5
A68D
 10
113.709
 20
85.1653
 30
0.000000
  70
    32
  0
VERTEX
  8
0
  5
A68E
 10
113.599
 20
85.3217
 30
0.000000
  70
    32
  0
VERTEX
  8
0
  5
A68F
 10
113.482
 20
85.4725
 30
0.000000
  70
    32
  0
VERTEX
  8
0
  5
A690
 10
113.357
 20
85.6174
 30
0.000000
  70
    32
  0
VERTEX
  8
0
  5
A691
 10
113.226
 20
85.7559
 30
0.000000
  70
    32
  0
VERTEX
  8
0
  5
A692
 10
113.087
 20
85.8878
 30
0.000000
  70
    32
  0
VERTEX
  8
0
  5
A693
 10
112.943
 20
86.0128
 30
0.000000
  70
    32
  0
VERTEX
  8
0
  5
A694
 10
112.792
 20
86.1304
 30
0.000000
  70
    32
  0
VERTEX
  8
0
  5
A695
 10
112.636
 20
86.2406
 30
0.000000
  70
    32
  0
VERTEX
  8
0
  5
A696
 10
112.475
 20
86.3429
 30
0.000000
  70
    32
  0
VERTEX
  8
0
  5
A697
 10
112.309
 20
86.4372
 30
0.000000
  70
    32
  0
VERTEX
  8
0
  5
A698
 10
112.139
 20
86.5232
 30
0.000000
  70
    32
  0
VERTEX
  8
0
  5
A699
 10
111.964
 20
86.6008
 30
0.000000
  70
    32
  0
VERTEX
  8
0
  5
A69A
 10
111.786
 20
86.6696
 30
0.000000
  70
    32
  0
VERTEX
  8
0
  5
A69B
 10
111.605
 20
86.7296
 30
0.000000
  70
    32
  0
VERTEX
  8
0
  5
A69C
 10
111.421
 20
86.7806
 30
0.000000
  70
    32
  0
VERTEX
  8
0
  5
A69D
 10
111.235
 20
86.8225
 30
0.000000
  70
    32
  0
VERTEX
  8
0
  5
A69E
 10
111.047
 20
86.8553
 30
0.000000
  70
    32
  0
VERTEX
  8
0
  5
A69F
 10
110.858
 20
86.8787
 30
0.000000
  70
    32
  0
VERTEX
  8
0
  5
A6A0
 10
110.668
 20
86.8927
 30
0.000000
  70
    32
  0
VERTEX
  8
0
  5
A6A1
 10
110.477
 20
86.8974
 30
0.000000
  70
    32
  0
VERTEX
  8
0
  5
A6A2
 10
110.286
 20
86.8927
 30
0.000000
  70
    32
  0
VERTEX
  8
0
  5
A6A3
 10
110.096
 20
86.8787
 30
0.000000
  70
    32
  0
VERTEX
  8
0
  5
A6A4
 10
109.907
 20
86.8553
 30
0.000000
  70
    32
  0
VERTEX
  8
0
  5
A6A5
 10
109.719
 20
86.8225
 30
0.000000
  70
    32
  0
VERTEX
  8
0
  5
A6A6
 10
109.532
 20
86.7806
 30
0.000000
  70
    32
  0
VERTEX
  8
0
  5
A6A7
 10
109.349
 20
86.7296
 30
0.000000
  70
    32
  0
VERTEX
  8
0
  5
A6A8
 10
109.167
 20
86.6696
 30
0.000000
  70
    32
  0
VERTEX
  8
0
  5
A6A9
 10
108.989
 20
86.6008
 30
0.000000
  70
    32
  0
VERTEX
  8
0
  5
A6AA
 10
108.815
 20
86.5232
 30
0.000000
  70
    32
  0
VERTEX
  8
0
  5
A6AB
 10
108.645
 20
86.4372
 30
0.000000
  70
    32
  0
VERTEX
  8
0
  5
A6AC
 10
108.479
 20
86.3429
 30
0.000000
  70
    32
  0
VERTEX
  8
0
  5
A6AD
 10
108.317
 20
86.2406
 30
0.000000
  70
    32
  0
VERTEX
  8
0
  5
A6AE
 10
108.161
 20
86.1304
 30
0.000000
  70
    32
  0
VERTEX
  8
0
  5
A6AF
 10
108.011
 20
86.0128
 30
0.000000
  70
    32
  0
VERTEX
  8
0
  5
A6B0
 10
107.867
 20
85.8878
 30
0.000000
  70
    32
  0
VERTEX
  8
0
  5
A6B1
 10
107.728
 20
85.7559
 30
0.000000
  70
    32
  0
VERTEX
  8
0
  5
A6B2
 10
107.597
 20
85.6174
 30
0.000000
  70
    32
  0
VERTEX
  8
0
  5
A6B3
 10
107.472
 20
85.4725
 30
0.000000
  70
    32
  0
VERTEX
  8
0
  5
A6B4
 10
107.355
 20
85.3217
 30
0.000000
  70
    32
  0
VERTEX
  8
0
  5
A6B5
 10
107.245
 20
85.1653
 30
0.000000
  70
    32
  0
VERTEX
  8
0
  5
A6B6
 10
107.143
 20
85.0037
 30
0.000000
  70
    32
  0
VERTEX
  8
0
  5
A6B7
 10
107.049
 20
84.8372
 30
0.000000
  70
    32
  0
VERTEX
  8
0
  5
A6B8
 10
106.963
 20
84.6664
 30
0.000000
  70
    32
  0
VERTEX
  8
0
  5
A6B9
 10
106.886
 20
84.4915
 30
0.000000
  70
    32
  0
VERTEX
  8
0
  5
A6BA
 10
106.817
 20
84.3130
 30
0.000000
  70
    32
  0
VERTEX
  8
0
  5
A6BB
 10
106.757
 20
84.1314
 30
0.000000
  70
    32
  0
VERTEX
  8
0
  5
A6BC
 10
106.706
 20
83.9470
 30
0.000000
  70
    32
  0
VERTEX
  8
0
  5
A6BD
 10
106.665
 20
83.7604
 30
0.000000
  70
    32
  0
VERTEX
  8
0
  5
A6BE
 10
106.632
 20
83.5719
 30
0.000000
  70
    32
  0
VERTEX
  8
0
  5
A6BF
 10
106.609
 20
83.3820
 30
0.000000
  70
    32
  0
VERTEX
  8
0
  5
A6C0
 10
106.595
 20
83.1912
 30
0.000000
  70
    32
  0
VERTEX
  8
0
  5
A6C1
 10
106.590
 20
83.0000
 30
0.000000
  70
    32
  0
VERTEX
  8
0
  5
A6C2
 10
106.595
 20
82.8088
 30
0.000000
  70
    32
  0
VERTEX
  8
0
  5
A6C3
 10
106.609
 20
82.6180
 30
0.000000
  70
    32
  0
VERTEX
  8
0
  5
A6C4
 10
106.632
 20
82.4281
 30
0.000000
  70
    32
  0
VERTEX
  8
0
  5
A6C5
 10
106.665
 20
82.2396
 30
0.000000
  70
    32
  0
VERTEX
  8
0
  5
A6C6
 10
106.706
 20
82.0530
 30
0.000000
  70
    32
  0
VERTEX
  8
0
  5
A6C7
 10
106.757
 20
81.8686
 30
0.000000
  70
    32
  0
VERTEX
  8
0
  5
A6C8
 10
106.817
 20
81.6870
 30
0.000000
  70
    32
  0
VERTEX
  8
0
  5
A6C9
 10
106.886
 20
81.5085
 30
0.000000
  70
    32
  0
VERTEX
  8
0
  5
A6CA
 10
106.963
 20
81.3336
 30
0.000000
  70
    32
  0
VERTEX
  8
0
  5
A6CB
 10
107.049
 20
81.1628
 30
0.000000
  70
    32
  0
VERTEX
  8
0
  5
A6CC
 10
107.143
 20
80.9963
 30
0.000000
  70
    32
  0
VERTEX
  8
0
  5
A6CD
 10
107.245
 20
80.8347
 30
0.000000
  70
    32
  0
VERTEX
  8
0
  5
A6CE
 10
107.355
 20
80.6783
 30
0.000000
  70
    32
  0
VERTEX
  8
0
  5
A6CF
 10
107.472
 20
80.5275
 30
0.000000
  70
    32
  0
VERTEX
  8
0
  5
A6D0
 10
107.597
 20
80.3826
 30
0.000000
  70
    32
  0
VERTEX
  8
0
  5
A6D1
 10
107.728
 20
80.2441
 30
0.000000
  70
    32
  0
VERTEX
  8
0
  5
A6D2
 10
107.867
 20
80.1122
 30
0.000000
  70
    32
  0
VERTEX
  8
0
  5
A6D3
 10
108.011
 20
79.9872
 30
0.000000
  70
    32
  0
VERTEX
  8
0
  5
A6D4
 10
108.161
 20
79.8696
 30
0.000000
  70
    32
  0
VERTEX
  8
0
  5
A6D5
 10
108.317
 20
79.7594
 30
0.000000
  70
    32
  0
VERTEX
  8
0
  5
A6D6
 10
108.479
 20
79.6571
 30
0.000000
  70
    32
  0
VERTEX
  8
0
  5
A6D7
 10
108.645
 20
79.5628
 30
0.000000
  70
    32
  0
VERTEX
  8
0
  5
A6D8
 10
108.815
 20
79.4768
 30
0.000000
  70
    32
  0
VERTEX
  8
0
  5
A6D9
 10
108.989
 20
79.3992
 30
0.000000
  70
    32
  0
VERTEX
  8
0
  5
A6DA
 10
109.167
 20
79.3304
 30
0.000000
  70
    32
  0
VERTEX
  8
0
  5
A6DB
 10
109.349
 20
79.2704
 30
0.000000
  70
    32
  0
VERTEX
  8
0
  5
A6DC
 10
109.532
 20
79.2194
 30
0.000000
  70
    32
  0
VERTEX
  8
0
  5
A6DD
 10
109.719
 20
79.1775
 30
0.000000
  70
    32
  0
VERTEX
  8
0
  5
A6DE
 10
109.907
 20
79.1447
 30
0.000000
  70
    32
  0
VERTEX
  8
0
  5
A6DF
 10
110.096
 20
79.1213
 30
0.000000
  70
    32
  0
VERTEX
  8
0
  5
A6E0
 10
110.286
 20
79.1073
 30
0.000000
  70
    32
  0
VERTEX
  8
0
  5
A6E1
 10
110.477
 20
79.1026
 30
0.000000
  70
    32
  0
SEQEND
  8
0
  5
A6E2
  0
LINE
  5
9F76
  8
0
 10
110.7500000000002
 20
89.000000000000057
 30
0.0
 11
110.4993058061911
 21
89.000000000000057
 31
0.0
  0
ARC
  5
9F77
  8
0
 10
110.7500000000002
 20
83.000000000000057
 30
0.0
 40
6.0000000000000018
 50
294.99519985061539
 51
90.0
  0
POLYLINE
  5
9F78
  8
0
 66
     1
 10
0.0
 20
0.0
 30
0.0
  0
VERTEX
  5
A4DA
  8
0
 10
110.4918349768013
 20
88.999995193779469
 30
0.0
  0
VERTEX
  5
A4DB
  8
0
 10
110.25686497368849
 20
88.995135066666791
 30
0.0
  0
VERTEX
  5
A4DC
  8
0
 10
109.7556001929886
 20
88.954091732097879
 30
0.0
  0
VERTEX
  5
A4DD
  8
0
 10
109.25942239955801
 20
88.871707253529962
 30
0.0
  0
VERTEX
  5
A4DE
  8
0
 10
108.7578807988928
 20
88.744314235231798
 30
0.0
  0
VERTEX
  5
A4DF
  8
0
 10
108.268903296787
 20
88.574780563112967
 30
0.0
  0
VERTEX
  5
A4E0
  8
0
 10
108.1208969750505
 20
88.514027341736551
 30
0.0
  0
SEQEND
  5
A4E1
  8
0
  0
POLYLINE
  5
9F79
  8
0
 66
     1
 10
0.0
 20
0.0
 30
0.0
  0
VERTEX
  5
A4E2
  8
0
 10
85.379103024949828
 20
88.514027341736551
 30
0.0
  0
VERTEX
  5
A4E3
  8
0
 10
84.804814398908619
 20
88.725191307113008
 30
0.0
  0
VERTEX
  5
A4E4
  8
0
 10
84.206142943637886
 20
88.878800997666275
 30
0.0
  0
VERTEX
  5
A4E5
  8
0
 10
83.706000013529035
 20
88.958718835424534
 30
0.0
  0
VERTEX
  5
A4E6
  8
0
 10
83.200964487486019
 20
88.996679697035745
 30
0.0
  0
VERTEX
  5
A4E7
  8
0
 10
83.006622962330496
 20
88.999996941039001
 30
0.0
  0
SEQEND
  5
A4E8
  8
0
  0
LINE
  5
9F7A
  8
0
 10
83.000687757768276
 20
89.000000000000057
 30
0.0
 11
82.750000000000014
 21
89.000000000000057
 31
0.0
  0
ARC
  5
9F7B
  8
0
 10
82.750000000000014
 20
83.000000000000057
 30
0.0
 40
6.0000000000000009
 50
90.0
 51
245.004800149381
  0
ARC
  5
9F7C
  8
0
 10
108.1381858182435
 20
124.6815128432264
 30
0.0
 40
54.772005208333361
 50
239.34867465914371
 51
250.66092563961561
  0
ARC
  5
9F7D
  8
0
 10
85.361814181756074
 20
124.68151284322791
 30
0.0
 40
54.772005208335102
 50
289.33907436038442
 51
300.6513253408562
  0
POLYLINE
  5
9F7E
  8
0
 10
85.379103024949742
 20
88.514027341736451
 30
0.0
 66
     1
 70
     8
  0
VERTEX
  8
0
  5
A6E3
 10
85.3791
 20
88.5140
 30
0.000000
  70
    32
  0
VERTEX
  8
0
  5
A6E4
 10
85.4046
 20
88.5073
 30
0.000000
  70
    32
  0
VERTEX
  8
0
  5
A6E5
 10
85.4301
 20
88.5006
 30
0.000000
  70
    32
  0
VERTEX
  8
0
  5
A6E6
 10
85.4557
 20
88.4940
 30
0.000000
  70
    32
  0
VERTEX
  8
0
  5
A6E7
 10
85.4812
 20
88.4873
 30
0.000000
  70
    32
  0
VERTEX
  8
0
  5
A6E8
 10
85.5067
 20
88.4807
 30
0.000000
  70
    32
  0
VERTEX
  8
0
  5
A6E9
 10
85.5323
 20
88.4741
 30
0.000000
  70
    32
  0
VERTEX
  8
0
  5
A6EA
 10
85.5578
 20
88.4674
 30
0.000000
  70
    32
  0
VERTEX
  8
0
  5
A6EB
 10
85.5834
 20
88.4608
 30
0.000000
  70
    32
  0
VERTEX
  8
0
  5
A6EC
 10
85.6089
 20
88.4543
 30
0.000000
  70
    32
  0
VERTEX
  8
0
  5
A6ED
 10
85.6345
 20
88.4477
 30
0.000000
  70
    32
  0
VERTEX
  8
0
  5
A6EE
 10
85.6600
 20
88.4412
 30
0.000000
  70
    32
  0
VERTEX
  8
0
  5
A6EF
 10
85.6856
 20
88.4346
 30
0.000000
  70
    32
  0
VERTEX
  8
0
  5
A6F0
 10
85.7111
 20
88.4281
 30
0.000000
  70
    32
  0
VERTEX
  8
0
  5
A6F1
 10
85.7367
 20
88.4216
 30
0.000000
  70
    32
  0
VERTEX
  8
0
  5
A6F2
 10
85.7623
 20
88.4151
 30
0.000000
  70
    32
  0
VERTEX
  8
0
  5
A6F3
 10
85.7879
 20
88.4086
 30
0.000000
  70
    32
  0
VERTEX
  8
0
  5
A6F4
 10
85.8134
 20
88.4022
 30
0.000000
  70
    32
  0
VERTEX
  8
0
  5
A6F5
 10
85.8390
 20
88.3957
 30
0.000000
  70
    32
  0
VERTEX
  8
0
  5
A6F6
 10
85.8646
 20
88.3893
 30
0.000000
  70
    32
  0
VERTEX
  8
0
  5
A6F7
 10
85.8902
 20
88.3829
 30
0.000000
  70
    32
  0
VERTEX
  8
0
  5
A6F8
 10
85.9158
 20
88.3765
 30
0.000000
  70
    32
  0
VERTEX
  8
0
  5
A6F9
 10
85.9414
 20
88.3701
 30
0.000000
  70
    32
  0
VERTEX
  8
0
  5
A6FA
 10
85.9670
 20
88.3637
 30
0.000000
  70
    32
  0
VERTEX
  8
0
  5
A6FB
 10
85.9926
 20
88.3574
 30
0.000000
  70
    32
  0
VERTEX
  8
0
  5
A6FC
 10
86.0182
 20
88.3510
 30
0.000000
  70
    32
  0
VERTEX
  8
0
  5
A6FD
 10
86.0438
 20
88.3447
 30
0.000000
  70
    32
  0
VERTEX
  8
0
  5
A6FE
 10
86.0694
 20
88.3384
 30
0.000000
  70
    32
  0
VERTEX
  8
0
  5
A6FF
 10
86.0950
 20
88.3321
 30
0.000000
  70
    32
  0
VERTEX
  8
0
  5
A700
 10
86.1207
 20
88.3258
 30
0.000000
  70
    32
  0
VERTEX
  8
0
  5
A701
 10
86.1463
 20
88.3195
 30
0.000000
  70
    32
  0
VERTEX
  8
0
  5
A702
 10
86.1719
 20
88.3133
 30
0.000000
  70
    32
  0
VERTEX
  8
0
  5
A703
 10
86.1976
 20
88.3070
 30
0.000000
  70
    32
  0
VERTEX
  8
0
  5
A704
 10
86.2232
 20
88.3008
 30
0.000000
  70
    32
  0
VERTEX
  8
0
  5
A705
 10
86.2488
 20
88.2946
 30
0.000000
  70
    32
  0
VERTEX
  8
0
  5
A706
 10
86.2745
 20
88.2884
 30
0.000000
  70
    32
  0
VERTEX
  8
0
  5
A707
 10
86.3001
 20
88.2822
 30
0.000000
  70
    32
  0
VERTEX
  8
0
  5
A708
 10
86.3258
 20
88.2761
 30
0.000000
  70
    32
  0
VERTEX
  8
0
  5
A709
 10
86.3514
 20
88.2699
 30
0.000000
  70
    32
  0
VERTEX
  8
0
  5
A70A
 10
86.3771
 20
88.2638
 30
0.000000
  70
    32
  0
VERTEX
  8
0
  5
A70B
 10
86.4028
 20
88.2577
 30
0.000000
  70
    32
  0
VERTEX
  8
0
  5
A70C
 10
86.4284
 20
88.2516
 30
0.000000
  70
    32
  0
VERTEX
  8
0
  5
A70D
 10
86.4541
 20
88.2455
 30
0.000000
  70
    32
  0
VERTEX
  8
0
  5
A70E
 10
86.4798
 20
88.2394
 30
0.000000
  70
    32
  0
VERTEX
  8
0
  5
A70F
 10
86.5055
 20
88.2334
 30
0.000000
  70
    32
  0
VERTEX
  8
0
  5
A710
 10
86.5311
 20
88.2273
 30
0.000000
  70
    32
  0
VERTEX
  8
0
  5
A711
 10
86.5568
 20
88.2213
 30
0.000000
  70
    32
  0
VERTEX
  8
0
  5
A712
 10
86.5825
 20
88.2153
 30
0.000000
  70
    32
  0
VERTEX
  8
0
  5
A713
 10
86.6082
 20
88.2093
 30
0.000000
  70
    32
  0
VERTEX
  8
0
  5
A714
 10
86.6339
 20
88.2033
 30
0.000000
  70
    32
  0
VERTEX
  8
0
  5
A715
 10
86.6596
 20
88.1973
 30
0.000000
  70
    32
  0
VERTEX
  8
0
  5
A716
 10
86.6853
 20
88.1914
 30
0.000000
  70
    32
  0
VERTEX
  8
0
  5
A717
 10
86.7110
 20
88.1855
 30
0.000000
  70
    32
  0
VERTEX
  8
0
  5
A718
 10
86.7367
 20
88.1795
 30
0.000000
  70
    32
  0
VERTEX
  8
0
  5
A719
 10
86.7624
 20
88.1736
 30
0.000000
  70
    32
  0
VERTEX
  8
0
  5
A71A
 10
86.7881
 20
88.1677
 30
0.000000
  70
    32
  0
VERTEX
  8
0
  5
A71B
 10
86.8139
 20
88.1619
 30
0.000000
  70
    32
  0
VERTEX
  8
0
  5
A71C
 10
86.8396
 20
88.1560
 30
0.000000
  70
    32
  0
VERTEX
  8
0
  5
A71D
 10
86.8653
 20
88.1502
 30
0.000000
  70
    32
  0
VERTEX
  8
0
  5
A71E
 10
86.8910
 20
88.1443
 30
0.000000
  70
    32
  0
VERTEX
  8
0
  5
A71F
 10
86.9168
 20
88.1385
 30
0.000000
  70
    32
  0
VERTEX
  8
0
  5
A720
 10
86.9425
 20
88.1327
 30
0.000000
  70
    32
  0
VERTEX
  8
0
  5
A721
 10
86.9682
 20
88.1269
 30
0.000000
  70
    32
  0
VERTEX
  8
0
  5
A722
 10
86.9940
 20
88.1211
 30
0.000000
  70
    32
  0
VERTEX
  8
0
  5
A723
 10
87.0197
 20
88.1154
 30
0.000000
  70
    32
  0
VERTEX
  8
0
  5
A724
 10
87.0455
 20
88.1096
 30
0.000000
  70
    32
  0
VERTEX
  8
0
  5
A725
 10
87.0712
 20
88.1039
 30
0.000000
  70
    32
  0
VERTEX
  8
0
  5
A726
 10
87.0970
 20
88.0982
 30
0.000000
  70
    32
  0
VERTEX
  8
0
  5
A727
 10
87.1227
 20
88.0925
 30
0.000000
  70
    32
  0
VERTEX
  8
0
  5
A728
 10
87.1485
 20
88.0868
 30
0.000000
  70
    32
  0
VERTEX
  8
0
  5
A729
 10
87.1743
 20
88.0812
 30
0.000000
  70
    32
  0
VERTEX
  8
0
  5
A72A
 10
87.2000
 20
88.0755
 30
0.000000
  70
    32
  0
VERTEX
  8
0
  5
A72B
 10
87.2258
 20
88.0699
 30
0.000000
  70
    32
  0
VERTEX
  8
0
  5
A72C
 10
87.2516
 20
88.0643
 30
0.000000
  70
    32
  0
VERTEX
  8
0
  5
A72D
 10
87.2774
 20
88.0586
 30
0.000000
  70
    32
  0
VERTEX
  8
0
  5
A72E
 10
87.3031
 20
88.0531
 30
0.000000
  70
    32
  0
VERTEX
  8
0
  5
A72F
 10
87.3289
 20
88.0475
 30
0.000000
  70
    32
  0
VERTEX
  8
0
  5
A730
 10
87.3547
 20
88.0419
 30
0.000000
  70
    32
  0
VERTEX
  8
0
  5
A731
 10
87.3805
 20
88.0364
 30
0.000000
  70
    32
  0
VERTEX
  8
0
  5
A732
 10
87.4063
 20
88.0308
 30
0.000000
  70
    32
  0
VERTEX
  8
0
  5
A733
 10
87.4321
 20
88.0253
 30
0.000000
  70
    32
  0
VERTEX
  8
0
  5
A734
 10
87.4579
 20
88.0198
 30
0.000000
  70
    32
  0
VERTEX
  8
0
  5
A735
 10
87.4837
 20
88.0143
 30
0.000000
  70
    32
  0
VERTEX
  8
0
  5
A736
 10
87.5095
 20
88.0089
 30
0.000000
  70
    32
  0
VERTEX
  8
0
  5
A737
 10
87.5353
 20
88.0034
 30
0.000000
  70
    32
  0
VERTEX
  8
0
  5
A738
 10
87.5611
 20
87.9980
 30
0.000000
  70
    32
  0
VERTEX
  8
0
  5
A739
 10
87.5870
 20
87.9925
 30
0.000000
  70
    32
  0
VERTEX
  8
0
  5
A73A
 10
87.6128
 20
87.9871
 30
0.000000
  70
    32
  0
VERTEX
  8
0
  5
A73B
 10
87.6386
 20
87.9817
 30
0.000000
  70
    32
  0
VERTEX
  8
0
  5
A73C
 10
87.6644
 20
87.9764
 30
0.000000
  70
    32
  0
VERTEX
  8
0
  5
A73D
 10
87.6903
 20
87.9710
 30
0.000000
  70
    32
  0
VERTEX
  8
0
  5
A73E
 10
87.7161
 20
87.9656
 30
0.000000
  70
    32
  0
VERTEX
  8
0
  5
A73F
 10
87.7419
 20
87.9603
 30
0.000000
  70
    32
  0
VERTEX
  8
0
  5
A740
 10
87.7678
 20
87.9550
 30
0.000000
  70
    32
  0
VERTEX
  8
0
  5
A741
 10
87.7936
 20
87.9497
 30
0.000000
  70
    32
  0
VERTEX
  8
0
  5
A742
 10
87.8195
 20
87.9444
 30
0.000000
  70
    32
  0
VERTEX
  8
0
  5
A743
 10
87.8453
 20
87.9391
 30
0.000000
  70
    32
  0
VERTEX
  8
0
  5
A744
 10
87.8712
 20
87.9339
 30
0.000000
  70
    32
  0
VERTEX
  8
0
  5
A745
 10
87.8970
 20
87.9286
 30
0.000000
  70
    32
  0
VERTEX
  8
0
  5
A746
 10
87.9229
 20
87.9234
 30
0.000000
  70
    32
  0
VERTEX
  8
0
  5
A747
 10
87.9487
 20
87.9182
 30
0.000000
  70
    32
  0
VERTEX
  8
0
  5
A748
 10
87.9746
 20
87.9130
 30
0.000000
  70
    32
  0
VERTEX
  8
0
  5
A749
 10
88.0005
 20
87.9078
 30
0.000000
  70
    32
  0
VERTEX
  8
0
  5
A74A
 10
88.0263
 20
87.9026
 30
0.000000
  70
    32
  0
VERTEX
  8
0
  5
A74B
 10
88.0522
 20
87.8975
 30
0.000000
  70
    32
  0
VERTEX
  8
0
  5
A74C
 10
88.0781
 20
87.8923
 30
0.000000
  70
    32
  0
VERTEX
  8
0
  5
A74D
 10
88.1040
 20
87.8872
 30
0.000000
  70
    32
  0
VERTEX
  8
0
  5
A74E
 10
88.1298
 20
87.8821
 30
0.000000
  70
    32
  0
VERTEX
  8
0
  5
A74F
 10
88.1557
 20
87.8770
 30
0.000000
  70
    32
  0
VERTEX
  8
0
  5
A750
 10
88.1816
 20
87.8719
 30
0.000000
  70
    32
  0
VERTEX
  8
0
  5
A751
 10
88.2075
 20
87.8669
 30
0.000000
  70
    32
  0
VERTEX
  8
0
  5
A752
 10
88.2334
 20
87.8618
 30
0.000000
  70
    32
  0
VERTEX
  8
0
  5
A753
 10
88.2593
 20
87.8568
 30
0.000000
  70
    32
  0
VERTEX
  8
0
  5
A754
 10
88.2852
 20
87.8518
 30
0.000000
  70
    32
  0
VERTEX
  8
0
  5
A755
 10
88.3111
 20
87.8468
 30
0.000000
  70
    32
  0
VERTEX
  8
0
  5
A756
 10
88.3370
 20
87.8418
 30
0.000000
  70
    32
  0
VERTEX
  8
0
  5
A757
 10
88.3629
 20
87.8368
 30
0.000000
  70
    32
  0
VERTEX
  8
0
  5
A758
 10
88.3888
 20
87.8318
 30
0.000000
  70
    32
  0
VERTEX
  8
0
  5
A759
 10
88.4147
 20
87.8269
 30
0.000000
  70
    32
  0
VERTEX
  8
0
  5
A75A
 10
88.4406
 20
87.8220
 30
0.000000
  70
    32
  0
VERTEX
  8
0
  5
A75B
 10
88.4666
 20
87.8171
 30
0.000000
  70
    32
  0
VERTEX
  8
0
  5
A75C
 10
88.4925
 20
87.8122
 30
0.000000
  70
    32
  0
VERTEX
  8
0
  5
A75D
 10
88.5184
 20
87.8073
 30
0.000000
  70
    32
  0
VERTEX
  8
0
  5
A75E
 10
88.5443
 20
87.8024
 30
0.000000
  70
    32
  0
VERTEX
  8
0
  5
A75F
 10
88.5703
 20
87.7976
 30
0.000000
  70
    32
  0
VERTEX
  8
0
  5
A760
 10
88.5962
 20
87.7927
 30
0.000000
  70
    32
  0
VERTEX
  8
0
  5
A761
 10
88.6221
 20
87.7879
 30
0.000000
  70
    32
  0
VERTEX
  8
0
  5
A762
 10
88.6481
 20
87.7831
 30
0.000000
  70
    32
  0
VERTEX
  8
0
  5
A763
 10
88.6740
 20
87.7783
 30
0.000000
  70
    32
  0
SEQEND
  8
0
  5
A764
  0
POLYLINE
  5
9F7F
  8
0
 66
     1
 10
0.0
 20
0.0
 30
0.0
  0
VERTEX
  5
A4E9
  8
0
 10
90.921527901753237
 20
87.503924265143226
 30
0.0
  0
VERTEX
  5
A4EA
  8
0
 10
90.692697055663089
 20
87.510694993174127
 30
0.0
  0
VERTEX
  5
A4EB
  8
0
 10
90.413827272463223
 20
87.530605308894707
 30
0.0
  0
VERTEX
  5
A4EC
  8
0
 10
90.092458666470137
 20
87.563223125966076
 30
0.0
  0
VERTEX
  5
A4ED
  8
0
 10
89.738356325217026
 20
87.607404496488755
 30
0.0
  0
VERTEX
  5
A4EE
  8
0
 10
89.357834377697955
 20
87.662528043462117
 30
0.0
  0
VERTEX
  5
A4EF
  8
0
 10
88.964729808750576
 20
87.726551170589175
 30
0.0
  0
VERTEX
  5
A4F0
  8
0
 10
88.674021045102918
 20
87.778299670357143
 30
0.0
  0
SEQEND
  5
A4F1
  8
0
  0
POLYLINE
  5
9F80
  8
0
 66
     1
 10
0.0
 20
0.0
 30
0.0
  0
VERTEX
  5
A4F2
  8
0
 10
104.82597895489729
 20
87.778299670357143
 30
0.0
  0
VERTEX
  5
A4F3
  8
0
 10
104.5568979775308
 20
87.730293487701374
 30
0.0
  0
VERTEX
  5
A4F4
  8
0
 10
104.2876152022847
 20
87.685413462436657
 30
0.0
  0
VERTEX
  5
A4F5
  8
0
 10
104.02315606338
 20
87.644506693007884
 30
0.0
  0
VERTEX
  5
A4F6
  8
0
 10
103.7658972904092
 20
87.608002180889883
 30
0.0
  0
VERTEX
  5
A4F7
  8
0
 10
103.5185574864428
 20
87.576254656694204
 30
0.0
  0
VERTEX
  5
A4F8
  8
0
 10
103.2860135802665
 20
87.549901677024636
 30
0.0
  0
VERTEX
  5
A4F9
  8
0
 10
103.0739196237357
 20
87.529567547424975
 30
0.0
  0
VERTEX
  5
A4FA
  8
0
 10
102.8806400330304
 20
87.514959486828531
 30
0.0
  0
VERTEX
  5
A4FB
  8
0
 10
102.70999927280189
 20
87.506375861679956
 30
0.0
  0
VERTEX
  5
A4FC
  8
0
 10
102.57847215837469
 20
87.503924265143226
 30
0.0
  0
SEQEND
  5
A4FD
  8
0
  0
POLYLINE
  5
9F81
  8
0
 10
104.82597895489734
 20
87.778299670357086
 30
0.0
 66
     1
 70
     8
  0
VERTEX
  8
0
  5
A765
 10
104.826
 20
87.7783
 30
0.000000
  70
    32
  0
VERTEX
  8
0
  5
A766
 10
104.852
 20
87.7831
 30
0.000000
  70
    32
  0
VERTEX
  8
0
  5
A767
 10
104.878
 20
87.7879
 30
0.000000
  70
    32
  0
VERTEX
  8
0
  5
A768
 10
104.904
 20
87.7927
 30
0.000000
  70
    32
  0
VERTEX
  8
0
  5
A769
 10
104.930
 20
87.7976
 30
0.000000
  70
    32
  0
VERTEX
  8
0
  5
A76A
 10
104.956
 20
87.8024
 30
0.000000
  70
    32
  0
VERTEX
  8
0
  5
A76B
 10
104.982
 20
87.8073
 30
0.000000
  70
    32
  0
VERTEX
  8
0
  5
A76C
 10
105.008
 20
87.8122
 30
0.000000
  70
    32
  0
VERTEX
  8
0
  5
A76D
 10
105.033
 20
87.8171
 30
0.000000
  70
    32
  0
VERTEX
  8
0
  5
A76E
 10
105.059
 20
87.8220
 30
0.000000
  70
    32
  0
VERTEX
  8
0
  5
A76F
 10
105.085
 20
87.8269
 30
0.000000
  70
    32
  0
VERTEX
  8
0
  5
A770
 10
105.111
 20
87.8318
 30
0.000000
  70
    32
  0
VERTEX
  8
0
  5
A771
 10
105.137
 20
87.8368
 30
0.000000
  70
    32
  0
VERTEX
  8
0
  5
A772
 10
105.163
 20
87.8418
 30
0.000000
  70
    32
  0
VERTEX
  8
0
  5
A773
 10
105.189
 20
87.8468
 30
0.000000
  70
    32
  0
VERTEX
  8
0
  5
A774
 10
105.215
 20
87.8518
 30
0.000000
  70
    32
  0
VERTEX
  8
0
  5
A775
 10
105.241
 20
87.8568
 30
0.000000
  70
    32
  0
VERTEX
  8
0
  5
A776
 10
105.267
 20
87.8618
 30
0.000000
  70
    32
  0
VERTEX
  8
0
  5
A777
 10
105.292
 20
87.8669
 30
0.000000
  70
    32
  0
VERTEX
  8
0
  5
A778
 10
105.318
 20
87.8719
 30
0.000000
  70
    32
  0
VERTEX
  8
0
  5
A779
 10
105.344
 20
87.8770
 30
0.000000
  70
    32
  0
VERTEX
  8
0
  5
A77A
 10
105.370
 20
87.8821
 30
0.000000
  70
    32
  0
VERTEX
  8
0
  5
A77B
 10
105.396
 20
87.8872
 30
0.000000
  70
    32
  0
VERTEX
  8
0
  5
A77C
 10
105.422
 20
87.8923
 30
0.000000
  70
    32
  0
VERTEX
  8
0
  5
A77D
 10
105.448
 20
87.8975
 30
0.000000
  70
    32
  0
VERTEX
  8
0
  5
A77E
 10
105.474
 20
87.9026
 30
0.000000
  70
    32
  0
VERTEX
  8
0
  5
A77F
 10
105.500
 20
87.9078
 30
0.000000
  70
    32
  0
VERTEX
  8
0
  5
A780
 10
105.525
 20
87.9130
 30
0.000000
  70
    32
  0
VERTEX
  8
0
  5
A781
 10
105.551
 20
87.9182
 30
0.000000
  70
    32
  0
VERTEX
  8
0
  5
A782
 10
105.577
 20
87.9234
 30
0.000000
  70
    32
  0
VERTEX
  8
0
  5
A783
 10
105.603
 20
87.9286
 30
0.000000
  70
    32
  0
VERTEX
  8
0
  5
A784
 10
105.629
 20
87.9339
 30
0.000000
  70
    32
  0
VERTEX
  8
0
  5
A785
 10
105.655
 20
87.9391
 30
0.000000
  70
    32
  0
VERTEX
  8
0
  5
A786
 10
105.681
 20
87.9444
 30
0.000000
  70
    32
  0
VERTEX
  8
0
  5
A787
 10
105.706
 20
87.9497
 30
0.000000
  70
    32
  0
VERTEX
  8
0
  5
A788
 10
105.732
 20
87.9550
 30
0.000000
  70
    32
  0
VERTEX
  8
0
  5
A789
 10
105.758
 20
87.9603
 30
0.000000
  70
    32
  0
VERTEX
  8
0
  5
A78A
 10
105.784
 20
87.9656
 30
0.000000
  70
    32
  0
VERTEX
  8
0
  5
A78B
 10
105.810
 20
87.9710
 30
0.000000
  70
    32
  0
VERTEX
  8
0
  5
A78C
 10
105.836
 20
87.9764
 30
0.000000
  70
    32
  0
VERTEX
  8
0
  5
A78D
 10
105.861
 20
87.9817
 30
0.000000
  70
    32
  0
VERTEX
  8
0
  5
A78E
 10
105.887
 20
87.9871
 30
0.000000
  70
    32
  0
VERTEX
  8
0
  5
A78F
 10
105.913
 20
87.9925
 30
0.000000
  70
    32
  0
VERTEX
  8
0
  5
A790
 10
105.939
 20
87.9980
 30
0.000000
  70
    32
  0
VERTEX
  8
0
  5
A791
 10
105.965
 20
88.0034
 30
0.000000
  70
    32
  0
VERTEX
  8
0
  5
A792
 10
105.990
 20
88.0089
 30
0.000000
  70
    32
  0
VERTEX
  8
0
  5
A793
 10
106.016
 20
88.0143
 30
0.000000
  70
    32
  0
VERTEX
  8
0
  5
A794
 10
106.042
 20
88.0198
 30
0.000000
  70
    32
  0
VERTEX
  8
0
  5
A795
 10
106.068
 20
88.0253
 30
0.000000
  70
    32
  0
VERTEX
  8
0
  5
A796
 10
106.094
 20
88.0308
 30
0.000000
  70
    32
  0
VERTEX
  8
0
  5
A797
 10
106.119
 20
88.0364
 30
0.000000
  70
    32
  0
VERTEX
  8
0
  5
A798
 10
106.145
 20
88.0419
 30
0.000000
  70
    32
  0
VERTEX
  8
0
  5
A799
 10
106.171
 20
88.0475
 30
0.000000
  70
    32
  0
VERTEX
  8
0
  5
A79A
 10
106.197
 20
88.0531
 30
0.000000
  70
    32
  0
VERTEX
  8
0
  5
A79B
 10
106.223
 20
88.0586
 30
0.000000
  70
    32
  0
VERTEX
  8
0
  5
A79C
 10
106.248
 20
88.0643
 30
0.000000
  70
    32
  0
VERTEX
  8
0
  5
A79D
 10
106.274
 20
88.0699
 30
0.000000
  70
    32
  0
VERTEX
  8
0
  5
A79E
 10
106.300
 20
88.0755
 30
0.000000
  70
    32
  0
VERTEX
  8
0
  5
A79F
 10
106.326
 20
88.0812
 30
0.000000
  70
    32
  0
VERTEX
  8
0
  5
A7A0
 10
106.351
 20
88.0868
 30
0.000000
  70
    32
  0
VERTEX
  8
0
  5
A7A1
 10
106.377
 20
88.0925
 30
0.000000
  70
    32
  0
VERTEX
  8
0
  5
A7A2
 10
106.403
 20
88.0982
 30
0.000000
  70
    32
  0
VERTEX
  8
0
  5
A7A3
 10
106.429
 20
88.1039
 30
0.000000
  70
    32
  0
VERTEX
  8
0
  5
A7A4
 10
106.455
 20
88.1096
 30
0.000000
  70
    32
  0
VERTEX
  8
0
  5
A7A5
 10
106.480
 20
88.1154
 30
0.000000
  70
    32
  0
VERTEX
  8
0
  5
A7A6
 10
106.506
 20
88.1211
 30
0.000000
  70
    32
  0
VERTEX
  8
0
  5
A7A7
 10
106.532
 20
88.1269
 30
0.000000
  70
    32
  0
VERTEX
  8
0
  5
A7A8
 10
106.558
 20
88.1327
 30
0.000000
  70
    32
  0
VERTEX
  8
0
  5
A7A9
 10
106.583
 20
88.1385
 30
0.000000
  70
    32
  0
VERTEX
  8
0
  5
A7AA
 10
106.609
 20
88.1443
 30
0.000000
  70
    32
  0
VERTEX
  8
0
  5
A7AB
 10
106.635
 20
88.1502
 30
0.000000
  70
    32
  0
VERTEX
  8
0
  5
A7AC
 10
106.660
 20
88.1560
 30
0.000000
  70
    32
  0
VERTEX
  8
0
  5
A7AD
 10
106.686
 20
88.1619
 30
0.000000
  70
    32
  0
VERTEX
  8
0
  5
A7AE
 10
106.712
 20
88.1677
 30
0.000000
  70
    32
  0
VERTEX
  8
0
  5
A7AF
 10
106.738
 20
88.1736
 30
0.000000
  70
    32
  0
VERTEX
  8
0
  5
A7B0
 10
106.763
 20
88.1795
 30
0.000000
  70
    32
  0
VERTEX
  8
0
  5
A7B1
 10
106.789
 20
88.1855
 30
0.000000
  70
    32
  0
VERTEX
  8
0
  5
A7B2
 10
106.815
 20
88.1914
 30
0.000000
  70
    32
  0
VERTEX
  8
0
  5
A7B3
 10
106.840
 20
88.1973
 30
0.000000
  70
    32
  0
VERTEX
  8
0
  5
A7B4
 10
106.866
 20
88.2033
 30
0.000000
  70
    32
  0
VERTEX
  8
0
  5
A7B5
 10
106.892
 20
88.2093
 30
0.000000
  70
    32
  0
VERTEX
  8
0
  5
A7B6
 10
106.917
 20
88.2153
 30
0.000000
  70
    32
  0
VERTEX
  8
0
  5
A7B7
 10
106.943
 20
88.2213
 30
0.000000
  70
    32
  0
VERTEX
  8
0
  5
A7B8
 10
106.969
 20
88.2273
 30
0.000000
  70
    32
  0
VERTEX
  8
0
  5
A7B9
 10
106.995
 20
88.2334
 30
0.000000
  70
    32
  0
VERTEX
  8
0
  5
A7BA
 10
107.020
 20
88.2394
 30
0.000000
  70
    32
  0
VERTEX
  8
0
  5
A7BB
 10
107.046
 20
88.2455
 30
0.000000
  70
    32
  0
VERTEX
  8
0
  5
A7BC
 10
107.072
 20
88.2516
 30
0.000000
  70
    32
  0
VERTEX
  8
0
  5
A7BD
 10
107.097
 20
88.2577
 30
0.000000
  70
    32
  0
VERTEX
  8
0
  5
A7BE
 10
107.123
 20
88.2638
 30
0.000000
  70
    32
  0
VERTEX
  8
0
  5
A7BF
 10
107.149
 20
88.2699
 30
0.000000
  70
    32
  0
VERTEX
  8
0
  5
A7C0
 10
107.174
 20
88.2761
 30
0.000000
  70
    32
  0
VERTEX
  8
0
  5
A7C1
 10
107.200
 20
88.2822
 30
0.000000
  70
    32
  0
VERTEX
  8
0
  5
A7C2
 10
107.226
 20
88.2884
 30
0.000000
  70
    32
  0
VERTEX
  8
0
  5
A7C3
 10
107.251
 20
88.2946
 30
0.000000
  70
    32
  0
VERTEX
  8
0
  5
A7C4
 10
107.277
 20
88.3008
 30
0.000000
  70
    32
  0
VERTEX
  8
0
  5
A7C5
 10
107.302
 20
88.3070
 30
0.000000
  70
    32
  0
VERTEX
  8
0
  5
A7C6
 10
107.328
 20
88.3133
 30
0.000000
  70
    32
  0
VERTEX
  8
0
  5
A7C7
 10
107.354
 20
88.3195
 30
0.000000
  70
    32
  0
VERTEX
  8
0
  5
A7C8
 10
107.379
 20
88.3258
 30
0.000000
  70
    32
  0
VERTEX
  8
0
  5
A7C9
 10
107.405
 20
88.3321
 30
0.000000
  70
    32
  0
VERTEX
  8
0
  5
A7CA
 10
107.431
 20
88.3384
 30
0.000000
  70
    32
  0
VERTEX
  8
0
  5
A7CB
 10
107.456
 20
88.3447
 30
0.000000
  70
    32
  0
VERTEX
  8
0
  5
A7CC
 10
107.482
 20
88.3510
 30
0.000000
  70
    32
  0
VERTEX
  8
0
  5
A7CD
 10
107.507
 20
88.3574
 30
0.000000
  70
    32
  0
VERTEX
  8
0
  5
A7CE
 10
107.533
 20
88.3637
 30
0.000000
  70
    32
  0
VERTEX
  8
0
  5
A7CF
 10
107.559
 20
88.3701
 30
0.000000
  70
    32
  0
VERTEX
  8
0
  5
A7D0
 10
107.584
 20
88.3765
 30
0.000000
  70
    32
  0
VERTEX
  8
0
  5
A7D1
 10
107.610
 20
88.3829
 30
0.000000
  70
    32
  0
VERTEX
  8
0
  5
A7D2
 10
107.635
 20
88.3893
 30
0.000000
  70
    32
  0
VERTEX
  8
0
  5
A7D3
 10
107.661
 20
88.3957
 30
0.000000
  70
    32
  0
VERTEX
  8
0
  5
A7D4
 10
107.687
 20
88.4022
 30
0.000000
  70
    32
  0
VERTEX
  8
0
  5
A7D5
 10
107.712
 20
88.4086
 30
0.000000
  70
    32
  0
VERTEX
  8
0
  5
A7D6
 10
107.738
 20
88.4151
 30
0.000000
  70
    32
  0
VERTEX
  8
0
  5
A7D7
 10
107.763
 20
88.4216
 30
0.000000
  70
    32
  0
VERTEX
  8
0
  5
A7D8
 10
107.789
 20
88.4281
 30
0.000000
  70
    32
  0
VERTEX
  8
0
  5
A7D9
 10
107.814
 20
88.4346
 30
0.000000
  70
    32
  0
VERTEX
  8
0
  5
A7DA
 10
107.840
 20
88.4412
 30
0.000000
  70
    32
  0
VERTEX
  8
0
  5
A7DB
 10
107.866
 20
88.4477
 30
0.000000
  70
    32
  0
VERTEX
  8
0
  5
A7DC
 10
107.891
 20
88.4543
 30
0.000000
  70
    32
  0
VERTEX
  8
0
  5
A7DD
 10
107.917
 20
88.4608
 30
0.000000
  70
    32
  0
VERTEX
  8
0
  5
A7DE
 10
107.942
 20
88.4674
 30
0.000000
  70
    32
  0
VERTEX
  8
0
  5
A7DF
 10
107.968
 20
88.4741
 30
0.000000
  70
    32
  0
VERTEX
  8
0
  5
A7E0
 10
107.993
 20
88.4807
 30
0.000000
  70
    32
  0
VERTEX
  8
0
  5
A7E1
 10
108.019
 20
88.4873
 30
0.000000
  70
    32
  0
VERTEX
  8
0
  5
A7E2
 10
108.044
 20
88.4940
 30
0.000000
  70
    32
  0
VERTEX
  8
0
  5
A7E3
 10
108.070
 20
88.5006
 30
0.000000
  70
    32
  0
VERTEX
  8
0
  5
A7E4
 10
108.095
 20
88.5073
 30
0.000000
  70
    32
  0
VERTEX
  8
0
  5
A7E5
 10
108.121
 20
88.5140
 30
0.000000
  70
    32
  0
SEQEND
  8
0
  5
A7E6
  0
LINE
  5
9F82
  8
0
 10
90.921527901753237
 20
87.503924265143226
 30
0.0
 11
102.57847215837469
 21
87.503924265143226
 31
0.0
  0
LINE
  5
9F83
  8
0
 10
103.5000000000001
 20
69.0
 30
0.0
 11
103.5000000000001
 21
73.0
 31
0.0
  0
LINE
  5
9F84
  8
0
 10
90.000000000000114
 20
73.0
 30
0.0
 11
90.000000000000114
 21
69.0
 31
0.0
  0
LINE
  5
9F85
  8
0
 10
90.000000000000114
 20
69.0
 30
0.0
 11
103.5000000000001
 21
69.0
 31
0.0
  0
LINE
  5
9FA5
  8
0
 10
50.500000000000043
 20
90.700044426558705
 30
0.0
 11
49.500000000000043
 21
90.700044426558705
 31
0.0
  0
LINE
  5
9FA6
  8
0
 10
48.834857387518987
 20
90.571691160751527
 30
0.0
 11
47.994482214465549
 21
90.324703994621544
 31
0.0
  0
LINE
  5
9FA7
  8
0
 10
47.500018927840117
 20
90.108641544823911
 30
0.0
 11
46.625251049994617
 21
89.588242136314761
 31
0.0
  0
ARC
  5
9FB1
  8
0
 10
50.247456599530707
 20
84.494900701800859
 30
0.0
 40
6.2500000010467156
 50
96.868617269747105
 51
101.8503942507331
  0
ARC
  5
9FB2
  8
0
 10
50.247456599374622
 20
84.494900702856697
 30
0.0
 40
6.2499999999790052
 50
111.1294256402563
 51
116.07772620483421
  0
ARC
  5
9FB3
  8
0
 10
50.247456599374651
 20
84.494900702844191
 30
0.0
 40
6.249999999989404
 50
125.4191012986757
 51
144.0021794459461
  0
LINE
  5
9FB4
  8
0
 10
48.963975779716868
 20
90.611695368802032
 30
0.0
 11
48.834857387518987
 21
90.571691160751527
 31
0.0
  0
ARC
  5
9FB6
  8
0
 10
46.000000000000043
 20
87.580611712695514
 30
0.0
 40
0.9999999999999836
 50
144.0021794459382
 51
180.0
  0
LINE
  5
9FB8
  8
0
 10
45.000000000000043
 20
87.580611712695514
 30
0.0
 11
45.000000000000043
 21
87.503924265143226
 31
0.0
  0
LINE
  5
9FDD
  8
1
 10
50.0
 20
50.0
 30
0.0
 11
50.000000000000043
 21
93.700044426558719
 31
0.0
  0
LINE
  5
9FDE
  8
0
 10
43.250000000000007
 20
69.0
 30
0.0
 11
56.750000000000007
 21
69.0
 31
0.0
  0
LINE
  5
9FDF
  8
0
 10
56.750000000000007
 20
69.0
 30
0.0
 11
56.750000000000043
 21
87.503924265143226
 31
0.0
  0
LINE
  5
9FE0
  8
0
 10
43.250000000000043
 20
87.503924265143226
 30
0.0
 11
43.250000000000007
 21
69.0
 31
0.0
  0
LINE
  5
9FE1
  8
0
 10
53.404616424791122
 20
87.503924265143226
 30
0.0
 11
53.404616424791087
 21
73.0
 31
0.0
  0
LINE
  5
9FE2
  8
0
 10
52.215146709437207
 20
73.534081874018483
 30
0.0
 11
52.221547213337807
 21
73.59970502993275
 31
0.0
  0
LINE
  5
9FE3
  8
0
 10
46.595383575208963
 20
87.503924265143226
 30
0.0
 11
46.595383575208942
 21
73.0
 31
0.0
  0
POLYLINE
  5
9FE4
  8
0
 66
     1
 10
0.0
 20
0.0
 30
0.0
  0
VERTEX
  5
A4FE
  8
0
 10
47.076630864887569
 20
87.519553229120618
 30
0.0
  0
VERTEX
  5
A4FF
  8
0
 10
47.005191483371711
 20
87.514959486828488
 30
0.0
  0
VERTEX
  5
A500
  8
0
 10
46.796669037973778
 20
87.506375861679913
 30
0.0
  0
VERTEX
  5
A501
  8
0
 10
46.595383575208963
 20
87.503924265143226
 30
0.0
  0
SEQEND
  5
A502
  8
0
  0
POLYLINE
  5
9FE5
  8
0
 66
     1
 10
0.0
 20
0.0
 30
0.0
  0
VERTEX
  5
A503
  8
0
 10
47.784853287155002
 20
73.534117504309137
 30
0.0
  0
VERTEX
  5
A504
  8
0
 10
47.782678403718549
 20
73.498207003331629
 30
0.0
  0
VERTEX
  5
A505
  8
0
 10
47.755566280520448
 20
73.401382466938372
 30
0.0
  0
VERTEX
  5
A506
  8
0
 10
47.69692934569251
 20
73.311327345542196
 30
0.0
  0
VERTEX
  5
A507
  8
0
 10
47.605696815004123
 20
73.229166087236422
 30
0.0
  0
VERTEX
  5
A508
  8
0
 10
47.482499006425329
 20
73.156649600237131
 30
0.0
  0
VERTEX
  5
A509
  8
0
 10
47.329084155892538
 20
73.096101880542534
 30
0.0
  0
VERTEX
  5
A50A
  8
0
 10
47.158878210624728
 20
73.051918231507386
 30
0.0
  0
VERTEX
  5
A50B
  8
0
 10
46.964399267959671
 20
73.02058344148017
 30
0.0
  0
VERTEX
  5
A50C
  8
0
 10
46.749614912706377
 20
73.003311225609679
 30
0.0
  0
VERTEX
  5
A50D
  8
0
 10
46.595383575209759
 20
72.999999999999488
 30
0.0
  0
SEQEND
  5
A50E
  8
0
  0
POLYLINE
  5
9FE6
  8
0
 66
     1
 10
0.0
 20
0.0
 30
0.0
  0
VERTEX
  5
A50F
  8
0
 10
53.404616424791122
 20
87.503924265143226
 30
0.0
  0
VERTEX
  5
A510
  8
0
 10
53.183365423165647
 20
87.506948361615173
 30
0.0
  0
VERTEX
  5
A511
  8
0
 10
52.978981320541592
 20
87.515901578920804
 30
0.0
  0
VERTEX
  5
A512
  8
0
 10
52.923713071719767
 20
87.519528469710224
 30
0.0
  0
SEQEND
  5
A513
  8
0
  0
LINE
  5
9FE7
  8
0
 10
53.404616424791122
 20
87.503924265143226
 30
0.0
 11
56.750000000000043
 21
87.503924265143226
 31
0.0
  0
LINE
  5
9FE8
  8
0
 10
43.250000000000043
 20
87.503924265143226
 30
0.0
 11
46.595383575208963
 21
87.503924265143226
 31
0.0
  0
POLYLINE
  5
9FE9
  8
0
 66
     1
 10
0.0
 20
0.0
 30
0.0
  0
VERTEX
  5
A514
  8
0
 10
52.822825646294362
 20
77.561940859144613
 30
0.0
  0
VERTEX
  5
A515
  8
0
 10
52.750786076438899
 20
76.993675195801728
 30
0.0
  0
VERTEX
  5
A516
  8
0
 10
52.677893585619998
 20
76.446209856114535
 30
0.0
  0
VERTEX
  5
A517
  8
0
 10
52.604047875675533
 20
75.918910772446708
 30
0.0
  0
VERTEX
  5
A518
  8
0
 10
52.529408015401501
 20
75.413039620075949
 30
0.0
  0
VERTEX
  5
A519
  8
0
 10
52.45359493787727
 20
74.926325185208185
 30
0.0
  0
VERTEX
  5
A51A
  8
0
 10
52.377041600887672
 20
74.461874789519783
 30
0.0
  0
VERTEX
  5
A51B
  8
0
 10
52.299635609147437
 20
74.019234640653167
 30
0.0
  0
VERTEX
  5
A51C
  8
0
 10
52.221547213337807
 20
73.59970502993275
 30
0.0
  0
SEQEND
  5
A51D
  8
0
  0
POLYLINE
  5
9FEA
  8
0
 66
     1
 10
0.0
 20
0.0
 30
0.0
  0
VERTEX
  5
A51E
  8
0
 10
47.778452786662207
 20
73.599705029932764
 30
0.0
  0
VERTEX
  5
A51F
  8
0
 10
47.701066303200193
 20
74.015343520103812
 30
0.0
  0
VERTEX
  5
A520
  8
0
 10
47.624349697478422
 20
74.453680991750133
 30
0.0
  0
VERTEX
  5
A521
  8
0
 10
47.54819321179049
 20
74.915169338683199
 30
0.0
  0
VERTEX
  5
A522
  8
0
 10
47.472768321743771
 20
75.398690364777764
 30
0.0
  0
VERTEX
  5
A523
  8
0
 10
47.397699854844021
 20
75.906757186448601
 30
0.0
  0
VERTEX
  5
A524
  8
0
 10
47.323433507615242
 20
76.436493600032492
 30
0.0
  0
VERTEX
  5
A525
  8
0
 10
47.249869857892499
 20
76.988626716682319
 30
0.0
  0
VERTEX
  5
A526
  8
0
 10
47.177174353705659
 20
77.561940859144613
 30
0.0
  0
SEQEND
  5
A527
  8
0
  0
LINE
  5
9FEB
  8
0
 10
47.778452786662207
 20
73.59970502993275
 30
0.0
 11
47.784853287155002
 21
73.534117504309137
 31
0.0
  0
LINE
  5
9FEC
  8
0
 10
46.595383575208942
 20
73.0
 30
0.0
 11
53.404616424791087
 21
73.0
 31
0.0
  0
POLYLINE
  5
9FED
  8
0
 66
     1
 10
0.0
 20
0.0
 30
0.0
  0
VERTEX
  5
A528
  8
0
 10
53.404616424791087
 20
73.0
 30
0.0
  0
VERTEX
  5
A529
  8
0
 10
53.194702381502857
 20
73.006362108401163
 30
0.0
  0
VERTEX
  5
A52A
  8
0
 10
53.000066155067991
 20
73.025018175606903
 30
0.0
  0
VERTEX
  5
A52B
  8
0
 10
52.824327742855921
 20
73.055322814620581
 30
0.0
  0
VERTEX
  5
A52C
  8
0
 10
52.669449036043439
 20
73.096671441896831
 30
0.0
  0
VERTEX
  5
A52D
  8
0
 10
52.535687003794934
 20
73.148058695129919
 30
0.0
  0
VERTEX
  5
A52E
  8
0
 10
52.424790786707902
 20
73.208088665296913
 30
0.0
  0
VERTEX
  5
A52F
  8
0
 10
52.334029837515423
 20
73.279027695550084
 30
0.0
  0
VERTEX
  5
A530
  8
0
 10
52.268653130685962
 20
73.357250606638871
 30
0.0
  0
VERTEX
  5
A531
  8
0
 10
52.229070446733452
 20
73.441122851054786
 30
0.0
  0
VERTEX
  5
A532
  8
0
 10
52.215514698654303
 20
73.518954035219679
 30
0.0
  0
VERTEX
  5
A533
  8
0
 10
52.215146709437207
 20
73.534081874018483
 30
0.0
  0
SEQEND
  5
A534
  8
0
  0
LINE
  5
9FEE
  8
0
 10
47.000000000000043
 20
86.387038053187595
 30
0.0
 11
47.000000000000007
 21
79.612961946809065
 31
0.0
  0
LINE
  5
9FEF
  8
0
 10
53.000000000000043
 20
86.387038053166975
 30
0.0
 11
53.000000000000007
 21
79.612961946821684
 31
0.0
  0
POLYLINE
  5
9FF0
  8
0
 66
     1
 10
0.0
 20
0.0
 30
0.0
  0
VERTEX
  5
A535
  8
0
 10
47.000000000000753
 20
86.387038053181016
 30
0.0
  0
VERTEX
  5
A536
  8
0
 10
47.021790003669352
 20
86.785465391954176
 30
0.0
  0
VERTEX
  5
A537
  8
0
 10
47.046091970495993
 20
87.160267263338355
 30
0.0
  0
VERTEX
  5
A538
  8
0
 10
47.059367581182713
 20
87.340685770175412
 30
0.0
  0
VERTEX
  5
A539
  8
0
 10
47.073192251712143
 20
87.513189198452551
 30
0.0
  0
VERTEX
  5
A53A
  8
0
 10
47.087648594551112
 20
87.678638915112884
 30
0.0
  0
VERTEX
  5
A53B
  8
0
 10
47.102609444530273
 20
87.835442728922601
 30
0.0
  0
VERTEX
  5
A53C
  8
0
 10
47.13280488518155
 20
88.112555479225179
 30
0.0
  0
VERTEX
  5
A53D
  8
0
 10
47.164792119032242
 20
88.356104851155408
 30
0.0
  0
VERTEX
  5
A53E
  8
0
 10
47.181673003578467
 20
88.466234117240276
 30
0.0
  0
VERTEX
  5
A53F
  8
0
 10
47.198879573665302
 20
88.566455415569123
 30
0.0
  0
VERTEX
  5
A540
  8
0
 10
47.216509491224947
 20
88.657205810513716
 30
0.0
  0
VERTEX
  5
A541
  8
0
 10
47.2344058969705
 20
88.737569583623724
 30
0.0
  0
VERTEX
  5
A542
  8
0
 10
47.269702013911377
 20
88.863156358018244
 30
0.0
  0
VERTEX
  5
A543
  8
0
 10
47.305882599318217
 20
88.948912857216158
 30
0.0
  0
VERTEX
  5
A544
  8
0
 10
47.324530018121528
 20
88.976775016863726
 30
0.0
  0
VERTEX
  5
A545
  8
0
 10
47.34324676711703
 20
88.993805530733397
 30
0.0
  0
VERTEX
  5
A546
  8
0
 10
47.362135331456287
 20
88.999977535212423
 30
0.0
  0
VERTEX
  5
A547
  8
0
 10
47.36361320409388
 20
88.999998214295346
 30
0.0
  0
SEQEND
  5
A548
  8
0
  0
POLYLINE
  5
9FF3
  8
0
 66
     1
 10
0.0
 20
0.0
 30
0.0
  0
VERTEX
  5
A549
  8
0
 10
47.177174353705659
 20
77.561940859144613
 30
0.0
  0
VERTEX
  5
A54A
  8
0
 10
47.144757694837502
 20
77.79085967647967
 30
0.0
  0
VERTEX
  5
A54B
  8
0
 10
47.113833560930303
 20
78.055719047474611
 30
0.0
  0
VERTEX
  5
A54C
  8
0
 10
47.093604041013023
 20
78.257304991481874
 30
0.0
  0
VERTEX
  5
A54D
  8
0
 10
47.074228370055387
 20
78.47450679827017
 30
0.0
  0
VERTEX
  5
A54E
  8
0
 10
47.05580146959754
 20
78.706278645878513
 30
0.0
  0
VERTEX
  5
A54F
  8
0
 10
47.040712322878427
 20
78.917412352010373
 30
0.0
  0
VERTEX
  5
A550
  8
0
 10
47.026399153733287
 20
79.138456815947791
 30
0.0
  0
VERTEX
  5
A551
  8
0
 10
47.012768963312148
 20
79.371211826937866
 30
0.0
  0
VERTEX
  5
A552
  8
0
 10
47.000000000000007
 20
79.612961946809065
 30
0.0
  0
SEQEND
  5
A553
  8
0
  0
POLYLINE
  5
9FF5
  8
0
 66
     1
 10
0.0
 20
0.0
 30
0.0
  0
VERTEX
  5
A554
  8
0
 10
53.000000000000007
 20
79.612961946821684
 30
0.0
  0
VERTEX
  5
A555
  8
0
 10
52.978125929719923
 20
79.213181255001473
 30
0.0
  0
VERTEX
  5
A556
  8
0
 10
52.953903948492908
 20
78.839674856892941
 30
0.0
  0
VERTEX
  5
A557
  8
0
 10
52.93601421659708
 20
78.600075843104349
 30
0.0
  0
VERTEX
  5
A558
  8
0
 10
52.917142260559373
 20
78.374640992817433
 30
0.0
  0
VERTEX
  5
A559
  8
0
 10
52.897380645412753
 20
78.164457952113196
 30
0.0
  0
VERTEX
  5
A55A
  8
0
 10
52.879665899685293
 20
77.995917392604412
 30
0.0
  0
VERTEX
  5
A55B
  8
0
 10
52.861369388386251
 20
77.839479106516364
 30
0.0
  0
VERTEX
  5
A55C
  8
0
 10
52.842348000732713
 20
77.694179532254509
 30
0.0
  0
VERTEX
  5
A55D
  8
0
 10
52.822825646294362
 20
77.561940859144613
 30
0.0
  0
SEQEND
  5
A55E
  8
0
  0
LINE
  5
9FF8
  8
0
 10
52.637047612579188
 20
89.000000000000057
 30
0.0
 11
47.362772869364321
 21
89.000000000000057
 31
0.0
  0
POLYLINE
  5
9FF9
  8
0
 66
     1
 10
0.0
 20
0.0
 30
0.0
  0
VERTEX
  5
A55F
  8
0
 10
52.636543035705543
 20
88.999999477982158
 30
0.0
  0
VERTEX
  5
A560
  8
0
 10
52.641065960269671
 20
88.999706859522718
 30
0.0
  0
VERTEX
  5
A561
  8
0
 10
52.660063924429878
 20
88.991586219117707
 30
0.0
  0
VERTEX
  5
A562
  8
0
 10
52.67915984030337
 20
88.972128691367786
 30
0.0
  0
VERTEX
  5
A563
  8
0
 10
52.698176611335029
 20
88.941390805786767
 30
0.0
  0
VERTEX
  5
A564
  8
0
 10
52.734361016591727
 20
88.850852912322807
 30
0.0
  0
VERTEX
  5
A565
  8
0
 10
52.770116779187369
 20
88.718351583278832
 30
0.0
  0
VERTEX
  5
A566
  8
0
 10
52.788042357700029
 20
88.634897250543645
 30
0.0
  0
VERTEX
  5
A567
  8
0
 10
52.805690207654621
 20
88.540985872724079
 30
0.0
  0
VERTEX
  5
A568
  8
0
 10
52.823155647614172
 20
88.435956174298454
 30
0.0
  0
VERTEX
  5
A569
  8
0
 10
52.840273033189767
 20
88.320670028771133
 30
0.0
  0
VERTEX
  5
A56A
  8
0
 10
52.872001090636203
 20
88.071706019650037
 30
0.0
  0
VERTEX
  5
A56B
  8
0
 10
52.902314209884608
 20
87.785369572874231
 30
0.0
  0
VERTEX
  5
A56C
  8
0
 10
52.917099987744209
 20
87.625873573023554
 30
0.0
  0
VERTEX
  5
A56D
  8
0
 10
52.931373398310733
 20
87.457843456092377
 30
0.0
  0
VERTEX
  5
A56E
  8
0
 10
52.945207754915529
 20
87.280231358269916
 30
0.0
  0
VERTEX
  5
A56F
  8
0
 10
52.958469031029161
 20
87.094594159747771
 30
0.0
  0
VERTEX
  5
A570
  8
0
 10
52.980153135577758
 20
86.75261353570167
 30
0.0
  0
VERTEX
  5
A571
  8
0
 10
53.000000000000043
 20
86.387038053166975
 30
0.0
  0
SEQEND
  5
A572
  8
0
  0
LINE
  5
9FFF
  8
1
 10
96.750000000000128
 20
111.7000444265587
 30
0.0
 11
96.750000000000128
 21
131.20004442655869
 31
0.0
  0
LINE
  5
A000
  8
1
 10
119.74999999999579
 20
121.4500444265587
 30
0.0
 11
73.750000000014339
 21
121.4500444265587
 31
0.0
  0
CIRCLE
  5
A00F
  8
0
 10
96.750000000000185
 20
121.45004442655861
 30
0.0
 40
0.5
  0
CIRCLE
  5
A010
  8
0
 10
96.750000000000128
 20
121.4500444265587
 30
0.0
 40
5.0
  0
POLYLINE
  5
A011
  8
0
 10
99.750688658309656
 20
121.95004442655861
 30
0.0
 66
     1
 70
     8
  0
VERTEX
  8
0
  5
A7E7
 10
99.7507
 20
121.950
 30
0.000000
  70
    32
  0
VERTEX
  8
0
  5
A7E8
 10
99.7276
 20
121.949
 30
0.000000
  70
    32
  0
VERTEX
  8
0
  5
A7E9
 10
99.7046
 20
121.948
 30
0.000000
  70
    32
  0
VERTEX
  8
0
  5
A7EA
 10
99.6817
 20
121.945
 30
0.000000
  70
    32
  0
VERTEX
  8
0
  5
A7EB
 10
99.6590
 20
121.940
 30
0.000000
  70
    32
  0
VERTEX
  8
0
  5
A7EC
 10
99.6365
 20
121.935
 30
0.000000
  70
    32
  0
VERTEX
  8
0
  5
A7ED
 10
99.6143
 20
121.929
 30
0.000000
  70
    32
  0
VERTEX
  8
0
  5
A7EE
 10
99.5924
 20
121.921
 30
0.000000
  70
    32
  0
VERTEX
  8
0
  5
A7EF
 10
99.5709
 20
121.912
 30
0.000000
  70
    32
  0
VERTEX
  8
0
  5
A7F0
 10
99.5498
 20
121.902
 30
0.000000
  70
    32
  0
VERTEX
  8
0
  5
A7F1
 10
99.5292
 20
121.891
 30
0.000000
  70
    32
  0
VERTEX
  8
0
  5
A7F2
 10
99.5091
 20
121.879
 30
0.000000
  70
    32
  0
VERTEX
  8
0
  5
A7F3
 10
99.4897
 20
121.866
 30
0.000000
  70
    32
  0
VERTEX
  8
0
  5
A7F4
 10
99.4708
 20
121.852
 30
0.000000
  70
    32
  0
VERTEX
  8
0
  5
A7F5
 10
99.4526
 20
121.837
 30
0.000000
  70
    32
  0
VERTEX
  8
0
  5
A7F6
 10
99.4352
 20
121.821
 30
0.000000
  70
    32
  0
VERTEX
  8
0
  5
A7F7
 10
99.4185
 20
121.804
 30
0.000000
  70
    32
  0
VERTEX
  8
0
  5
A7F8
 10
99.4026
 20
121.786
 30
0.000000
  70
    32
  0
VERTEX
  8
0
  5
A7F9
 10
99.3875
 20
121.767
 30
0.000000
  70
    32
  0
VERTEX
  8
0
  5
A7FA
 10
99.3733
 20
121.748
 30
0.000000
  70
    32
  0
VERTEX
  8
0
  5
A7FB
 10
99.3600
 20
121.728
 30
0.000000
  70
    32
  0
VERTEX
  8
0
  5
A7FC
 10
99.3477
 20
121.707
 30
0.000000
  70
    32
  0
VERTEX
  8
0
  5
A7FD
 10
99.3363
 20
121.686
 30
0.000000
  70
    32
  0
VERTEX
  8
0
  5
A7FE
 10
99.3260
 20
121.664
 30
0.000000
  70
    32
  0
VERTEX
  8
0
  5
A7FF
 10
99.3166
 20
121.641
 30
0.000000
  70
    32
  0
VERTEX
  8
0
  5
A800
 10
99.3083
 20
121.618
 30
0.000000
  70
    32
  0
VERTEX
  8
0
  5
A801
 10
99.3011
 20
121.595
 30
0.000000
  70
    32
  0
VERTEX
  8
0
  5
A802
 10
99.2949
 20
121.572
 30
0.000000
  70
    32
  0
VERTEX
  8
0
  5
A803
 10
99.2899
 20
121.548
 30
0.000000
  70
    32
  0
VERTEX
  8
0
  5
A804
 10
99.2859
 20
121.523
 30
0.000000
  70
    32
  0
VERTEX
  8
0
  5
A805
 10
99.2831
 20
121.499
 30
0.000000
  70
    32
  0
VERTEX
  8
0
  5
A806
 10
99.2814
 20
121.475
 30
0.000000
  70
    32
  0
VERTEX
  8
0
  5
A807
 10
99.2808
 20
121.450
 30
0.000000
  70
    32
  0
VERTEX
  8
0
  5
A808
 10
99.2814
 20
121.426
 30
0.000000
  70
    32
  0
VERTEX
  8
0
  5
A809
 10
99.2831
 20
121.401
 30
0.000000
  70
    32
  0
VERTEX
  8
0
  5
A80A
 10
99.2859
 20
121.377
 30
0.000000
  70
    32
  0
VERTEX
  8
0
  5
A80B
 10
99.2899
 20
121.352
 30
0.000000
  70
    32
  0
VERTEX
  8
0
  5
A80C
 10
99.2949
 20
121.329
 30
0.000000
  70
    32
  0
VERTEX
  8
0
  5
A80D
 10
99.3011
 20
121.305
 30
0.000000
  70
    32
  0
VERTEX
  8
0
  5
A80E
 10
99.3083
 20
121.282
 30
0.000000
  70
    32
  0
VERTEX
  8
0
  5
A80F
 10
99.3166
 20
121.259
 30
0.000000
  70
    32
  0
VERTEX
  8
0
  5
A810
 10
99.3260
 20
121.236
 30
0.000000
  70
    32
  0
VERTEX
  8
0
  5
A811
 10
99.3363
 20
121.214
 30
0.000000
  70
    32
  0
VERTEX
  8
0
  5
A812
 10
99.3477
 20
121.193
 30
0.000000
  70
    32
  0
VERTEX
  8
0
  5
A813
 10
99.3600
 20
121.172
 30
0.000000
  70
    32
  0
VERTEX
  8
0
  5
A814
 10
99.3733
 20
121.152
 30
0.000000
  70
    32
  0
VERTEX
  8
0
  5
A815
 10
99.3875
 20
121.133
 30
0.000000
  70
    32
  0
VERTEX
  8
0
  5
A816
 10
99.4026
 20
121.114
 30
0.000000
  70
    32
  0
VERTEX
  8
0
  5
A817
 10
99.4185
 20
121.096
 30
0.000000
  70
    32
  0
VERTEX
  8
0
  5
A818
 10
99.4352
 20
121.080
 30
0.000000
  70
    32
  0
VERTEX
  8
0
  5
A819
 10
99.4526
 20
121.064
 30
0.000000
  70
    32
  0
VERTEX
  8
0
  5
A81A
 10
99.4708
 20
121.048
 30
0.000000
  70
    32
  0
VERTEX
  8
0
  5
A81B
 10
99.4897
 20
121.034
 30
0.000000
  70
    32
  0
VERTEX
  8
0
  5
A81C
 10
99.5091
 20
121.021
 30
0.000000
  70
    32
  0
VERTEX
  8
0
  5
A81D
 10
99.5292
 20
121.009
 30
0.000000
  70
    32
  0
VERTEX
  8
0
  5
A81E
 10
99.5498
 20
120.998
 30
0.000000
  70
    32
  0
VERTEX
  8
0
  5
A81F
 10
99.5709
 20
120.988
 30
0.000000
  70
    32
  0
VERTEX
  8
0
  5
A820
 10
99.5924
 20
120.979
 30
0.000000
  70
    32
  0
VERTEX
  8
0
  5
A821
 10
99.6143
 20
120.972
 30
0.000000
  70
    32
  0
VERTEX
  8
0
  5
A822
 10
99.6365
 20
120.965
 30
0.000000
  70
    32
  0
VERTEX
  8
0
  5
A823
 10
99.6590
 20
120.960
 30
0.000000
  70
    32
  0
VERTEX
  8
0
  5
A824
 10
99.6817
 20
120.955
 30
0.000000
  70
    32
  0
VERTEX
  8
0
  5
A825
 10
99.7046
 20
120.952
 30
0.000000
  70
    32
  0
VERTEX
  8
0
  5
A826
 10
99.7276
 20
120.951
 30
0.000000
  70
    32
  0
VERTEX
  8
0
  5
A827
 10
99.7507
 20
120.950
 30
0.000000
  70
    32
  0
VERTEX
  8
0
  5
A828
 10
99.7737
 20
120.951
 30
0.000000
  70
    32
  0
VERTEX
  8
0
  5
A829
 10
99.7967
 20
120.952
 30
0.000000
  70
    32
  0
VERTEX
  8
0
  5
A82A
 10
99.8196
 20
120.955
 30
0.000000
  70
    32
  0
VERTEX
  8
0
  5
A82B
 10
99.8424
 20
120.960
 30
0.000000
  70
    32
  0
VERTEX
  8
0
  5
A82C
 10
99.8649
 20
120.965
 30
0.000000
  70
    32
  0
VERTEX
  8
0
  5
A82D
 10
99.8871
 20
120.972
 30
0.000000
  70
    32
  0
VERTEX
  8
0
  5
A82E
 10
99.9090
 20
120.979
 30
0.000000
  70
    32
  0
VERTEX
  8
0
  5
A82F
 10
99.9305
 20
120.988
 30
0.000000
  70
    32
  0
VERTEX
  8
0
  5
A830
 10
99.9516
 20
120.998
 30
0.000000
  70
    32
  0
VERTEX
  8
0
  5
A831
 10
99.9722
 20
121.009
 30
0.000000
  70
    32
  0
VERTEX
  8
0
  5
A832
 10
99.9922
 20
121.021
 30
0.000000
  70
    32
  0
VERTEX
  8
0
  5
A833
 10
100.012
 20
121.034
 30
0.000000
  70
    32
  0
VERTEX
  8
0
  5
A834
 10
100.031
 20
121.048
 30
0.000000
  70
    32
  0
VERTEX
  8
0
  5
A835
 10
100.049
 20
121.064
 30
0.000000
  70
    32
  0
VERTEX
  8
0
  5
A836
 10
100.066
 20
121.080
 30
0.000000
  70
    32
  0
VERTEX
  8
0
  5
A837
 10
100.083
 20
121.096
 30
0.000000
  70
    32
  0
VERTEX
  8
0
  5
A838
 10
100.099
 20
121.114
 30
0.000000
  70
    32
  0
VERTEX
  8
0
  5
A839
 10
100.114
 20
121.133
 30
0.000000
  70
    32
  0
VERTEX
  8
0
  5
A83A
 10
100.128
 20
121.152
 30
0.000000
  70
    32
  0
VERTEX
  8
0
  5
A83B
 10
100.141
 20
121.172
 30
0.000000
  70
    32
  0
VERTEX
  8
0
  5
A83C
 10
100.154
 20
121.193
 30
0.000000
  70
    32
  0
VERTEX
  8
0
  5
A83D
 10
100.165
 20
121.214
 30
0.000000
  70
    32
  0
VERTEX
  8
0
  5
A83E
 10
100.175
 20
121.236
 30
0.000000
  70
    32
  0
VERTEX
  8
0
  5
A83F
 10
100.185
 20
121.259
 30
0.000000
  70
    32
  0
VERTEX
  8
0
  5
A840
 10
100.193
 20
121.282
 30
0.000000
  70
    32
  0
VERTEX
  8
0
  5
A841
 10
100.200
 20
121.305
 30
0.000000
  70
    32
  0
VERTEX
  8
0
  5
A842
 10
100.206
 20
121.329
 30
0.000000
  70
    32
  0
VERTEX
  8
0
  5
A843
 10
100.212
 20
121.352
 30
0.000000
  70
    32
  0
VERTEX
  8
0
  5
A844
 10
100.215
 20
121.377
 30
0.000000
  70
    32
  0
VERTEX
  8
0
  5
A845
 10
100.218
 20
121.401
 30
0.000000
  70
    32
  0
VERTEX
  8
0
  5
A846
 10
100.220
 20
121.426
 30
0.000000
  70
    32
  0
VERTEX
  8
0
  5
A847
 10
100.221
 20
121.450
 30
0.000000
  70
    32
  0
VERTEX
  8
0
  5
A848
 10
100.220
 20
121.475
 30
0.000000
  70
    32
  0
VERTEX
  8
0
  5
A849
 10
100.218
 20
121.499
 30
0.000000
  70
    32
  0
VERTEX
  8
0
  5
A84A
 10
100.215
 20
121.523
 30
0.000000
  70
    32
  0
VERTEX
  8
0
  5
A84B
 10
100.212
 20
121.548
 30
0.000000
  70
    32
  0
VERTEX
  8
0
  5
A84C
 10
100.206
 20
121.572
 30
0.000000
  70
    32
  0
VERTEX
  8
0
  5
A84D
 10
100.200
 20
121.595
 30
0.000000
  70
    32
  0
VERTEX
  8
0
  5
A84E
 10
100.193
 20
121.618
 30
0.000000
  70
    32
  0
VERTEX
  8
0
  5
A84F
 10
100.185
 20
121.641
 30
0.000000
  70
    32
  0
VERTEX
  8
0
  5
A850
 10
100.175
 20
121.664
 30
0.000000
  70
    32
  0
VERTEX
  8
0
  5
A851
 10
100.165
 20
121.686
 30
0.000000
  70
    32
  0
VERTEX
  8
0
  5
A852
 10
100.154
 20
121.707
 30
0.000000
  70
    32
  0
VERTEX
  8
0
  5
A853
 10
100.141
 20
121.728
 30
0.000000
  70
    32
  0
VERTEX
  8
0
  5
A854
 10
100.128
 20
121.748
 30
0.000000
  70
    32
  0
VERTEX
  8
0
  5
A855
 10
100.114
 20
121.767
 30
0.000000
  70
    32
  0
VERTEX
  8
0
  5
A856
 10
100.099
 20
121.786
 30
0.000000
  70
    32
  0
VERTEX
  8
0
  5
A857
 10
100.083
 20
121.804
 30
0.000000
  70
    32
  0
VERTEX
  8
0
  5
A858
 10
100.066
 20
121.821
 30
0.000000
  70
    32
  0
VERTEX
  8
0
  5
A859
 10
100.049
 20
121.837
 30
0.000000
  70
    32
  0
VERTEX
  8
0
  5
A85A
 10
100.031
 20
121.852
 30
0.000000
  70
    32
  0
VERTEX
  8
0
  5
A85B
 10
100.012
 20
121.866
 30
0.000000
  70
    32
  0
VERTEX
  8
0
  5
A85C
 10
99.9922
 20
121.879
 30
0.000000
  70
    32
  0
VERTEX
  8
0
  5
A85D
 10
99.9722
 20
121.891
 30
0.000000
  70
    32
  0
VERTEX
  8
0
  5
A85E
 10
99.9516
 20
121.902
 30
0.000000
  70
    32
  0
VERTEX
  8
0
  5
A85F
 10
99.9305
 20
121.912
 30
0.000000
  70
    32
  0
VERTEX
  8
0
  5
A860
 10
99.9090
 20
121.921
 30
0.000000
  70
    32
  0
VERTEX
  8
0
  5
A861
 10
99.8871
 20
121.929
 30
0.000000
  70
    32
  0
VERTEX
  8
0
  5
A862
 10
99.8649
 20
121.935
 30
0.000000
  70
    32
  0
VERTEX
  8
0
  5
A863
 10
99.8424
 20
121.940
 30
0.000000
  70
    32
  0
VERTEX
  8
0
  5
A864
 10
99.8196
 20
121.945
 30
0.000000
  70
    32
  0
VERTEX
  8
0
  5
A865
 10
99.7967
 20
121.948
 30
0.000000
  70
    32
  0
VERTEX
  8
0
  5
A866
 10
99.7737
 20
121.949
 30
0.000000
  70
    32
  0
VERTEX
  8
0
  5
A867
 10
99.7507
 20
121.950
 30
0.000000
  70
    32
  0
SEQEND
  8
0
  5
A868
  0
POLYLINE
  5
A012
  8
0
 10
93.749311341690657
 20
121.95004442655861
 30
0.0
 66
     1
 70
     8
  0
VERTEX
  8
0
  5
A869
 10
93.7493
 20
121.950
 30
0.000000
  70
    32
  0
VERTEX
  8
0
  5
A86A
 10
93.7263
 20
121.949
 30
0.000000
  70
    32
  0
VERTEX
  8
0
  5
A86B
 10
93.7033
 20
121.948
 30
0.000000
  70
    32
  0
VERTEX
  8
0
  5
A86C
 10
93.6804
 20
121.945
 30
0.000000
  70
    32
  0
VERTEX
  8
0
  5
A86D
 10
93.6576
 20
121.940
 30
0.000000
  70
    32
  0
VERTEX
  8
0
  5
A86E
 10
93.6351
 20
121.935
 30
0.000000
  70
    32
  0
VERTEX
  8
0
  5
A86F
 10
93.6129
 20
121.929
 30
0.000000
  70
    32
  0
VERTEX
  8
0
  5
A870
 10
93.5910
 20
121.921
 30
0.000000
  70
    32
  0
VERTEX
  8
0
  5
A871
 10
93.5695
 20
121.912
 30
0.000000
  70
    32
  0
VERTEX
  8
0
  5
A872
 10
93.5484
 20
121.902
 30
0.000000
  70
    32
  0
VERTEX
  8
0
  5
A873
 10
93.5278
 20
121.891
 30
0.000000
  70
    32
  0
VERTEX
  8
0
  5
A874
 10
93.5078
 20
121.879
 30
0.000000
  70
    32
  0
VERTEX
  8
0
  5
A875
 10
93.4883
 20
121.866
 30
0.000000
  70
    32
  0
VERTEX
  8
0
  5
A876
 10
93.4694
 20
121.852
 30
0.000000
  70
    32
  0
VERTEX
  8
0
  5
A877
 10
93.4512
 20
121.837
 30
0.000000
  70
    32
  0
VERTEX
  8
0
  5
A878
 10
93.4338
 20
121.821
 30
0.000000
  70
    32
  0
VERTEX
  8
0
  5
A879
 10
93.4171
 20
121.804
 30
0.000000
  70
    32
  0
VERTEX
  8
0
  5
A87A
 10
93.4012
 20
121.786
 30
0.000000
  70
    32
  0
VERTEX
  8
0
  5
A87B
 10
93.3861
 20
121.767
 30
0.000000
  70
    32
  0
VERTEX
  8
0
  5
A87C
 10
93.3719
 20
121.748
 30
0.000000
  70
    32
  0
VERTEX
  8
0
  5
A87D
 10
93.3586
 20
121.728
 30
0.000000
  70
    32
  0
VERTEX
  8
0
  5
A87E
 10
93.3463
 20
121.707
 30
0.000000
  70
    32
  0
VERTEX
  8
0
  5
A87F
 10
93.3349
 20
121.686
 30
0.000000
  70
    32
  0
VERTEX
  8
0
  5
A880
 10
93.3246
 20
121.664
 30
0.000000
  70
    32
  0
VERTEX
  8
0
  5
A881
 10
93.3152
 20
121.641
 30
0.000000
  70
    32
  0
VERTEX
  8
0
  5
A882
 10
93.3069
 20
121.618
 30
0.000000
  70
    32
  0
VERTEX
  8
0
  5
A883
 10
93.2997
 20
121.595
 30
0.000000
  70
    32
  0
VERTEX
  8
0
  5
A884
 10
93.2935
 20
121.572
 30
0.000000
  70
    32
  0
VERTEX
  8
0
  5
A885
 10
93.2885
 20
121.548
 30
0.000000
  70
    32
  0
VERTEX
  8
0
  5
A886
 10
93.2846
 20
121.523
 30
0.000000
  70
    32
  0
VERTEX
  8
0
  5
A887
 10
93.2817
 20
121.499
 30
0.000000
  70
    32
  0
VERTEX
  8
0
  5
A888
 10
93.2800
 20
121.475
 30
0.000000
  70
    32
  0
VERTEX
  8
0
  5
A889
 10
93.2795
 20
121.450
 30
0.000000
  70
    32
  0
VERTEX
  8
0
  5
A88A
 10
93.2800
 20
121.426
 30
0.000000
  70
    32
  0
VERTEX
  8
0
  5
A88B
 10
93.2817
 20
121.401
 30
0.000000
  70
    32
  0
VERTEX
  8
0
  5
A88C
 10
93.2846
 20
121.377
 30
0.000000
  70
    32
  0
VERTEX
  8
0
  5
A88D
 10
93.2885
 20
121.352
 30
0.000000
  70
    32
  0
VERTEX
  8
0
  5
A88E
 10
93.2935
 20
121.329
 30
0.000000
  70
    32
  0
VERTEX
  8
0
  5
A88F
 10
93.2997
 20
121.305
 30
0.000000
  70
    32
  0
VERTEX
  8
0
  5
A890
 10
93.3069
 20
121.282
 30
0.000000
  70
    32
  0
VERTEX
  8
0
  5
A891
 10
93.3152
 20
121.259
 30
0.000000
  70
    32
  0
VERTEX
  8
0
  5
A892
 10
93.3246
 20
121.236
 30
0.000000
  70
    32
  0
VERTEX
  8
0
  5
A893
 10
93.3349
 20
121.214
 30
0.000000
  70
    32
  0
VERTEX
  8
0
  5
A894
 10
93.3463
 20
121.193
 30
0.000000
  70
    32
  0
VERTEX
  8
0
  5
A895
 10
93.3586
 20
121.172
 30
0.000000
  70
    32
  0
VERTEX
  8
0
  5
A896
 10
93.3719
 20
121.152
 30
0.000000
  70
    32
  0
VERTEX
  8
0
  5
A897
 10
93.3861
 20
121.133
 30
0.000000
  70
    32
  0
VERTEX
  8
0
  5
A898
 10
93.4012
 20
121.114
 30
0.000000
  70
    32
  0
VERTEX
  8
0
  5
A899
 10
93.4171
 20
121.096
 30
0.000000
  70
    32
  0
VERTEX
  8
0
  5
A89A
 10
93.4338
 20
121.080
 30
0.000000
  70
    32
  0
VERTEX
  8
0
  5
A89B
 10
93.4512
 20
121.064
 30
0.000000
  70
    32
  0
VERTEX
  8
0
  5
A89C
 10
93.4694
 20
121.048
 30
0.000000
  70
    32
  0
VERTEX
  8
0
  5
A89D
 10
93.4883
 20
121.034
 30
0.000000
  70
    32
  0
VERTEX
  8
0
  5
A89E
 10
93.5078
 20
121.021
 30
0.000000
  70
    32
  0
VERTEX
  8
0
  5
A89F
 10
93.5278
 20
121.009
 30
0.000000
  70
    32
  0
VERTEX
  8
0
  5
A8A0
 10
93.5484
 20
120.998
 30
0.000000
  70
    32
  0
VERTEX
  8
0
  5
A8A1
 10
93.5695
 20
120.988
 30
0.000000
  70
    32
  0
VERTEX
  8
0
  5
A8A2
 10
93.5910
 20
120.979
 30
0.000000
  70
    32
  0
VERTEX
  8
0
  5
A8A3
 10
93.6129
 20
120.972
 30
0.000000
  70
    32
  0
VERTEX
  8
0
  5
A8A4
 10
93.6351
 20
120.965
 30
0.000000
  70
    32
  0
VERTEX
  8
0
  5
A8A5
 10
93.6576
 20
120.960
 30
0.000000
  70
    32
  0
VERTEX
  8
0
  5
A8A6
 10
93.6804
 20
120.955
 30
0.000000
  70
    32
  0
VERTEX
  8
0
  5
A8A7
 10
93.7033
 20
120.952
 30
0.000000
  70
    32
  0
VERTEX
  8
0
  5
A8A8
 10
93.7263
 20
120.951
 30
0.000000
  70
    32
  0
VERTEX
  8
0
  5
A8A9
 10
93.7493
 20
120.950
 30
0.000000
  70
    32
  0
VERTEX
  8
0
  5
A8AA
 10
93.7724
 20
120.951
 30
0.000000
  70
    32
  0
VERTEX
  8
0
  5
A8AB
 10
93.7954
 20
120.952
 30
0.000000
  70
    32
  0
VERTEX
  8
0
  5
A8AC
 10
93.8183
 20
120.955
 30
0.000000
  70
    32
  0
VERTEX
  8
0
  5
A8AD
 10
93.8410
 20
120.960
 30
0.000000
  70
    32
  0
VERTEX
  8
0
  5
A8AE
 10
93.8635
 20
120.965
 30
0.000000
  70
    32
  0
VERTEX
  8
0
  5
A8AF
 10
93.8857
 20
120.972
 30
0.000000
  70
    32
  0
VERTEX
  8
0
  5
A8B0
 10
93.9076
 20
120.979
 30
0.000000
  70
    32
  0
VERTEX
  8
0
  5
A8B1
 10
93.9291
 20
120.988
 30
0.000000
  70
    32
  0
VERTEX
  8
0
  5
A8B2
 10
93.9502
 20
120.998
 30
0.000000
  70
    32
  0
VERTEX
  8
0
  5
A8B3
 10
93.9708
 20
121.009
 30
0.000000
  70
    32
  0
VERTEX
  8
0
  5
A8B4
 10
93.9909
 20
121.021
 30
0.000000
  70
    32
  0
VERTEX
  8
0
  5
A8B5
 10
94.0103
 20
121.034
 30
0.000000
  70
    32
  0
VERTEX
  8
0
  5
A8B6
 10
94.0292
 20
121.048
 30
0.000000
  70
    32
  0
VERTEX
  8
0
  5
A8B7
 10
94.0474
 20
121.064
 30
0.000000
  70
    32
  0
VERTEX
  8
0
  5
A8B8
 10
94.0648
 20
121.080
 30
0.000000
  70
    32
  0
VERTEX
  8
0
  5
A8B9
 10
94.0815
 20
121.096
 30
0.000000
  70
    32
  0
VERTEX
  8
0
  5
A8BA
 10
94.0974
 20
121.114
 30
0.000000
  70
    32
  0
VERTEX
  8
0
  5
A8BB
 10
94.1125
 20
121.133
 30
0.000000
  70
    32
  0
VERTEX
  8
0
  5
A8BC
 10
94.1267
 20
121.152
 30
0.000000
  70
    32
  0
VERTEX
  8
0
  5
A8BD
 10
94.1400
 20
121.172
 30
0.000000
  70
    32
  0
VERTEX
  8
0
  5
A8BE
 10
94.1523
 20
121.193
 30
0.000000
  70
    32
  0
VERTEX
  8
0
  5
A8BF
 10
94.1637
 20
121.214
 30
0.000000
  70
    32
  0
VERTEX
  8
0
  5
A8C0
 10
94.1740
 20
121.236
 30
0.000000
  70
    32
  0
VERTEX
  8
0
  5
A8C1
 10
94.1834
 20
121.259
 30
0.000000
  70
    32
  0
VERTEX
  8
0
  5
A8C2
 10
94.1917
 20
121.282
 30
0.000000
  70
    32
  0
VERTEX
  8
0
  5
A8C3
 10
94.1989
 20
121.305
 30
0.000000
  70
    32
  0
VERTEX
  8
0
  5
A8C4
 10
94.2051
 20
121.329
 30
0.000000
  70
    32
  0
VERTEX
  8
0
  5
A8C5
 10
94.2101
 20
121.352
 30
0.000000
  70
    32
  0
VERTEX
  8
0
  5
A8C6
 10
94.2141
 20
121.377
 30
0.000000
  70
    32
  0
VERTEX
  8
0
  5
A8C7
 10
94.2169
 20
121.401
 30
0.000000
  70
    32
  0
VERTEX
  8
0
  5
A8C8
 10
94.2186
 20
121.426
 30
0.000000
  70
    32
  0
VERTEX
  8
0
  5
A8C9
 10
94.2192
 20
121.450
 30
0.000000
  70
    32
  0
VERTEX
  8
0
  5
A8CA
 10
94.2186
 20
121.475
 30
0.000000
  70
    32
  0
VERTEX
  8
0
  5
A8CB
 10
94.2169
 20
121.499
 30
0.000000
  70
    32
  0
VERTEX
  8
0
  5
A8CC
 10
94.2141
 20
121.523
 30
0.000000
  70
    32
  0
VERTEX
  8
0
  5
A8CD
 10
94.2101
 20
121.548
 30
0.000000
  70
    32
  0
VERTEX
  8
0
  5
A8CE
 10
94.2051
 20
121.572
 30
0.000000
  70
    32
  0
VERTEX
  8
0
  5
A8CF
 10
94.1989
 20
121.595
 30
0.000000
  70
    32
  0
VERTEX
  8
0
  5
A8D0
 10
94.1917
 20
121.618
 30
0.000000
  70
    32
  0
VERTEX
  8
0
  5
A8D1
 10
94.1834
 20
121.641
 30
0.000000
  70
    32
  0
VERTEX
  8
0
  5
A8D2
 10
94.1740
 20
121.664
 30
0.000000
  70
    32
  0
VERTEX
  8
0
  5
A8D3
 10
94.1637
 20
121.686
 30
0.000000
  70
    32
  0
VERTEX
  8
0
  5
A8D4
 10
94.1523
 20
121.707
 30
0.000000
  70
    32
  0
VERTEX
  8
0
  5
A8D5
 10
94.1400
 20
121.728
 30
0.000000
  70
    32
  0
VERTEX
  8
0
  5
A8D6
 10
94.1267
 20
121.748
 30
0.000000
  70
    32
  0
VERTEX
  8
0
  5
A8D7
 10
94.1125
 20
121.767
 30
0.000000
  70
    32
  0
VERTEX
  8
0
  5
A8D8
 10
94.0974
 20
121.786
 30
0.000000
  70
    32
  0
VERTEX
  8
0
  5
A8D9
 10
94.0815
 20
121.804
 30
0.000000
  70
    32
  0
VERTEX
  8
0
  5
A8DA
 10
94.0648
 20
121.821
 30
0.000000
  70
    32
  0
VERTEX
  8
0
  5
A8DB
 10
94.0474
 20
121.837
 30
0.000000
  70
    32
  0
VERTEX
  8
0
  5
A8DC
 10
94.0292
 20
121.852
 30
0.000000
  70
    32
  0
VERTEX
  8
0
  5
A8DD
 10
94.0103
 20
121.866
 30
0.000000
  70
    32
  0
VERTEX
  8
0
  5
A8DE
 10
93.9909
 20
121.879
 30
0.000000
  70
    32
  0
VERTEX
  8
0
  5
A8DF
 10
93.9708
 20
121.891
 30
0.000000
  70
    32
  0
VERTEX
  8
0
  5
A8E0
 10
93.9502
 20
121.902
 30
0.000000
  70
    32
  0
VERTEX
  8
0
  5
A8E1
 10
93.9291
 20
121.912
 30
0.000000
  70
    32
  0
VERTEX
  8
0
  5
A8E2
 10
93.9076
 20
121.921
 30
0.000000
  70
    32
  0
VERTEX
  8
0
  5
A8E3
 10
93.8857
 20
121.929
 30
0.000000
  70
    32
  0
VERTEX
  8
0
  5
A8E4
 10
93.8635
 20
121.935
 30
0.000000
  70
    32
  0
VERTEX
  8
0
  5
A8E5
 10
93.8410
 20
121.940
 30
0.000000
  70
    32
  0
VERTEX
  8
0
  5
A8E6
 10
93.8183
 20
121.945
 30
0.000000
  70
    32
  0
VERTEX
  8
0
  5
A8E7
 10
93.7954
 20
121.948
 30
0.000000
  70
    32
  0
VERTEX
  8
0
  5
A8E8
 10
93.7724
 20
121.949
 30
0.000000
  70
    32
  0
VERTEX
  8
0
  5
A8E9
 10
93.7493
 20
121.950
 30
0.000000
  70
    32
  0
SEQEND
  8
0
  5
A8EA
  0
POLYLINE
  5
A013
  8
0
 10
98.294807589946771
 20
121.95004442655861
 30
0.0
 66
     1
 70
     8
  0
VERTEX
  8
0
  5
A8EB
 10
98.2948
 20
121.950
 30
0.000000
  70
    32
  0
VERTEX
  8
0
  5
A8EC
 10
98.2705
 20
121.949
 30
0.000000
  70
    32
  0
VERTEX
  8
0
  5
A8ED
 10
98.2463
 20
121.948
 30
0.000000
  70
    32
  0
VERTEX
  8
0
  5
A8EE
 10
98.2222
 20
121.945
 30
0.000000
  70
    32
  0
VERTEX
  8
0
  5
A8EF
 10
98.1982
 20
121.940
 30
0.000000
  70
    32
  0
VERTEX
  8
0
  5
A8F0
 10
98.1745
 20
121.935
 30
0.000000
  70
    32
  0
VERTEX
  8
0
  5
A8F1
 10
98.1511
 20
121.929
 30
0.000000
  70
    32
  0
VERTEX
  8
0
  5
A8F2
 10
98.1280
 20
121.921
 30
0.000000
  70
    32
  0
VERTEX
  8
0
  5
A8F3
 10
98.1053
 20
121.912
 30
0.000000
  70
    32
  0
VERTEX
  8
0
  5
A8F4
 10
98.0831
 20
121.902
 30
0.000000
  70
    32
  0
VERTEX
  8
0
  5
A8F5
 10
98.0614
 20
121.891
 30
0.000000
  70
    32
  0
VERTEX
  8
0
  5
A8F6
 10
98.0403
 20
121.879
 30
0.000000
  70
    32
  0
VERTEX
  8
0
  5
A8F7
 10
98.0197
 20
121.866
 30
0.000000
  70
    32
  0
VERTEX
  8
0
  5
A8F8
 10
97.9999
 20
121.852
 30
0.000000
  70
    32
  0
VERTEX
  8
0
  5
A8F9
 10
97.9807
 20
121.837
 30
0.000000
  70
    32
  0
VERTEX
  8
0
  5
A8FA
 10
97.9623
 20
121.821
 30
0.000000
  70
    32
  0
VERTEX
  8
0
  5
A8FB
 10
97.9447
 20
121.804
 30
0.000000
  70
    32
  0
VERTEX
  8
0
  5
A8FC
 10
97.9279
 20
121.786
 30
0.000000
  70
    32
  0
VERTEX
  8
0
  5
A8FD
 10
97.9121
 20
121.767
 30
0.000000
  70
    32
  0
VERTEX
  8
0
  5
A8FE
 10
97.8971
 20
121.748
 30
0.000000
  70
    32
  0
VERTEX
  8
0
  5
A8FF
 10
97.8831
 20
121.728
 30
0.000000
  70
    32
  0
VERTEX
  8
0
  5
A900
 10
97.8701
 20
121.707
 30
0.000000
  70
    32
  0
VERTEX
  8
0
  5
A901
 10
97.8581
 20
121.686
 30
0.000000
  70
    32
  0
VERTEX
  8
0
  5
A902
 10
97.8472
 20
121.664
 30
0.000000
  70
    32
  0
VERTEX
  8
0
  5
A903
 10
97.8374
 20
121.641
 30
0.000000
  70
    32
  0
VERTEX
  8
0
  5
A904
 10
97.8286
 20
121.618
 30
0.000000
  70
    32
  0
VERTEX
  8
0
  5
A905
 10
97.8210
 20
121.595
 30
0.000000
  70
    32
  0
VERTEX
  8
0
  5
A906
 10
97.8145
 20
121.572
 30
0.000000
  70
    32
  0
VERTEX
  8
0
  5
A907
 10
97.8092
 20
121.548
 30
0.000000
  70
    32
  0
VERTEX
  8
0
  5
A908
 10
97.8050
 20
121.523
 30
0.000000
  70
    32
  0
VERTEX
  8
0
  5
A909
 10
97.8021
 20
121.499
 30
0.000000
  70
    32
  0
VERTEX
  8
0
  5
A90A
 10
97.8003
 20
121.475
 30
0.000000
  70
    32
  0
VERTEX
  8
0
  5
A90B
 10
97.7997
 20
121.450
 30
0.000000
  70
    32
  0
VERTEX
  8
0
  5
A90C
 10
97.8003
 20
121.426
 30
0.000000
  70
    32
  0
VERTEX
  8
0
  5
A90D
 10
97.8021
 20
121.401
 30
0.000000
  70
    32
  0
VERTEX
  8
0
  5
A90E
 10
97.8050
 20
121.377
 30
0.000000
  70
    32
  0
VERTEX
  8
0
  5
A90F
 10
97.8092
 20
121.352
 30
0.000000
  70
    32
  0
VERTEX
  8
0
  5
A910
 10
97.8145
 20
121.329
 30
0.000000
  70
    32
  0
VERTEX
  8
0
  5
A911
 10
97.8210
 20
121.305
 30
0.000000
  70
    32
  0
VERTEX
  8
0
  5
A912
 10
97.8286
 20
121.282
 30
0.000000
  70
    32
  0
VERTEX
  8
0
  5
A913
 10
97.8374
 20
121.259
 30
0.000000
  70
    32
  0
VERTEX
  8
0
  5
A914
 10
97.8472
 20
121.236
 30
0.000000
  70
    32
  0
VERTEX
  8
0
  5
A915
 10
97.8581
 20
121.214
 30
0.000000
  70
    32
  0
VERTEX
  8
0
  5
A916
 10
97.8701
 20
121.193
 30
0.000000
  70
    32
  0
VERTEX
  8
0
  5
A917
 10
97.8831
 20
121.172
 30
0.000000
  70
    32
  0
VERTEX
  8
0
  5
A918
 10
97.8971
 20
121.152
 30
0.000000
  70
    32
  0
VERTEX
  8
0
  5
A919
 10
97.9121
 20
121.133
 30
0.000000
  70
    32
  0
VERTEX
  8
0
  5
A91A
 10
97.9279
 20
121.114
 30
0.000000
  70
    32
  0
VERTEX
  8
0
  5
A91B
 10
97.9447
 20
121.096
 30
0.000000
  70
    32
  0
VERTEX
  8
0
  5
A91C
 10
97.9623
 20
121.080
 30
0.000000
  70
    32
  0
VERTEX
  8
0
  5
A91D
 10
97.9807
 20
121.064
 30
0.000000
  70
    32
  0
VERTEX
  8
0
  5
A91E
 10
97.9999
 20
121.048
 30
0.000000
  70
    32
  0
VERTEX
  8
0
  5
A91F
 10
98.0197
 20
121.034
 30
0.000000
  70
    32
  0
VERTEX
  8
0
  5
A920
 10
98.0403
 20
121.021
 30
0.000000
  70
    32
  0
VERTEX
  8
0
  5
A921
 10
98.0614
 20
121.009
 30
0.000000
  70
    32
  0
VERTEX
  8
0
  5
A922
 10
98.0831
 20
120.998
 30
0.000000
  70
    32
  0
VERTEX
  8
0
  5
A923
 10
98.1053
 20
120.988
 30
0.000000
  70
    32
  0
VERTEX
  8
0
  5
A924
 10
98.1280
 20
120.979
 30
0.000000
  70
    32
  0
VERTEX
  8
0
  5
A925
 10
98.1511
 20
120.972
 30
0.000000
  70
    32
  0
VERTEX
  8
0
  5
A926
 10
98.1745
 20
120.965
 30
0.000000
  70
    32
  0
VERTEX
  8
0
  5
A927
 10
98.1982
 20
120.960
 30
0.000000
  70
    32
  0
VERTEX
  8
0
  5
A928
 10
98.2222
 20
120.955
 30
0.000000
  70
    32
  0
VERTEX
  8
0
  5
A929
 10
98.2463
 20
120.952
 30
0.000000
  70
    32
  0
VERTEX
  8
0
  5
A92A
 10
98.2705
 20
120.951
 30
0.000000
  70
    32
  0
VERTEX
  8
0
  5
A92B
 10
98.2948
 20
120.950
 30
0.000000
  70
    32
  0
VERTEX
  8
0
  5
A92C
 10
98.3191
 20
120.951
 30
0.000000
  70
    32
  0
VERTEX
  8
0
  5
A92D
 10
98.3433
 20
120.952
 30
0.000000
  70
    32
  0
VERTEX
  8
0
  5
A92E
 10
98.3675
 20
120.955
 30
0.000000
  70
    32
  0
VERTEX
  8
0
  5
A92F
 10
98.3914
 20
120.960
 30
0.000000
  70
    32
  0
VERTEX
  8
0
  5
A930
 10
98.4151
 20
120.965
 30
0.000000
  70
    32
  0
VERTEX
  8
0
  5
A931
 10
98.4385
 20
120.972
 30
0.000000
  70
    32
  0
VERTEX
  8
0
  5
A932
 10
98.4616
 20
120.979
 30
0.000000
  70
    32
  0
VERTEX
  8
0
  5
A933
 10
98.4843
 20
120.988
 30
0.000000
  70
    32
  0
VERTEX
  8
0
  5
A934
 10
98.5065
 20
120.998
 30
0.000000
  70
    32
  0
VERTEX
  8
0
  5
A935
 10
98.5282
 20
121.009
 30
0.000000
  70
    32
  0
VERTEX
  8
0
  5
A936
 10
98.5494
 20
121.021
 30
0.000000
  70
    32
  0
VERTEX
  8
0
  5
A937
 10
98.5699
 20
121.034
 30
0.000000
  70
    32
  0
VERTEX
  8
0
  5
A938
 10
98.5898
 20
121.048
 30
0.000000
  70
    32
  0
VERTEX
  8
0
  5
A939
 10
98.6089
 20
121.064
 30
0.000000
  70
    32
  0
VERTEX
  8
0
  5
A93A
 10
98.6273
 20
121.080
 30
0.000000
  70
    32
  0
VERTEX
  8
0
  5
A93B
 10
98.6449
 20
121.096
 30
0.000000
  70
    32
  0
VERTEX
  8
0
  5
A93C
 10
98.6617
 20
121.114
 30
0.000000
  70
    32
  0
VERTEX
  8
0
  5
A93D
 10
98.6776
 20
121.133
 30
0.000000
  70
    32
  0
VERTEX
  8
0
  5
A93E
 10
98.6925
 20
121.152
 30
0.000000
  70
    32
  0
VERTEX
  8
0
  5
A93F
 10
98.7065
 20
121.172
 30
0.000000
  70
    32
  0
VERTEX
  8
0
  5
A940
 10
98.7195
 20
121.193
 30
0.000000
  70
    32
  0
VERTEX
  8
0
  5
A941
 10
98.7315
 20
121.214
 30
0.000000
  70
    32
  0
VERTEX
  8
0
  5
A942
 10
98.7424
 20
121.236
 30
0.000000
  70
    32
  0
VERTEX
  8
0
  5
A943
 10
98.7523
 20
121.259
 30
0.000000
  70
    32
  0
VERTEX
  8
0
  5
A944
 10
98.7610
 20
121.282
 30
0.000000
  70
    32
  0
VERTEX
  8
0
  5
A945
 10
98.7686
 20
121.305
 30
0.000000
  70
    32
  0
VERTEX
  8
0
  5
A946
 10
98.7751
 20
121.329
 30
0.000000
  70
    32
  0
VERTEX
  8
0
  5
A947
 10
98.7804
 20
121.352
 30
0.000000
  70
    32
  0
VERTEX
  8
0
  5
A948
 10
98.7846
 20
121.377
 30
0.000000
  70
    32
  0
VERTEX
  8
0
  5
A949
 10
98.7876
 20
121.401
 30
0.000000
  70
    32
  0
VERTEX
  8
0
  5
A94A
 10
98.7893
 20
121.426
 30
0.000000
  70
    32
  0
VERTEX
  8
0
  5
A94B
 10
98.7899
 20
121.450
 30
0.000000
  70
    32
  0
VERTEX
  8
0
  5
A94C
 10
98.7893
 20
121.475
 30
0.000000
  70
    32
  0
VERTEX
  8
0
  5
A94D
 10
98.7876
 20
121.499
 30
0.000000
  70
    32
  0
VERTEX
  8
0
  5
A94E
 10
98.7846
 20
121.523
 30
0.000000
  70
    32
  0
VERTEX
  8
0
  5
A94F
 10
98.7804
 20
121.548
 30
0.000000
  70
    32
  0
VERTEX
  8
0
  5
A950
 10
98.7751
 20
121.572
 30
0.000000
  70
    32
  0
VERTEX
  8
0
  5
A951
 10
98.7686
 20
121.595
 30
0.000000
  70
    32
  0
VERTEX
  8
0
  5
A952
 10
98.7610
 20
121.618
 30
0.000000
  70
    32
  0
VERTEX
  8
0
  5
A953
 10
98.7523
 20
121.641
 30
0.000000
  70
    32
  0
VERTEX
  8
0
  5
A954
 10
98.7424
 20
121.664
 30
0.000000
  70
    32
  0
VERTEX
  8
0
  5
A955
 10
98.7315
 20
121.686
 30
0.000000
  70
    32
  0
VERTEX
  8
0
  5
A956
 10
98.7195
 20
121.707
 30
0.000000
  70
    32
  0
VERTEX
  8
0
  5
A957
 10
98.7065
 20
121.728
 30
0.000000
  70
    32
  0
VERTEX
  8
0
  5
A958
 10
98.6925
 20
121.748
 30
0.000000
  70
    32
  0
VERTEX
  8
0
  5
A959
 10
98.6776
 20
121.767
 30
0.000000
  70
    32
  0
VERTEX
  8
0
  5
A95A
 10
98.6617
 20
121.786
 30
0.000000
  70
    32
  0
VERTEX
  8
0
  5
A95B
 10
98.6449
 20
121.804
 30
0.000000
  70
    32
  0
VERTEX
  8
0
  5
A95C
 10
98.6273
 20
121.821
 30
0.000000
  70
    32
  0
VERTEX
  8
0
  5
A95D
 10
98.6089
 20
121.837
 30
0.000000
  70
    32
  0
VERTEX
  8
0
  5
A95E
 10
98.5898
 20
121.852
 30
0.000000
  70
    32
  0
VERTEX
  8
0
  5
A95F
 10
98.5699
 20
121.866
 30
0.000000
  70
    32
  0
VERTEX
  8
0
  5
A960
 10
98.5494
 20
121.879
 30
0.000000
  70
    32
  0
VERTEX
  8
0
  5
A961
 10
98.5282
 20
121.891
 30
0.000000
  70
    32
  0
VERTEX
  8
0
  5
A962
 10
98.5065
 20
121.902
 30
0.000000
  70
    32
  0
VERTEX
  8
0
  5
A963
 10
98.4843
 20
121.912
 30
0.000000
  70
    32
  0
VERTEX
  8
0
  5
A964
 10
98.4616
 20
121.921
 30
0.000000
  70
    32
  0
VERTEX
  8
0
  5
A965
 10
98.4385
 20
121.929
 30
0.000000
  70
    32
  0
VERTEX
  8
0
  5
A966
 10
98.4151
 20
121.935
 30
0.000000
  70
    32
  0
VERTEX
  8
0
  5
A967
 10
98.3914
 20
121.940
 30
0.000000
  70
    32
  0
VERTEX
  8
0
  5
A968
 10
98.3675
 20
121.945
 30
0.000000
  70
    32
  0
VERTEX
  8
0
  5
A969
 10
98.3433
 20
121.948
 30
0.000000
  70
    32
  0
VERTEX
  8
0
  5
A96A
 10
98.3191
 20
121.949
 30
0.000000
  70
    32
  0
VERTEX
  8
0
  5
A96B
 10
98.2948
 20
121.950
 30
0.000000
  70
    32
  0
SEQEND
  8
0
  5
A96C
  0
POLYLINE
  5
A014
  8
0
 10
95.205192410053613
 20
121.95004442655861
 30
0.0
 66
     1
 70
     8
  0
VERTEX
  8
0
  5
A96D
 10
95.2052
 20
121.950
 30
0.000000
  70
    32
  0
VERTEX
  8
0
  5
A96E
 10
95.1809
 20
121.949
 30
0.000000
  70
    32
  0
VERTEX
  8
0
  5
A96F
 10
95.1567
 20
121.948
 30
0.000000
  70
    32
  0
VERTEX
  8
0
  5
A970
 10
95.1325
 20
121.945
 30
0.000000
  70
    32
  0
VERTEX
  8
0
  5
A971
 10
95.1086
 20
121.940
 30
0.000000
  70
    32
  0
VERTEX
  8
0
  5
A972
 10
95.0849
 20
121.935
 30
0.000000
  70
    32
  0
VERTEX
  8
0
  5
A973
 10
95.0615
 20
121.929
 30
0.000000
  70
    32
  0
VERTEX
  8
0
  5
A974
 10
95.0384
 20
121.921
 30
0.000000
  70
    32
  0
VERTEX
  8
0
  5
A975
 10
95.0157
 20
121.912
 30
0.000000
  70
    32
  0
VERTEX
  8
0
  5
A976
 10
94.9935
 20
121.902
 30
0.000000
  70
    32
  0
VERTEX
  8
0
  5
A977
 10
94.9718
 20
121.891
 30
0.000000
  70
    32
  0
VERTEX
  8
0
  5
A978
 10
94.9506
 20
121.879
 30
0.000000
  70
    32
  0
VERTEX
  8
0
  5
A979
 10
94.9301
 20
121.866
 30
0.000000
  70
    32
  0
VERTEX
  8
0
  5
A97A
 10
94.9102
 20
121.852
 30
0.000000
  70
    32
  0
VERTEX
  8
0
  5
A97B
 10
94.8911
 20
121.837
 30
0.000000
  70
    32
  0
VERTEX
  8
0
  5
A97C
 10
94.8727
 20
121.821
 30
0.000000
  70
    32
  0
VERTEX
  8
0
  5
A97D
 10
94.8551
 20
121.804
 30
0.000000
  70
    32
  0
VERTEX
  8
0
  5
A97E
 10
94.8383
 20
121.786
 30
0.000000
  70
    32
  0
VERTEX
  8
0
  5
A97F
 10
94.8224
 20
121.767
 30
0.000000
  70
    32
  0
VERTEX
  8
0
  5
A980
 10
94.8075
 20
121.748
 30
0.000000
  70
    32
  0
VERTEX
  8
0
  5
A981
 10
94.7935
 20
121.728
 30
0.000000
  70
    32
  0
VERTEX
  8
0
  5
A982
 10
94.7805
 20
121.707
 30
0.000000
  70
    32
  0
VERTEX
  8
0
  5
A983
 10
94.7685
 20
121.686
 30
0.000000
  70
    32
  0
VERTEX
  8
0
  5
A984
 10
94.7576
 20
121.664
 30
0.000000
  70
    32
  0
VERTEX
  8
0
  5
A985
 10
94.7477
 20
121.641
 30
0.000000
  70
    32
  0
VERTEX
  8
0
  5
A986
 10
94.7390
 20
121.618
 30
0.000000
  70
    32
  0
VERTEX
  8
0
  5
A987
 10
94.7314
 20
121.595
 30
0.000000
  70
    32
  0
VERTEX
  8
0
  5
A988
 10
94.7249
 20
121.572
 30
0.000000
  70
    32
  0
VERTEX
  8
0
  5
A989
 10
94.7196
 20
121.548
 30
0.000000
  70
    32
  0
VERTEX
  8
0
  5
A98A
 10
94.7154
 20
121.523
 30
0.000000
  70
    32
  0
VERTEX
  8
0
  5
A98B
 10
94.7124
 20
121.499
 30
0.000000
  70
    32
  0
VERTEX
  8
0
  5
A98C
 10
94.7107
 20
121.475
 30
0.000000
  70
    32
  0
VERTEX
  8
0
  5
A98D
 10
94.7101
 20
121.450
 30
0.000000
  70
    32
  0
VERTEX
  8
0
  5
A98E
 10
94.7107
 20
121.426
 30
0.000000
  70
    32
  0
VERTEX
  8
0
  5
A98F
 10
94.7124
 20
121.401
 30
0.000000
  70
    32
  0
VERTEX
  8
0
  5
A990
 10
94.7154
 20
121.377
 30
0.000000
  70
    32
  0
VERTEX
  8
0
  5
A991
 10
94.7196
 20
121.352
 30
0.000000
  70
    32
  0
VERTEX
  8
0
  5
A992
 10
94.7249
 20
121.329
 30
0.000000
  70
    32
  0
VERTEX
  8
0
  5
A993
 10
94.7314
 20
121.305
 30
0.000000
  70
    32
  0
VERTEX
  8
0
  5
A994
 10
94.7390
 20
121.282
 30
0.000000
  70
    32
  0
VERTEX
  8
0
  5
A995
 10
94.7477
 20
121.259
 30
0.000000
  70
    32
  0
VERTEX
  8
0
  5
A996
 10
94.7576
 20
121.236
 30
0.000000
  70
    32
  0
VERTEX
  8
0
  5
A997
 10
94.7685
 20
121.214
 30
0.000000
  70
    32
  0
VERTEX
  8
0
  5
A998
 10
94.7805
 20
121.193
 30
0.000000
  70
    32
  0
VERTEX
  8
0
  5
A999
 10
94.7935
 20
121.172
 30
0.000000
  70
    32
  0
VERTEX
  8
0
  5
A99A
 10
94.8075
 20
121.152
 30
0.000000
  70
    32
  0
VERTEX
  8
0
  5
A99B
 10
94.8224
 20
121.133
 30
0.000000
  70
    32
  0
VERTEX
  8
0
  5
A99C
 10
94.8383
 20
121.114
 30
0.000000
  70
    32
  0
VERTEX
  8
0
  5
A99D
 10
94.8551
 20
121.096
 30
0.000000
  70
    32
  0
VERTEX
  8
0
  5
A99E
 10
94.8727
 20
121.080
 30
0.000000
  70
    32
  0
VERTEX
  8
0
  5
A99F
 10
94.8911
 20
121.064
 30
0.000000
  70
    32
  0
VERTEX
  8
0
  5
A9A0
 10
94.9102
 20
121.048
 30
0.000000
  70
    32
  0
VERTEX
  8
0
  5
A9A1
 10
94.9301
 20
121.034
 30
0.000000
  70
    32
  0
VERTEX
  8
0
  5
A9A2
 10
94.9506
 20
121.021
 30
0.000000
  70
    32
  0
VERTEX
  8
0
  5
A9A3
 10
94.9718
 20
121.009
 30
0.000000
  70
    32
  0
VERTEX
  8
0
  5
A9A4
 10
94.9935
 20
120.998
 30
0.000000
  70
    32
  0
VERTEX
  8
0
  5
A9A5
 10
95.0157
 20
120.988
 30
0.000000
  70
    32
  0
VERTEX
  8
0
  5
A9A6
 10
95.0384
 20
120.979
 30
0.000000
  70
    32
  0
VERTEX
  8
0
  5
A9A7
 10
95.0615
 20
120.972
 30
0.000000
  70
    32
  0
VERTEX
  8
0
  5
A9A8
 10
95.0849
 20
120.965
 30
0.000000
  70
    32
  0
VERTEX
  8
0
  5
A9A9
 10
95.1086
 20
120.960
 30
0.000000
  70
    32
  0
VERTEX
  8
0
  5
A9AA
 10
95.1325
 20
120.955
 30
0.000000
  70
    32
  0
VERTEX
  8
0
  5
A9AB
 10
95.1567
 20
120.952
 30
0.000000
  70
    32
  0
VERTEX
  8
0
  5
A9AC
 10
95.1809
 20
120.951
 30
0.000000
  70
    32
  0
VERTEX
  8
0
  5
A9AD
 10
95.2052
 20
120.950
 30
0.000000
  70
    32
  0
VERTEX
  8
0
  5
A9AE
 10
95.2295
 20
120.951
 30
0.000000
  70
    32
  0
VERTEX
  8
0
  5
A9AF
 10
95.2537
 20
120.952
 30
0.000000
  70
    32
  0
VERTEX
  8
0
  5
A9B0
 10
95.2778
 20
120.955
 30
0.000000
  70
    32
  0
VERTEX
  8
0
  5
A9B1
 10
95.3018
 20
120.960
 30
0.000000
  70
    32
  0
VERTEX
  8
0
  5
A9B2
 10
95.3255
 20
120.965
 30
0.000000
  70
    32
  0
VERTEX
  8
0
  5
A9B3
 10
95.3489
 20
120.972
 30
0.000000
  70
    32
  0
VERTEX
  8
0
  5
A9B4
 10
95.3720
 20
120.979
 30
0.000000
  70
    32
  0
VERTEX
  8
0
  5
A9B5
 10
95.3947
 20
120.988
 30
0.000000
  70
    32
  0
VERTEX
  8
0
  5
A9B6
 10
95.4169
 20
120.998
 30
0.000000
  70
    32
  0
VERTEX
  8
0
  5
A9B7
 10
95.4386
 20
121.009
 30
0.000000
  70
    32
  0
VERTEX
  8
0
  5
A9B8
 10
95.4597
 20
121.021
 30
0.000000
  70
    32
  0
VERTEX
  8
0
  5
A9B9
 10
95.4803
 20
121.034
 30
0.000000
  70
    32
  0
VERTEX
  8
0
  5
A9BA
 10
95.5001
 20
121.048
 30
0.000000
  70
    32
  0
VERTEX
  8
0
  5
A9BB
 10
95.5193
 20
121.064
 30
0.000000
  70
    32
  0
VERTEX
  8
0
  5
A9BC
 10
95.5377
 20
121.080
 30
0.000000
  70
    32
  0
VERTEX
  8
0
  5
A9BD
 10
95.5553
 20
121.096
 30
0.000000
  70
    32
  0
VERTEX
  8
0
  5
A9BE
 10
95.5721
 20
121.114
 30
0.000000
  70
    32
  0
VERTEX
  8
0
  5
A9BF
 10
95.5879
 20
121.133
 30
0.000000
  70
    32
  0
VERTEX
  8
0
  5
A9C0
 10
95.6029
 20
121.152
 30
0.000000
  70
    32
  0
VERTEX
  8
0
  5
A9C1
 10
95.6169
 20
121.172
 30
0.000000
  70
    32
  0
VERTEX
  8
0
  5
A9C2
 10
95.6299
 20
121.193
 30
0.000000
  70
    32
  0
VERTEX
  8
0
  5
A9C3
 10
95.6419
 20
121.214
 30
0.000000
  70
    32
  0
VERTEX
  8
0
  5
A9C4
 10
95.6528
 20
121.236
 30
0.000000
  70
    32
  0
VERTEX
  8
0
  5
A9C5
 10
95.6626
 20
121.259
 30
0.000000
  70
    32
  0
VERTEX
  8
0
  5
A9C6
 10
95.6714
 20
121.282
 30
0.000000
  70
    32
  0
VERTEX
  8
0
  5
A9C7
 10
95.6790
 20
121.305
 30
0.000000
  70
    32
  0
VERTEX
  8
0
  5
A9C8
 10
95.6855
 20
121.329
 30
0.000000
  70
    32
  0
VERTEX
  8
0
  5
A9C9
 10
95.6908
 20
121.352
 30
0.000000
  70
    32
  0
VERTEX
  8
0
  5
A9CA
 10
95.6950
 20
121.377
 30
0.000000
  70
    32
  0
VERTEX
  8
0
  5
A9CB
 10
95.6979
 20
121.401
 30
0.000000
  70
    32
  0
VERTEX
  8
0
  5
A9CC
 10
95.6997
 20
121.426
 30
0.000000
  70
    32
  0
VERTEX
  8
0
  5
A9CD
 10
95.7003
 20
121.450
 30
0.000000
  70
    32
  0
VERTEX
  8
0
  5
A9CE
 10
95.6997
 20
121.475
 30
0.000000
  70
    32
  0
VERTEX
  8
0
  5
A9CF
 10
95.6979
 20
121.499
 30
0.000000
  70
    32
  0
VERTEX
  8
0
  5
A9D0
 10
95.6950
 20
121.523
 30
0.000000
  70
    32
  0
VERTEX
  8
0
  5
A9D1
 10
95.6908
 20
121.548
 30
0.000000
  70
    32
  0
VERTEX
  8
0
  5
A9D2
 10
95.6855
 20
121.572
 30
0.000000
  70
    32
  0
VERTEX
  8
0
  5
A9D3
 10
95.6790
 20
121.595
 30
0.000000
  70
    32
  0
VERTEX
  8
0
  5
A9D4
 10
95.6714
 20
121.618
 30
0.000000
  70
    32
  0
VERTEX
  8
0
  5
A9D5
 10
95.6626
 20
121.641
 30
0.000000
  70
    32
  0
VERTEX
  8
0
  5
A9D6
 10
95.6528
 20
121.664
 30
0.000000
  70
    32
  0
VERTEX
  8
0
  5
A9D7
 10
95.6419
 20
121.686
 30
0.000000
  70
    32
  0
VERTEX
  8
0
  5
A9D8
 10
95.6299
 20
121.707
 30
0.000000
  70
    32
  0
VERTEX
  8
0
  5
A9D9
 10
95.6169
 20
121.728
 30
0.000000
  70
    32
  0
VERTEX
  8
0
  5
A9DA
 10
95.6029
 20
121.748
 30
0.000000
  70
    32
  0
VERTEX
  8
0
  5
A9DB
 10
95.5879
 20
121.767
 30
0.000000
  70
    32
  0
VERTEX
  8
0
  5
A9DC
 10
95.5721
 20
121.786
 30
0.000000
  70
    32
  0
VERTEX
  8
0
  5
A9DD
 10
95.5553
 20
121.804
 30
0.000000
  70
    32
  0
VERTEX
  8
0
  5
A9DE
 10
95.5377
 20
121.821
 30
0.000000
  70
    32
  0
VERTEX
  8
0
  5
A9DF
 10
95.5193
 20
121.837
 30
0.000000
  70
    32
  0
VERTEX
  8
0
  5
A9E0
 10
95.5001
 20
121.852
 30
0.000000
  70
    32
  0
VERTEX
  8
0
  5
A9E1
 10
95.4803
 20
121.866
 30
0.000000
  70
    32
  0
VERTEX
  8
0
  5
A9E2
 10
95.4597
 20
121.879
 30
0.000000
  70
    32
  0
VERTEX
  8
0
  5
A9E3
 10
95.4386
 20
121.891
 30
0.000000
  70
    32
  0
VERTEX
  8
0
  5
A9E4
 10
95.4169
 20
121.902
 30
0.000000
  70
    32
  0
VERTEX
  8
0
  5
A9E5
 10
95.3947
 20
121.912
 30
0.000000
  70
    32
  0
VERTEX
  8
0
  5
A9E6
 10
95.3720
 20
121.921
 30
0.000000
  70
    32
  0
VERTEX
  8
0
  5
A9E7
 10
95.3489
 20
121.929
 30
0.000000
  70
    32
  0
VERTEX
  8
0
  5
A9E8
 10
95.3255
 20
121.935
 30
0.000000
  70
    32
  0
VERTEX
  8
0
  5
A9E9
 10
95.3018
 20
121.940
 30
0.000000
  70
    32
  0
VERTEX
  8
0
  5
A9EA
 10
95.2778
 20
121.945
 30
0.000000
  70
    32
  0
VERTEX
  8
0
  5
A9EB
 10
95.2537
 20
121.948
 30
0.000000
  70
    32
  0
VERTEX
  8
0
  5
A9EC
 10
95.2295
 20
121.949
 30
0.000000
  70
    32
  0
VERTEX
  8
0
  5
A9ED
 10
95.2052
 20
121.950
 30
0.000000
  70
    32
  0
SEQEND
  8
0
  5
A9EE
  0
LINE
  5
A015
  8
0
 10
88.674021045102918
 20
123.6715916398965
 30
0.0
 11
78.036368604677662
 21
124.4500444265587
 31
0.0
  0
LINE
  5
A016
  8
0
 10
104.82597895489729
 20
119.2284972132209
 30
0.0
 11
115.46363139532259
 21
118.4500444265587
 31
0.0
  0
LINE
  5
A017
  8
0
 10
115.46363139532259
 20
124.4500444265587
 30
0.0
 11
104.82597895489729
 21
123.6715916398965
 31
0.0
  0
LINE
  5
A018
  8
0
 10
78.036368604677662
 20
118.4500444265587
 30
0.0
 11
88.674021045102918
 21
119.2284972132209
 31
0.0
  0
ARC
  5
A019
  8
0
 10
96.750000000000128
 20
121.4500444265587
 30
0.0
 40
5.0
 50
270.0
 51
180.0
  0
POLYLINE
  5
A01A
  8
0
 66
     1
 10
0.0
 20
0.0
 30
0.0
  0
VERTEX
  5
A573
  8
0
 10
88.674021045102918
 20
123.6715916398965
 30
0.0
  0
VERTEX
  5
A574
  8
0
 10
88.943102022469432
 20
123.6672162867746
 30
0.0
  0
VERTEX
  5
A575
  8
0
 10
89.212384797715586
 20
123.693021197448
 30
0.0
  0
VERTEX
  5
A576
  8
0
 10
89.476843936620256
 20
123.74871950233771
 30
0.0
  0
VERTEX
  5
A577
  8
0
 10
89.734102709591085
 20
123.83450928921761
 30
0.0
  0
VERTEX
  5
A578
  8
0
 10
89.981442513557454
 20
123.94929548135561
 30
0.0
  0
VERTEX
  5
A579
  8
0
 10
90.213986419733843
 20
124.09103064979389
 30
0.0
  0
VERTEX
  5
A57A
  8
0
 10
90.426080376264565
 20
124.256209023972
 30
0.0
  0
VERTEX
  5
A57B
  8
0
 10
90.619359966969867
 20
124.444852943187
 30
0.0
  0
VERTEX
  5
A57C
  8
0
 10
90.790000727198404
 20
124.653375388585
 30
0.0
  0
VERTEX
  5
A57D
  8
0
 10
90.921527901753237
 20
124.85466085134981
 30
0.0
  0
SEQEND
  5
A57E
  8
0
  0
POLYLINE
  5
A01B
  8
0
 66
     1
 10
0.0
 20
0.0
 30
0.0
  0
VERTEX
  5
A57F
  8
0
 10
90.921527901753237
 20
118.0454280017676
 30
0.0
  0
VERTEX
  5
A580
  8
0
 10
90.775078773089135
 20
118.26667900339309
 30
0.0
  0
VERTEX
  5
A581
  8
0
 10
90.604755456335994
 20
118.4710631060172
 30
0.0
  0
VERTEX
  5
A582
  8
0
 10
90.413827272463223
 20
118.6547565048639
 30
0.0
  0
VERTEX
  5
A583
  8
0
 10
90.203929267109444
 20
118.8157511080522
 30
0.0
  0
VERTEX
  5
A584
  8
0
 10
89.977350984135242
 20
118.9529990837361
 30
0.0
  0
VERTEX
  5
A585
  8
0
 10
89.738356325217026
 20
119.0641059835484
 30
0.0
  0
VERTEX
  5
A586
  8
0
 10
89.486861590756405
 20
119.1484491812602
 30
0.0
  0
VERTEX
  5
A587
  8
0
 10
89.227409095591909
 20
119.2047284854098
 30
0.0
  0
VERTEX
  5
A588
  8
0
 10
88.964729808750576
 20
119.2321145965208
 30
0.0
  0
VERTEX
  5
A589
  8
0
 10
88.674021045102918
 20
119.2284972132209
 30
0.0
  0
SEQEND
  5
A58A
  8
0
  0
ARC
  5
A01C
  8
0
 10
96.750000000000128
 20
121.4500444265587
 30
0.0
 40
6.75
 50
210.29070954861629
 51
329.70929146326398
  0
POLYLINE
  5
A01D
  8
0
 66
     1
 10
0.0
 20
0.0
 30
0.0
  0
VERTEX
  5
A58B
  8
0
 10
104.82597895489729
 20
119.2284972132209
 30
0.0
  0
VERTEX
  5
A58C
  8
0
 10
104.5568979775308
 20
119.23287256634281
 30
0.0
  0
VERTEX
  5
A58D
  8
0
 10
104.2876152022847
 20
119.20706765566931
 30
0.0
  0
VERTEX
  5
A58E
  8
0
 10
104.02315606338
 20
119.1513693507797
 30
0.0
  0
VERTEX
  5
A58F
  8
0
 10
103.7658972904092
 20
119.0655795638998
 30
0.0
  0
VERTEX
  5
A590
  8
0
 10
103.5185574864428
 20
118.9507933717618
 30
0.0
  0
VERTEX
  5
A591
  8
0
 10
103.2860135802665
 20
118.8090582033235
 30
0.0
  0
VERTEX
  5
A592
  8
0
 10
103.0739196237357
 20
118.6438798291454
 30
0.0
  0
VERTEX
  5
A593
  8
0
 10
102.8806400330304
 20
118.45523590993039
 30
0.0
  0
VERTEX
  5
A594
  8
0
 10
102.70999927280189
 20
118.24671346453241
 30
0.0
  0
VERTEX
  5
A595
  8
0
 10
102.57847215837469
 20
118.0454281047021
 30
0.0
  0
SEQEND
  5
A596
  8
0
  0
POLYLINE
  5
A01E
  8
0
 66
     1
 10
0.0
 20
0.0
 30
0.0
  0
VERTEX
  5
A597
  8
0
 10
102.5784720982471
 20
124.85466085134981
 30
0.0
  0
VERTEX
  5
A598
  8
0
 10
102.72492122691111
 20
124.6334098497243
 30
0.0
  0
VERTEX
  5
A599
  8
0
 10
102.8952445436643
 20
124.4290257471002
 30
0.0
  0
VERTEX
  5
A59A
  8
0
 10
103.0861727275371
 20
124.2453323482535
 30
0.0
  0
VERTEX
  5
A59B
  8
0
 10
103.2960707328908
 20
124.0843377450652
 30
0.0
  0
VERTEX
  5
A59C
  8
0
 10
103.522649015865
 20
123.94708976938129
 30
0.0
  0
VERTEX
  5
A59D
  8
0
 10
103.7616436747832
 20
123.83598286956899
 30
0.0
  0
VERTEX
  5
A59E
  8
0
 10
104.01313840924379
 20
123.75163967185721
 30
0.0
  0
VERTEX
  5
A59F
  8
0
 10
104.2725909044083
 20
123.69536036770759
 30
0.0
  0
VERTEX
  5
A5A0
  8
0
 10
104.53527019124969
 20
123.66797425659659
 30
0.0
  0
VERTEX
  5
A5A1
  8
0
 10
104.82597895489729
 20
123.6715916398965
 30
0.0
  0
SEQEND
  5
A5A2
  8
0
  0
ARC
  5
A01F
  8
0
 10
96.750000000000128
 20
121.4500444265587
 30
0.0
 40
6.7500000000000053
 50
30.290709548616341
 51
149.70929045138359
  0
POLYLINE
  5
A020
  8
0
 66
     1
 10
0.0
 20
0.0
 30
0.0
  0
VERTEX
  5
A5A3
  8
0
 10
116.6581184997799
 20
119.5351507483806
 30
0.0
  0
VERTEX
  5
A5A4
  8
0
 10
116.65747977046421
 20
119.5286934596415
 30
0.0
  0
VERTEX
  5
A5A5
  8
0
 10
116.64010132901289
 20
119.41357787754499
 30
0.0
  0
VERTEX
  5
A5A6
  8
0
 10
116.6115543547823
 20
119.3003690354525
 30
0.0
  0
VERTEX
  5
A5A7
  8
0
 10
116.5715771911262
 20
119.1891164702912
 30
0.0
  0
VERTEX
  5
A5A8
  8
0
 10
116.5203724998993
 20
119.0814512170512
 30
0.0
  0
VERTEX
  5
A5A9
  8
0
 10
116.4564086003853
 20
118.97595746478299
 30
0.0
  0
VERTEX
  5
A5AA
  8
0
 10
116.3807611955245
 20
118.8761756201182
 30
0.0
  0
VERTEX
  5
A5AB
  8
0
 10
116.2926147508193
 20
118.7824100989794
 30
0.0
  0
VERTEX
  5
A5AC
  8
0
 10
116.1926514603542
 20
118.6968761597866
 30
0.0
  0
VERTEX
  5
A5AD
  8
0
 10
116.0433981195857
 20
118.5993919885768
 30
0.0
  0
VERTEX
  5
A5AE
  8
0
 10
115.8731327966334
 20
118.5220778480092
 30
0.0
  0
VERTEX
  5
A5AF
  8
0
 10
115.67898419775
 20
118.4695262477547
 30
0.0
  0
VERTEX
  5
A5B0
  8
0
 10
115.5735924649094
 20
118.45509065683549
 30
0.0
  0
VERTEX
  5
A5B1
  8
0
 10
115.46363139532259
 20
118.4500444265587
 30
0.0
  0
SEQEND
  5
A5B2
  8
0
  0
POLYLINE
  5
A021
  8
0
 66
     1
 10
0.0
 20
0.0
 30
0.0
  0
VERTEX
  5
A5B3
  8
0
 10
115.46363139532259
 20
124.4500444265587
 30
0.0
  0
VERTEX
  5
A5B4
  8
0
 10
115.62999788283371
 20
124.4384684197814
 30
0.0
  0
VERTEX
  5
A5B5
  8
0
 10
115.78533989566689
 20
124.4061169332841
 30
0.0
  0
VERTEX
  5
A5B6
  8
0
 10
115.9318898282432
 20
124.35492020195259
 30
0.0
  0
VERTEX
  5
A5B7
  8
0
 10
116.0655388841415
 20
124.28817128533071
 30
0.0
  0
VERTEX
  5
A5B8
  8
0
 10
116.19069875106069
 20
124.2047182023265
 30
0.0
  0
VERTEX
  5
A5B9
  8
0
 10
116.30144428267489
 20
124.1091635056537
 30
0.0
  0
VERTEX
  5
A5BA
  8
0
 10
116.3974922275905
 20
124.0036384458795
 30
0.0
  0
VERTEX
  5
A5BB
  8
0
 10
116.5167387440588
 20
123.82533184044961
 30
0.0
  0
VERTEX
  5
A5BC
  8
0
 10
116.60096624634799
 20
123.6327576829834
 30
0.0
  0
VERTEX
  5
A5BD
  8
0
 10
116.63654779616699
 20
123.50355402525339
 30
0.0
  0
VERTEX
  5
A5BE
  8
0
 10
116.65747977046431
 20
123.3713953934755
 30
0.0
  0
VERTEX
  5
A5BF
  8
0
 10
116.6581185056763
 20
123.3649380435813
 30
0.0
  0
SEQEND
  5
A5C0
  8
0
  0
ARC
  5
A022
  8
0
 10
96.750000000000298
 20
121.4500444265587
 30
0.0
 40
19.999999999999929
 50
354.50575056119561
 51
5.4941736886976971
  0
POLYLINE
  5
A023
  8
0
 66
     1
 10
0.0
 20
0.0
 30
0.0
  0
VERTEX
  5
A5C1
  8
0
 10
76.841881500220367
 20
123.36493810473679
 30
0.0
  0
VERTEX
  5
A5C2
  8
0
 10
76.842520229535992
 20
123.37139539347569
 30
0.0
  0
VERTEX
  5
A5C3
  8
0
 10
76.859898670987334
 20
123.4865109755723
 30
0.0
  0
VERTEX
  5
A5C4
  8
0
 10
76.888445645217601
 20
123.5997198176638
 30
0.0
  0
VERTEX
  5
A5C5
  8
0
 10
76.928422808873407
 20
123.71097238282459
 30
0.0
  0
VERTEX
  5
A5C6
  8
0
 10
76.979627500099824
 20
123.8186376360641
 30
0.0
  0
VERTEX
  5
A5C7
  8
0
 10
77.043591399613277
 20
123.924131388332
 30
0.0
  0
VERTEX
  5
A5C8
  8
0
 10
77.119238804473483
 20
124.02391323299651
 30
0.0
  0
VERTEX
  5
A5C9
  8
0
 10
77.207385249177847
 20
124.117678754135
 30
0.0
  0
VERTEX
  5
A5CA
  8
0
 10
77.307348539642035
 20
124.2032126933277
 30
0.0
  0
VERTEX
  5
A5CB
  8
0
 10
77.456601880413032
 20
124.3006968645397
 30
0.0
  0
VERTEX
  5
A5CC
  8
0
 10
77.626867203368491
 20
124.3780110051087
 30
0.0
  0
VERTEX
  5
A5CD
  8
0
 10
77.8210158022559
 20
124.4305626053637
 30
0.0
  0
VERTEX
  5
A5CE
  8
0
 10
77.926407535093588
 20
124.4449981962824
 30
0.0
  0
VERTEX
  5
A5CF
  8
0
 10
78.036368604677662
 20
124.4500444265587
 30
0.0
  0
SEQEND
  5
A5D0
  8
0
  0
POLYLINE
  5
A024
  8
0
 66
     1
 10
0.0
 20
0.0
 30
0.0
  0
VERTEX
  5
A5D1
  8
0
 10
78.036368604677662
 20
118.4500444265587
 30
0.0
  0
VERTEX
  5
A5D2
  8
0
 10
77.870002117166607
 20
118.46162043333599
 30
0.0
  0
VERTEX
  5
A5D3
  8
0
 10
77.714660104333419
 20
118.4939719198333
 30
0.0
  0
VERTEX
  5
A5D4
  8
0
 10
77.568110171757056
 20
118.5451686511648
 30
0.0
  0
VERTEX
  5
A5D5
  8
0
 10
77.434461115858781
 20
118.6119175677867
 30
0.0
  0
VERTEX
  5
A5D6
  8
0
 10
77.309301248939505
 20
118.69537065079091
 30
0.0
  0
VERTEX
  5
A5D7
  8
0
 10
77.198555717325391
 20
118.7909253474637
 30
0.0
  0
VERTEX
  5
A5D8
  8
0
 10
77.102507772409822
 20
118.89645040723789
 30
0.0
  0
VERTEX
  5
A5D9
  8
0
 10
76.983261255941486
 20
119.0747570126678
 30
0.0
  0
VERTEX
  5
A5DA
  8
0
 10
76.899033753652319
 20
119.267331170134
 30
0.0
  0
VERTEX
  5
A5DB
  8
0
 10
76.86345220383329
 20
119.396534827864
 30
0.0
  0
VERTEX
  5
A5DC
  8
0
 10
76.842520229535964
 20
119.5286934596421
 30
0.0
  0
VERTEX
  5
A5DD
  8
0
 10
76.841881494323999
 20
119.53515080953611
 30
0.0
  0
SEQEND
  5
A5DE
  8
0
  0
ARC
  5
A025
  8
0
 10
96.750000000000455
 20
121.4500444265587
 30
0.0
 40
20.000000000000419
 50
174.5058825690908
 51
185.49425447866159
  0
POINT
  5
A026
  8
1
 10
96.750000000000185
 20
121.45004442655861
 30
0.0
 50
180.0
  0
LINE
  5
A02F
  8
0
 10
51.165142612481091
 20
90.571691160751527
 30
0.0
 11
52.005517785534529
 21
90.324703994621544
 31
0.0
  0
LINE
  5
A030
  8
0
 10
52.499981072159969
 20
90.108641544823911
 30
0.0
 11
53.374748950005461
 21
89.588242136314761
 31
0.0
  0
ARC
  5
A031
  8
0
 10
49.752543400470749
 20
84.494900701808035
 30
0.0
 40
6.250000001039413
 50
78.149605749265604
 51
83.131382730257485
  0
ARC
  5
A032
  8
0
 10
49.752543400624539
 20
84.494900702854125
 30
0.0
 40
6.2499999999817462
 50
63.9222737951686
 51
68.870574359744367
  0
ARC
  5
A033
  8
0
 10
49.752543400625299
 20
84.494900702844078
 30
0.0
 40
6.249999999989579
 50
35.997820554053952
 51
54.580898701323889
  0
LINE
  5
A034
  8
0
 10
51.03602422028321
 20
90.611695368802032
 30
0.0
 11
51.165142612481091
 21
90.571691160751527
 31
0.0
  0
ARC
  5
A035
  8
0
 10
54.000000000000043
 20
87.580611712695514
 30
0.0
 40
0.9999999999999836
 50
0.0
 51
35.997820554061747
  0
LINE
  5
A036
  8
0
 10
55.000000000000043
 20
87.580611712695514
 30
0.0
 11
55.000000000000043
 21
87.503924265143226
 31
0.0
  0
LINE
  5
A219
  8
0
 10
98.759500000000131
 20
53.0
 30
0.0
 11
99.250000000000128
 21
53.490500000000011
 31
0.0
  0
LINE
  5
A21A
  8
0
 10
94.250000000000128
 20
53.490500000000011
 30
0.0
 11
94.740500000000125
 21
53.0
 31
0.0
  0
LINE
  5
A21B
  8
0
 10
94.740500000000125
 20
53.0
 30
0.0
 11
98.759500000000131
 21
53.0
 31
0.0
  0
LINE
  5
A21C
  8
0
 10
99.250000000000128
 20
53.490500000000011
 30
0.0
 11
99.250000000000128
 21
69.0
 31
0.0
  0
LINE
  5
A21D
  8
0
 10
94.250000000000128
 20
69.0
 30
0.0
 11
94.250000000000128
 21
53.490500000000011
 31
0.0
  0
LINE
  5
A21E
  8
0
 10
94.250000000000128
 20
53.490500000000011
 30
0.0
 11
99.250000000000128
 21
53.490500000000011
 31
0.0
  0
LINE
  5
A21F
  8
3
 10
94.740500000000125
 20
53.0
 30
0.0
 11
94.740500000000125
 21
67.719999999999999
 31
0.0
  0
LINE
  5
A220
  8
3
 10
94.250000000000128
 20
69.0
 30
0.0
 11
94.740500000000125
 21
67.719999999999999
 31
0.0
  0
LINE
  5
A221
  8
0
 10
94.250000000000128
 20
67.719999999999999
 30
0.0
 11
99.250000000000128
 21
67.719999999999999
 31
0.0
  0
LINE
  5
A222
  8
3
 10
98.759500000000131
 20
53.0
 30
0.0
 11
98.759500000000131
 21
67.719999999999999
 31
0.0
  0
LINE
  5
A223
  8
3
 10
99.250000000000128
 20
69.0
 30
0.0
 11
98.759500000000131
 21
67.719999999999999
 31
0.0
  0
LINE
  5
A224
  8
0
 10
52.009500000000017
 20
53.0
 30
0.0
 11
52.500000000000007
 21
53.490500000000011
 31
0.0
  0
LINE
  5
A225
  8
0
 10
47.500000000000007
 20
53.490500000000011
 30
0.0
 11
47.990500000000011
 21
53.0
 31
0.0
  0
LINE
  5
A226
  8
0
 10
47.990500000000011
 20
53.0
 30
0.0
 11
52.009500000000017
 21
53.0
 31
0.0
  0
LINE
  5
A227
  8
0
 10
52.500000000000007
 20
53.490500000000011
 30
0.0
 11
52.500000000000007
 21
69.0
 31
0.0
  0
LINE
  5
A228
  8
0
 10
47.500000000000007
 20
69.0
 30
0.0
 11
47.500000000000007
 21
53.490500000000011
 31
0.0
  0
LINE
  5
A229
  8
0
 10
47.500000000000007
 20
53.490500000000011
 30
0.0
 11
52.500000000000007
 21
53.490500000000011
 31
0.0
  0
LINE
  5
A22A
  8
3
 10
47.990500000000011
 20
53.0
 30
0.0
 11
47.990500000000011
 21
67.719999999999999
 31
0.0
  0
LINE
  5
A22B
  8
3
 10
47.500000000000007
 20
69.0
 30
0.0
 11
47.990500000000011
 21
67.719999999999999
 31
0.0
  0
LINE
  5
A22C
  8
0
 10
47.500000000000007
 20
67.719999999999999
 30
0.0
 11
52.500000000000007
 21
67.719999999999999
 31
0.0
  0
LINE
  5
A22D
  8
3
 10
52.009500000000017
 20
53.0
 30
0.0
 11
52.009500000000017
 21
67.719999999999999
 31
0.0
  0
LINE
  5
A22E
  8
3
 10
52.500000000000007
 20
69.0
 30
0.0
 11
52.009500000000017
 21
67.719999999999999
 31
0.0
  0
ENDSEC
  0
EOF
