  0
SECTION
  2
HEADER
  9
$ACADVER
  1
AC1009
  9
$INSBASE
 10
0.0
 20
0.0
 30
0.0
  9
$EXTMIN
 10
0.0
 20
-2.960436562073669
 30
0.0
  9
$EXTMAX
 10
302.86740081324172
 20
192.52880357887921
 30
0.0
  9
$LIMMIN
 10
0.0
 20
0.0
  9
$LIMMAX
 10
385.0
 20
270.0
  9
$ORTHOMODE
 70
     0
  9
$REGENMODE
 70
     1
  9
$FILLMODE
 70
     1
  9
$QTEXTMODE
 70
     0
  9
$MIRRTEXT
 70
     0
  9
$DRAGMODE
 70
     2
  9
$LTSCALE
 40
10.0
  9
$OSMODE
 70
  3071
  9
$ATTMODE
 70
     1
  9
$TEXTSIZE
 40
0.2
  9
$TRACEWID
 40
0.05
  9
$TEXTSTYLE
  7
STANDARD
  9
$CLAYER
  8
0
  9
$CELTYPE
  6
BYLAYER
  9
$CECOLOR
 62
   256
  9
$DIMSCALE
 40
1.0
  9
$DIMASZ
 40
3.0
  9
$DIMEXO
 40
0.0625
  9
$DIMDLI
 40
0.38
  9
$DIMRND
 40
0.0
  9
$DIMDLE
 40
0.0
  9
$DIMEXE
 40
0.18
  9
$DIMTP
 40
0.0
  9
$DIMTM
 40
0.0
  9
$DIMTXT
 40
3.0
  9
$DIMCEN
 40
0.09
  9
$DIMTSZ
 40
0.0
  9
$DIMTOL
 70
     0
  9
$DIMLIM
 70
     0
  9
$DIMTIH
 70
     1
  9
$DIMTOH
 70
     1
  9
$DIMSE1
 70
     0
  9
$DIMSE2
 70
     0
  9
$DIMTAD
 70
     0
  9
$DIMZIN
 70
     0
  9
$DIMBLK
  1

  9
$DIMASO
 70
     1
  9
$DIMSHO
 70
     1
  9
$DIMPOST
  1

  9
$DIMAPOST
  1

  9
$DIMALT
 70
     0
  9
$DIMALTD
 70
     2
  9
$DIMALTF
 40
25.399999999999999
  9
$DIMLFAC
 40
1.0
  9
$DIMTOFL
 70
     0
  9
$DIMTVP
 40
0.0
  9
$DIMTIX
 70
     0
  9
$DIMSOXD
 70
     0
  9
$DIMSAH
 70
     0
  9
$DIMBLK1
  1

  9
$DIMBLK2
  1

  9
$DIMSTYLE
  2
STANDARD
  9
$DIMCLRD
 70
     0
  9
$DIMCLRE
 70
     0
  9
$DIMCLRT
 70
     0
  9
$DIMTFAC
 40
1.0
  9
$DIMGAP
 40
0.09
  9
$LUNITS
 70
     2
  9
$LUPREC
 70
     4
  9
$SKETCHINC
 40
0.1
  9
$FILLETRAD
 40
0.0
  9
$AUNITS
 70
     0
  9
$AUPREC
 70
     0
  9
$MENU
  1
E:\r13\win\SUPPORT\ACAD
  9
$ELEVATION
 40
0.0
  9
$PELEVATION
 40
0.0
  9
$THICKNESS
 40
0.0
  9
$LIMCHECK
 70
     0
  9
$BLIPMODE
 70
     0
  9
$CHAMFERA
 40
0.0
  9
$CHAMFERB
 40
0.0
  9
$SKPOLY
 70
     0
  9
$TDCREATE
 40
2450364.449004746
  9
$TDUPDATE
 40
2456598.69374213
  9
$TDINDWG
 40
0.0014883333
  9
$TDUSRTIMER
 40
0.0014883333
  9
$USRTIMER
 70
     1
  9
$ANGBASE
 50
0.0
  9
$ANGDIR
 70
     0
  9
$PDMODE
 70
     0
  9
$PDSIZE
 40
0.0
  9
$PLINEWID
 40
0.0
  9
$COORDS
 70
     1
  9
$SPLFRAME
 70
     0
  9
$SPLINETYPE
 70
     6
  9
$SPLINESEGS
 70
     8
  9
$ATTDIA
 70
     0
  9
$ATTREQ
 70
     1
  9
$HANDLING
 70
     1
  9
$HANDSEED
  5
263
  9
$SURFTAB1
 70
     6
  9
$SURFTAB2
 70
     6
  9
$SURFTYPE
 70
     6
  9
$SURFU
 70
     6
  9
$SURFV
 70
     6
  9
$UCSNAME
  2

  9
$UCSORG
 10
0.0
 20
0.0
 30
0.0
  9
$UCSXDIR
 10
1.0
 20
0.0
 30
0.0
  9
$UCSYDIR
 10
0.0
 20
1.0
 30
0.0
  9
$PUCSNAME
  2

  9
$PUCSORG
 10
0.0
 20
0.0
 30
0.0
  9
$PUCSXDIR
 10
1.0
 20
0.0
 30
0.0
  9
$PUCSYDIR
 10
0.0
 20
1.0
 30
0.0
  9
$USERI1
 70
     3
  9
$USERI2
 70
     1
  9
$USERI3
 70
     1
  9
$USERI4
 70
     0
  9
$USERI5
 70
     0
  9
$USERR1
 40
1.0
  9
$USERR2
 40
3.0
  9
$USERR3
 40
3.0
  9
$USERR4
 40
3.0
  9
$USERR5
 40
10.0
  9
$WORLDVIEW
 70
     1
  9
$SHADEDGE
 70
     3
  9
$SHADEDIF
 70
    70
  9
$TILEMODE
 70
     1
  9
$MAXACTVP
 70
    16
  9
$PLIMCHECK
 70
     0
  9
$PEXTMIN
 10
1.0000000000000000E+020
 20
1.0000000000000000E+020
 30
1.0000000000000000E+020
  9
$PEXTMAX
 10
-1.0000000000000000E+020
 20
-1.0000000000000000E+020
 30
-1.0000000000000000E+020
  9
$PLIMMIN
 10
0.0
 20
0.0
  9
$PLIMMAX
 10
12.0
 20
9.0
  9
$UNITMODE
 70
     0
  9
$VISRETAIN
 70
     0
  9
$PLINEGEN
 70
     0
  9
$PSLTSCALE
 70
     0
  0
ENDSEC
  0
SECTION
  2
TABLES
  0
TABLE
  2
VPORT
 70
     1
  0
VPORT
  2
*ACTIVE
 70
     0
 10
0.0
 20
0.0
 11
1.0
 21
1.0
 12
192.49412581440311
 22
169.9063198933564
 13
0.0
 23
0.0
 14
5.0
 24
5.0
 15
0.0
 25
0.0
 16
0.0
 26
0.0
 36
1.0
 17
0.0
 27
0.0
 37
0.0
 40
348.89937369551939
 41
1.831871345029239
 42
50.0
 43
0.0
 44
0.0
 50
0.0
 51
0.0
 71
     0
 72
   100
 73
     1
 74
     0
 75
     0
 76
     0
 77
     0
 78
     0
  0
ENDTAB
  0
TABLE
  2
LTYPE
 70
     4
  0
LTYPE
  2
CONTINUOUS
 70
     0
  3
Solid Line
 72
    65
 73
     0
 40
0.0
  0
LTYPE
  2
CENTER
 70
     0
  3
____ _ ____ _ ____ _ ____ _ ____ _ ____ _ ____
 72
    65
 73
     4
 40
2.0
 49
1.25
 49
-0.25
 49
0.25
 49
-0.25
  0
LTYPE
  2
HIDDEN
 70
     0
  3
_ _ _ _ _ _ _ _ _ _ _ _ _ _ _ _ _ _ _ _ _ _ _
 72
    65
 73
     2
 40
0.375
 49
0.25
 49
-0.125
  0
LTYPE
  2
PHANTOM2
 70
     0
  3
___ _ _ ___ _ _ ___ _ _ ___ _ _
 72
    65
 73
     6
 40
1.25
 49
0.625
 49
-0.125
 49
0.125
 49
-0.125
 49
0.125
 49
-0.125
  0
ENDTAB
  0
TABLE
  2
LAYER
 70
     4
  0
LAYER
  2
0
 70
     0
 62
     7
  6
CONTINUOUS
  0
LAYER
  2
1
 70
     0
 62
     1
  6
CENTER
  0
LAYER
  2
2
 70
     0
 62
     2
  6
HIDDEN
  0
LAYER
  2
3
 70
     0
 62
     3
  6
CONTINUOUS
  0
ENDTAB
  0
TABLE
  2
STYLE
 70
     2
  0
STYLE
  2
STANDARD
 70
     0
 40
0.0
 41
1.0
 50
0.0
 71
     0
 42
0.2
  3
SIMPLEX
  4
BIGFONT
  0
STYLE
  2
STANDARD1
 70
     0
 40
0.0
 41
1.0
 50
0.0
 71
     0
 42
3.0
  3
txt
  4

  0
ENDTAB
  0
TABLE
  2
VIEW
 70
     0
  0
ENDTAB
  0
TABLE
  2
UCS
 70
     0
  0
ENDTAB
  0
TABLE
  2
APPID
 70
     4
  0
APPID
  2
ACAD
 70
     0
  0
APPID
  2
ACAD_EXEMPT_FROM_CAD_STANDARDS
 70
     0
  0
APPID
  2
ACAD_MLEADERVER
 70
     0
  0
APPID
  2
ACAD_NAV_VCDISPLAY
 70
     0
  0
ENDTAB
  0
TABLE
  2
DIMSTYLE
 70
     1
  0
DIMSTYLE
  2
STANDARD
 70
     0
  3

  4

  5

  6

  7

 40
1.0
 41
0.18
 42
0.0625
 43
0.38
 44
0.18
 45
0.0
 46
0.0
 47
0.0
 48
0.0
140
0.18
141
0.09
142
0.0
143
25.399999999999999
144
1.0
145
0.0
146
1.0
147
0.09
 71
     0
 72
     0
 73
     1
 74
     1
 75
     0
 76
     0
 77
     0
 78
     0
170
     0
171
     2
172
     0
173
     0
174
     0
175
     0
176
     0
177
     0
178
     0
  0
ENDTAB
  0
ENDSEC
  0
SECTION
  2
BLOCKS
  0
BLOCK
  8
0
  2
$MODEL_SPACE
 70
     0
 10
0.0
 20
0.0
 30
0.0
  3
$MODEL_SPACE
  1

  0
ENDBLK
  5
FA
  8
0
  0
BLOCK
 67
     1
  8
0
  2
$PAPER_SPACE
 70
     0
 10
0.0
 20
0.0
 30
0.0
  3
$PAPER_SPACE
  1

  0
ENDBLK
  5
F8
 67
     1
  8
0
  0
ENDSEC
  0
SECTION
  2
ENTITIES
  0
LINE
  5
37
  8
1
 10
159.3674008132416
 20
101.160291601903
 30
0.0
 11
159.3674008132416
 21
63.862426988821483
 31
0.0
  0
LINE
  5
38
  8
1
 10
65.867400813241531
 20
101.160291601903
 30
0.0
 11
65.867400813241531
 21
63.862426988821539
 31
0.0
  0
ARC
  5
39
  8
2
 10
299.36740081324172
 20
96.480190037748045
 30
0.0
 40
0.5
 50
0.0
 51
90.0
  0
ARC
  5
3A
  8
2
 10
300.8674008132416
 20
93.355698608636857
 30
0.0
 40
1.0
 50
180.0000000000008
 51
270.0000000000029
  0
LINE
  5
3B
  8
2
 10
301.46740081324162
 20
92.355698608636914
 30
0.0
 11
300.86740081324177
 21
92.355698608636914
 31
0.0
  0
LINE
  5
3C
  8
2
 10
299.86740081324172
 20
93.355698608636857
 30
0.0
 11
299.86740081324172
 21
96.480190037748045
 31
0.0
  0
LINE
  5
3D
  8
2
 10
299.36740081324172
 20
96.980190037748031
 30
0.0
 11
283.86740081324172
 21
96.980190037748031
 31
0.0
  0
CIRCLE
  5
3E
  8
2
 10
65.867400813241531
 20
161.110190037748
 30
0.0
 40
6.0
  0
LINE
  5
3F
  8
2
 10
62.617400813241638
 20
73.980190037748031
 30
0.0
 11
59.617400813241673
 21
77.480190037747974
 31
0.0
  0
LINE
  5
40
  8
2
 10
62.617400813241638
 20
66.480190037748045
 30
0.0
 11
62.617400813241638
 21
73.980190037748031
 31
0.0
  0
LINE
  5
41
  8
2
 10
69.117400813241559
 20
73.980190037748031
 30
0.0
 11
72.117400813241673
 21
77.480190037747974
 31
0.0
  0
LINE
  5
42
  8
2
 10
69.117400813241559
 20
66.480190037748045
 30
0.0
 11
69.117400813241559
 21
73.980190037748031
 31
0.0
  0
LINE
  5
43
  8
2
 10
69.117400813241559
 20
73.980190037748031
 30
0.0
 11
62.617400813241638
 21
73.980190037748031
 31
0.0
  0
LINE
  5
44
  8
2
 10
162.61740081324149
 20
73.980190037748031
 30
0.0
 11
165.6174008132416
 21
77.480190037747974
 31
0.0
  0
LINE
  5
45
  8
2
 10
162.61740081324149
 20
66.480190037748045
 30
0.0
 11
162.61740081324149
 21
73.980190037748031
 31
0.0
  0
LINE
  5
46
  8
2
 10
156.1174008132416
 20
73.980190037748031
 30
0.0
 11
153.1174008132416
 21
77.480190037747974
 31
0.0
  0
LINE
  5
47
  8
2
 10
156.1174008132416
 20
66.480190037748045
 30
0.0
 11
156.1174008132416
 21
73.980190037748031
 31
0.0
  0
LINE
  5
48
  8
2
 10
156.1174008132416
 20
73.980190037748031
 30
0.0
 11
162.61740081324149
 21
73.980190037748031
 31
0.0
  0
LINE
  5
49
  8
2
 10
274.36740081324172
 20
73.980190037748031
 30
0.0
 11
271.36740081324172
 21
77.480190037747974
 31
0.0
  0
LINE
  5
4A
  8
2
 10
280.8674008132416
 20
73.980190037748031
 30
0.0
 11
283.86740081324172
 21
77.480190037747974
 31
0.0
  0
LINE
  5
4B
  8
2
 10
280.8674008132416
 20
73.980190037748031
 30
0.0
 11
274.36740081324172
 21
73.980190037748031
 31
0.0
  0
LINE
  5
4C
  8
2
 10
280.8674008132416
 20
66.480190037748045
 30
0.0
 11
280.8674008132416
 21
73.980190037748031
 31
0.0
  0
LINE
  5
4D
  8
2
 10
274.36740081324172
 20
66.480190037748045
 30
0.0
 11
274.36740081324172
 21
73.980190037748031
 31
0.0
  0
CIRCLE
  5
4E
  8
2
 10
159.3674008132416
 20
161.110190037748
 30
0.0
 40
6.0
  0
CIRCLE
  5
4F
  8
2
 10
159.3674008132416
 20
161.110190037748
 30
0.0
 40
3.25
  0
LINE
  5
50
  8
3
 10
75.617400813241616
 20
74.880190037748065
 30
0.0
 11
55.617400813241609
 21
74.880190037748065
 31
0.0
  0
LINE
  5
51
  8
3
 10
75.617400813241616
 20
74.480190037748031
 30
0.0
 11
55.617400813241609
 21
74.480190037748031
 31
0.0
  0
LINE
  5
52
  8
2
 10
169.61740081324149
 20
96.780190037748056
 30
0.0
 11
166.61740081324149
 21
96.780190037748056
 31
0.0
  0
LINE
  5
53
  8
2
 10
149.61740081324149
 20
96.780190037748056
 30
0.0
 11
152.11740081324149
 21
96.780190037748056
 31
0.0
  0
LINE
  5
54
  8
2
 10
166.61740081324149
 20
77.480190037747974
 30
0.0
 11
152.11740081324149
 21
77.480190037747974
 31
0.0
  0
LINE
  5
56
  8
2
 10
166.61740081324149
 20
77.480190037747974
 30
0.0
 11
166.61740081324149
 21
96.780190037748056
 31
0.0
  0
LINE
  5
57
  8
2
 10
152.11740081324149
 20
77.480190037747974
 30
0.0
 11
152.11740081324149
 21
96.780190037748056
 31
0.0
  0
ARC
  5
58
  8
0
 10
74.617400813241673
 20
98.480190037748073
 30
0.0
 40
1.0
 50
0.0
 51
90.0
  0
LINE
  5
59
  8
0
 10
75.617400813241616
 20
66.480190037748045
 30
0.0
 11
75.617400813241616
 21
98.480190037748073
 31
0.0
  0
LINE
  5
5A
  8
2
 10
283.86740081324172
 20
96.889177970135705
 30
0.0
 11
283.86740081324172
 21
77.480190037747974
 31
0.0
  0
LINE
  5
5B
  8
0
 10
283.86740081324172
 20
99.480190037748031
 30
0.0
 11
283.86740081324172
 21
96.889177970135705
 31
0.0
  0
LINE
  5
5C
  8
2
 10
270.26267729402753
 20
77.480190037747974
 30
0.0
 11
283.86740081324172
 21
77.480190037747974
 31
0.0
  0
LINE
  5
5D
  8
0
 10
270.2721405996503
 20
74.647589829637155
 30
0.0
 11
267.8674008132416
 21
74.647589829637155
 31
0.0
  0
LINE
  5
5E
  8
0
 10
270.32622773833691
 20
73.980190037748031
 30
0.0
 11
267.8674008132416
 21
73.980190037748031
 31
0.0
  0
LINE
  5
5F
  8
0
 10
267.8674008132416
 20
66.480190037748045
 30
0.0
 11
267.8674008132416
 21
73.980190037748031
 31
0.0
  0
LINE
  5
60
  8
1
 10
277.61740081324172
 20
62.672470034756202
 30
0.0
 11
277.61740081324172
 21
98.434748862470926
 31
0.0
  0
LINE
  5
61
  8
0
 10
302.86740081324172
 20
93.703604276176833
 30
0.0
 11
302.86740081324172
 21
97.480190037747974
 31
0.0
  0
ARC
  5
62
  8
0
 10
300.8674008132416
 20
97.480190037747974
 30
0.0
 40
2.0
 50
0.0
 51
90.0
  0
ARC
  5
63
  8
0
 10
301.46740081324162
 20
93.756705288681275
 30
0.0
 40
1.4010066800444021
 50
270.0
 51
2.172147262690844
  0
LINE
  5
64
  8
0
 10
300.8674008132416
 20
99.480190037748031
 30
0.0
 11
283.86740081324172
 21
99.480190037748031
 31
0.0
  0
ARC
  5
65
  8
0
 10
302.79021444324741
 20
76.410474743784079
 30
0.0
 40
16.0
 50
94.742390487584387
 51
174.36981463252769
  0
LINE
  5
66
  8
0
 10
286.86740081324172
 20
66.480190037748045
 30
0.0
 11
286.86740081324172
 21
77.980190037747235
 31
0.0
  0
LINE
  5
67
  8
0
 10
286.86740081324172
 20
66.480190037748045
 30
0.0
 11
267.8674008132416
 21
66.480190037748045
 31
0.0
  0
ARC
  5
68
  8
0
 10
292.82286046810611
 20
76.139244419155403
 30
0.0
 40
22.600000000000001
 50
113.3445350979373
 51
185.48201984930091
  0
ARC
  5
6B
  8
0
 10
292.82286046810611
 20
76.139244419155403
 30
0.0
 40
25.0
 50
110.9908212671527
 51
183.42065216725379
  0
ARC
  5
6C
  8
0
 10
168.6174008132416
 20
98.480190037748073
 30
0.0
 40
1.0
 50
0.0
 51
90.0
  0
ARC
  5
6D
  8
0
 10
150.6174008132416
 20
98.480190037748073
 30
0.0
 40
1.0
 50
90.0
 51
180.0
  0
ARC
  5
6E
  8
0
 10
147.6174008132416
 20
91.58019003774811
 30
0.0
 40
2.0
 50
0.0
 51
90.0
  0
LINE
  5
6F
  8
3
 10
149.6174008132416
 20
74.480190037748031
 30
0.0
 11
169.61740081324149
 21
74.480190037748031
 31
0.0
  0
LINE
  5
70
  8
3
 10
149.6174008132416
 20
74.880190037748065
 30
0.0
 11
169.61740081324149
 21
74.880190037748065
 31
0.0
  0
LINE
  5
71
  8
0
 10
149.6174008132416
 20
66.480190037748045
 30
0.0
 11
169.61740081324149
 21
66.480190037748045
 31
0.0
  0
LINE
  5
72
  8
0
 10
149.6174008132416
 20
66.480190037748045
 30
0.0
 11
149.6174008132416
 21
98.480190037748073
 31
0.0
  0
LINE
  5
73
  8
0
 10
169.6174008132416
 20
66.480190037748045
 30
0.0
 11
169.61740081324149
 21
98.480190037748073
 31
0.0
  0
LINE
  5
74
  8
0
 10
56.617400813241559
 20
99.480190037748102
 30
0.0
 11
168.6174008132416
 21
99.480190037748031
 31
0.0
  0
LINE
  5
75
  8
0
 10
77.617400813241503
 20
93.580190037748125
 30
0.0
 11
147.6174008132416
 21
93.580190037747997
 31
0.0
  0
LINE
  5
76
  8
1
 10
112.6174008132416
 20
102.73020856461611
 30
0.0
 11
112.6174008132416
 21
88.355354113839866
 31
0.0
  0
LINE
  5
77
  8
2
 10
75.617400813241616
 20
96.780190037748056
 30
0.0
 11
73.117400813241616
 21
96.780190037748056
 31
0.0
  0
ARC
  5
78
  8
0
 10
77.617400813241503
 20
91.58019003774811
 30
0.0
 40
2.0
 50
90.0
 51
180.0
  0
LINE
  5
79
  8
2
 10
55.617400813241609
 20
96.780190037748056
 30
0.0
 11
58.617400813241588
 21
96.780190037748056
 31
0.0
  0
ARC
  5
7A
  8
0
 10
56.617400813241559
 20
98.480190037748073
 30
0.0
 40
1.0
 50
90.0
 51
180.0
  0
LINE
  5
7B
  8
2
 10
58.617400813241588
 20
77.480190037747974
 30
0.0
 11
73.117400813241616
 21
77.480190037747974
 31
0.0
  0
LINE
  5
7D
  8
2
 10
73.117400813241616
 20
77.480190037747974
 30
0.0
 11
73.117400813241616
 21
96.780190037748056
 31
0.0
  0
LINE
  5
7E
  8
2
 10
58.617400813241588
 20
77.480190037747974
 30
0.0
 11
58.617400813241588
 21
96.780190037748056
 31
0.0
  0
LINE
  5
7F
  8
0
 10
75.617400813241616
 20
66.480190037748045
 30
0.0
 11
55.617400813241609
 21
66.480190037748045
 31
0.0
  0
LINE
  5
80
  8
0
 10
55.617400813241609
 20
66.480190037748045
 30
0.0
 11
55.617400813241609
 21
98.480190037748073
 31
0.0
  0
ARC
  5
83
  8
0
 10
165.6174008132416
 20
183.38019003774801
 30
0.0
 40
4.0
 50
0.0
 51
90.0
  0
ARC
  5
84
  8
0
 10
168.6174008132416
 20
153.38019003774801
 30
0.0
 40
1.0
 50
270.0
 51
0.0
  0
ARC
  5
85
  8
0
 10
150.6174008132416
 20
153.38019003774801
 30
0.0
 40
1.0
 50
180.0
 51
270.0
  0
LINE
  5
86
  8
0
 10
149.6174008132416
 20
168.580190037748
 30
0.0
 11
149.6174008132416
 21
153.38019003774801
 31
0.0
  0
LINE
  5
87
  8
1
 10
170.88422025609981
 20
161.110190037748
 30
0.0
 11
147.57331541302219
 21
161.110190037748
 31
0.0
  0
LINE
  5
88
  8
0
 10
168.6174008132416
 20
152.38019003774801
 30
0.0
 11
150.6174008132416
 21
152.38019003774801
 31
0.0
  0
LINE
  5
89
  8
0
 10
169.61740081324149
 20
183.38019003774801
 30
0.0
 11
169.61740081324149
 21
153.38019003774801
 31
0.0
  0
CIRCLE
  5
8A
  8
0
 10
122.6174008132416
 20
177.980190037748
 30
0.0
 40
1.5
  0
CIRCLE
  5
8B
  8
0
 10
112.6174008132416
 20
177.980190037748
 30
0.0
 40
1.5
  0
CIRCLE
  5
8C
  8
0
 10
107.6174008132416
 20
177.980190037748
 30
0.0
 40
1.5
  0
CIRCLE
  5
8D
  8
0
 10
117.6174008132416
 20
177.980190037748
 30
0.0
 40
1.5
  0
CIRCLE
  5
8E
  8
0
 10
102.6174008132416
 20
177.980190037748
 30
0.0
 40
1.5
  0
LINE
  5
8F
  8
1
 10
112.6174008132416
 20
192.52880357887921
 30
0.0
 11
112.6174008132416
 21
161.52475250098951
 31
0.0
  0
LINE
  5
92
  8
1
 10
159.3674008132416
 20
171.28346259898211
 30
0.0
 11
159.3674008132416
 21
147.6703235939008
 31
0.0
  0
ARC
  5
93
  8
0
 10
59.617400813241531
 20
183.38019003774801
 30
0.0
 40
4.0
 50
90.0
 51
180.0
  0
ARC
  5
94
  8
0
 10
74.617400813241531
 20
153.38019003774801
 30
0.0
 40
1.0
 50
270.0
 51
0.0
  0
ARC
  5
95
  8
0
 10
56.617400813241559
 20
153.38019003774801
 30
0.0
 40
1.0
 50
180.0
 51
270.0
  0
LINE
  5
96
  8
0
 10
56.617400813241559
 20
152.38019003774801
 30
0.0
 11
74.617400813241531
 21
152.38019003774801
 31
0.0
  0
CIRCLE
  5
97
  8
2
 10
65.867400813241531
 20
161.110190037748
 30
0.0
 40
3.25
  0
LINE
  5
98
  8
0
 10
75.617400813241616
 20
168.580190037748
 30
0.0
 11
75.617400813241616
 21
153.38019003774801
 31
0.0
  0
LINE
  5
99
  8
1
 10
54.350581370383267
 20
161.110190037748
 30
0.0
 11
77.661486213460918
 21
161.110190037748
 31
0.0
  0
LINE
  5
9A
  8
0
 10
55.617400813241609
 20
183.38019003774801
 30
0.0
 11
55.617400813241609
 21
153.38019003774801
 31
0.0
  0
LINE
  5
9B
  8
1
 10
65.867400813241531
 20
169.3037239210831
 30
0.0
 11
65.867400813241531
 21
147.6703235939008
 31
0.0
  0
LINE
  5
9C
  8
0
 10
165.6174008132416
 20
187.38019003774801
 30
0.0
 11
59.617400813241531
 21
187.38019003774789
 31
0.0
  0
LINE
  5
9D
  8
0
 10
169.61740081324149
 20
168.580190037748
 30
0.0
 11
55.617400813241609
 21
168.580190037748
 31
0.0
  0
TEXT
  5
200
  8
0
 62
     3
 10
0.0
 20
0.0
 30
0.0
 40
10.0
  1
EWH110S-LB
  7
STANDARD1
  0
ENDSEC
  0
EOF
